  0
SECTION
  2
HEADER
  9
$ACADVER
  1
AC1009
  9
$INSBASE
 10
0.0
 20
0.0
 30
0.0
  9
$EXTMIN
 10
-4.7010300000000003
 20
-21.070999999999991
 30
0.0
  9
$EXTMAX
 10
205.30099999999999
 20
275.93099999999993
 30
0.0
  9
$LIMMIN
 10
0.0
 20
0.0
  9
$LIMMAX
 10
12.0
 20
9.0
  9
$ORTHOMODE
 70
     0
  9
$REGENMODE
 70
     1
  9
$FILLMODE
 70
     1
  9
$QTEXTMODE
 70
     0
  9
$MIRRTEXT
 70
     1
  9
$DRAGMODE
 70
     2
  9
$LTSCALE
 40
1.0
  9
$OSMODE
 70
    37
  9
$ATTMODE
 70
     1
  9
$TEXTSIZE
 40
0.0
  9
$TRACEWID
 40
0.05
  9
$TEXTSTYLE
  7
STANDARD
  9
$CLAYER
  8
0
  9
$CELTYPE
  6
CONTINUOUS
  9
$CECOLOR
 62
   256
  9
$DIMSCALE
 40
1.0
  9
$DIMASZ
 40
0.18
  9
$DIMEXO
 40
0.0625
  9
$DIMDLI
 40
0.38
  9
$DIMRND
 40
0.0
  9
$DIMDLE
 40
0.0
  9
$DIMEXE
 40
0.18
  9
$DIMTP
 40
0.0
  9
$DIMTM
 40
0.0
  9
$DIMTXT
 40
0.18
  9
$DIMCEN
 40
0.09
  9
$DIMTSZ
 40
0.0
  9
$DIMTOL
 70
     0
  9
$DIMLIM
 70
     0
  9
$DIMTIH
 70
     1
  9
$DIMTOH
 70
     1
  9
$DIMSE1
 70
     0
  9
$DIMSE2
 70
     0
  9
$DIMTAD
 70
     0
  9
$DIMZIN
 70
     0
  9
$DIMBLK
  1

  9
$DIMASO
 70
     1
  9
$DIMSHO
 70
     1
  9
$DIMPOST
  1

  9
$DIMAPOST
  1

  9
$DIMALT
 70
     0
  9
$DIMALTD
 70
     2
  9
$DIMALTF
 40
25.399999999999999
  9
$DIMLFAC
 40
1.0
  9
$DIMTOFL
 70
     0
  9
$DIMTVP
 40
0.0
  9
$DIMTIX
 70
     0
  9
$DIMSOXD
 70
     0
  9
$DIMSAH
 70
     0
  9
$DIMBLK1
  1

  9
$DIMBLK2
  1

  9
$DIMSTYLE
  2
STANDARD
  9
$DIMCLRD
 70
     0
  9
$DIMCLRE
 70
     0
  9
$DIMCLRT
 70
     0
  9
$DIMTFAC
 40
1.0
  9
$DIMGAP
 40
0.09
  9
$LUNITS
 70
     2
  9
$LUPREC
 70
     4
  9
$SKETCHINC
 40
0.1
  9
$FILLETRAD
 40
0.0
  9
$AUNITS
 70
     0
  9
$AUPREC
 70
     0
  9
$MENU
  1
.
  9
$ELEVATION
 40
0.0
  9
$PELEVATION
 40
0.0
  9
$THICKNESS
 40
0.0
  9
$LIMCHECK
 70
     0
  9
$BLIPMODE
 70
     0
  9
$CHAMFERA
 40
0.0
  9
$CHAMFERB
 40
0.0
  9
$SKPOLY
 70
     0
  9
$TDCREATE
 40
2444972.375
  9
$TDUPDATE
 40
2456723.2492951038
  9
$TDINDWG
 40
0.0000069097
  9
$TDUSRTIMER
 40
0.0000069097
  9
$USRTIMER
 70
     1
  9
$ANGBASE
 50
0.0
  9
$ANGDIR
 70
     0
  9
$PDMODE
 70
     0
  9
$PDSIZE
 40
0.0
  9
$PLINEWID
 40
0.0
  9
$COORDS
 70
     1
  9
$SPLFRAME
 70
     0
  9
$SPLINETYPE
 70
     6
  9
$SPLINESEGS
 70
     8
  9
$ATTDIA
 70
     0
  9
$ATTREQ
 70
     1
  9
$HANDLING
 70
     1
  9
$HANDSEED
  5
2E8
  9
$SURFTAB1
 70
     6
  9
$SURFTAB2
 70
     6
  9
$SURFTYPE
 70
     6
  9
$SURFU
 70
     6
  9
$SURFV
 70
     6
  9
$UCSNAME
  2

  9
$UCSORG
 10
0.0
 20
0.0
 30
0.0
  9
$UCSXDIR
 10
1.0
 20
0.0
 30
0.0
  9
$UCSYDIR
 10
0.0
 20
1.0
 30
0.0
  9
$PUCSNAME
  2

  9
$PUCSORG
 10
0.0
 20
0.0
 30
0.0
  9
$PUCSXDIR
 10
1.0
 20
0.0
 30
0.0
  9
$PUCSYDIR
 10
0.0
 20
1.0
 30
0.0
  9
$USERI1
 70
     0
  9
$USERI2
 70
     0
  9
$USERI3
 70
     0
  9
$USERI4
 70
     0
  9
$USERI5
 70
     0
  9
$USERR1
 40
0.0
  9
$USERR2
 40
0.0
  9
$USERR3
 40
0.0
  9
$USERR4
 40
0.0
  9
$USERR5
 40
0.0
  9
$WORLDVIEW
 70
     1
  9
$SHADEDGE
 70
     3
  9
$SHADEDIF
 70
    70
  9
$TILEMODE
 70
     1
  9
$MAXACTVP
 70
    48
  9
$PLIMCHECK
 70
     0
  9
$PEXTMIN
 10
1.0000000000000000E+020
 20
1.0000000000000000E+020
 30
1.0000000000000000E+020
  9
$PEXTMAX
 10
-1.0000000000000000E+020
 20
-1.0000000000000000E+020
 30
-1.0000000000000000E+020
  9
$PLIMMIN
 10
0.0
 20
0.0
  9
$PLIMMAX
 10
12.0
 20
9.0
  9
$UNITMODE
 70
     0
  9
$VISRETAIN
 70
     1
  9
$PLINEGEN
 70
     0
  9
$PSLTSCALE
 70
     1
  0
ENDSEC
  0
SECTION
  2
TABLES
  0
TABLE
  2
VPORT
 70
     2
  0
VPORT
  2
*ACTIVE
 70
     0
 10
0.0
 20
0.0
 11
1.0
 21
1.0
 12
202.006391769564
 22
127.42999999999989
 13
0.0
 23
0.0
 14
1.0
 24
1.0
 15
0.0
 25
0.0
 16
0.0
 26
0.0
 36
1.0
 17
0.0
 27
0.0
 37
0.0
 40
299.45318569463541
 41
2.2894736842105261
 42
50.0
 43
0.0
 44
0.0
 50
0.0
 51
0.0
 71
     0
 72
   100
 73
     1
 74
     1
 75
     0
 76
     0
 77
     0
 78
     0
  0
ENDTAB
  0
TABLE
  2
LTYPE
 70
     4
  0
LTYPE
  2
CONTINUOUS
 70
     0
  3
Solid line
 72
    65
 73
     0
 40
0.0
  0
LTYPE
  2
AIGENLINE001
 70
     0
  3
generate AI->DXF Converter
 72
    65
 73
     4
 40
5.8561449999999988
 49
3.5278
 49
-0.776115
 49
0.776115
 49
-0.776115
  0
LTYPE
  2
AIGENLINE002
 70
     0
  3
generate AI->DXF Converter
 72
    65
 73
     2
 40
1.5522299999999991
 49
0.776115
 49
-0.776115
  0
LTYPE
  2
AIGENLINE003
 70
     0
  3
generate AI->DXF Converter
 72
    65
 73
     6
 40
7.4083750000000004
 49
3.5278
 49
-0.776115
 49
0.776115
 49
-0.776115
 49
0.776115
 49
-0.776115
  0
ENDTAB
  0
TABLE
  2
LAYER
 70
     2
  0
LAYER
  2
0
 70
     0
 62
     7
  6
CONTINUOUS
  0
LAYER
  2
_________2
 70
     0
 62
     7
  6
CONTINUOUS
  0
ENDTAB
  0
TABLE
  2
STYLE
 70
     1
  0
STYLE
  2
STANDARD
 70
     0
 40
0.0
 41
0.0
 50
0.0
 71
     0
 42
0.0
  3
TXT
  4
EXTFONT.SHX
  0
ENDTAB
  0
TABLE
  2
VIEW
 70
     0
  0
ENDTAB
  0
TABLE
  2
UCS
 70
     0
  0
ENDTAB
  0
TABLE
  2
APPID
 70
     1
  0
APPID
  2
ACAD
 70
     0
  0
ENDTAB
  0
TABLE
  2
DIMSTYLE
 70
     1
  0
DIMSTYLE
  2
STANDARD
 70
     0
  3

  4

  5

  6

  7

 40
1.0
 41
0.18
 42
0.0625
 43
0.38
 44
0.18
 45
0.0
 46
0.0
 47
0.0
 48
0.0
140
0.18
141
0.09
142
0.0
143
25.399999999999999
144
1.0
145
0.0
146
1.0
147
0.09
 71
     0
 72
     0
 73
     1
 74
     1
 75
     0
 76
     0
 77
     0
 78
     0
170
     0
171
     2
172
     0
173
     0
174
     0
175
     0
176
     0
177
     0
178
     0
  0
ENDTAB
  0
ENDSEC
  0
SECTION
  2
BLOCKS
  0
BLOCK
  8
0
  2
$MODEL_SPACE
 70
     0
 10
0.0
 20
0.0
 30
0.0
  3
$MODEL_SPACE
  1

  0
ENDBLK
  5
1A
  8
0
  0
BLOCK
 67
     1
  8
0
  2
$PAPER_SPACE
 70
     0
 10
0.0
 20
0.0
 30
0.0
  3
$PAPER_SPACE
  1

  0
ENDBLK
  5
17
 67
     1
  8
0
  0
ENDSEC
  0
SECTION
  2
ENTITIES
  0
TEXT
  5
24
  8
0
 62
     7
 10
127.16200000000001
 20
204.13499999999991
 30
0.0
 40
3.0923400000000001
  1
排水口
 41
0.5
  0
TEXT
  5
25
  8
0
 62
     7
 10
154.60299999999989
 20
185.81135499999991
 30
0.0
 40
3.0923400000000001
  1
157.5
 50
90.0
 41
0.5
 72
     1
 11
154.60299999999989
 21
188.6459999999999
 31
0.0
  0
TEXT
  5
26
  8
0
 62
     7
 10
154.60299999999989
 20
201.812355
 30
0.0
 40
3.0923400000000001
  1
162.5
 50
90.0
 41
0.5
 72
     1
 11
154.60299999999989
 21
204.64699999999999
 31
0.0
  0
TEXT
  5
27
  8
0
 62
     7
 10
151.91598250000001
 20
109.0379999999999
 30
0.0
 40
3.0923400000000001
  1
210
 41
0.5
 72
     1
 11
153.59100000000001
 21
109.0379999999999
 31
0.0
  0
TEXT
  5
28
  8
0
 62
     7
 10
107.486
 20
122.9469825
 30
0.0
 40
3.0923400000000001
  1
170
 50
90.0
 41
0.5
 72
     1
 11
107.486
 21
124.622
 31
0.0
  0
TEXT
  5
29
  8
0
 62
     7
 10
100.825
 20
129.96137250000001
 30
0.0
 40
3.0923400000000001
  1
40
 50
90.0
 41
0.5
 72
     1
 11
100.825
 21
131.12100000000001
 31
0.0
  0
TEXT
  5
2A
  8
0
 62
     7
 10
112.44499999999989
 20
90.635199999999998
 30
0.0
 40
3.0923400000000001
  1
〈付属品〉
 41
0.5
  0
TEXT
  5
2B
  8
0
 62
     7
 10
112.44499999999989
 20
86.769800000000004
 30
0.0
 40
3.0923400000000001
  1
洗面器固定金具×4
 41
0.5
  0
TEXT
  5
2C
  8
0
 62
     7
 10
112.44499999999989
 20
82.904300000000006
 30
0.0
 40
3.0923400000000001
  1
%%c5×20SUSねじ付
 41
0.5
  0
TEXT
  5
2D
  8
0
 62
     7
 10
112.44499999999989
 20
79.038899999999998
 30
0.0
 40
3.0923400000000001
  1
（尺度 1：3）
 41
0.5
  0
TEXT
  5
2E
  8
0
 62
     7
 10
90.580699999999979
 20
54.667499999999997
 30
0.0
 40
3.0923400000000001
  1
12.5
 41
0.5
  0
TEXT
  5
2F
  8
0
 62
     7
 10
65.628999999999991
 20
93.461899999999986
 30
0.0
 40
3.0923400000000001
  1
両面テープ付
 41
0.5
  0
TEXT
  5
30
  8
0
 62
     7
 10
91.726572500000003
 20
49.73749999999999
 30
0.0
 40
3.0923400000000001
  1
50
 41
0.5
 72
     1
 11
92.886199999999988
 21
49.73749999999999
 31
0.0
  0
TEXT
  5
31
  8
0
 62
     7
 10
105.702
 20
84.426749999999984
 30
0.0
 40
3.0923400000000001
  1
1.5
 50
90.0
 41
0.5
 72
     2
 11
105.702
 21
87.003699999999995
 31
0.0
  0
TEXT
  5
32
  8
0
 62
     7
 10
79.660399999999996
 20
83.255020000000002
 30
0.0
 40
3.0923400000000001
  1
19
 50
90.0
 41
0.5
 72
     1
 11
79.660399999999996
 21
84.285799999999995
 31
0.0
  0
TEXT
  5
33
  8
0
 62
     7
 10
106.62899999999991
 20
62.991172500000012
 30
0.0
 40
3.0923400000000001
  1
30
 50
90.0
 41
0.5
 72
     1
 11
106.62899999999991
 21
64.150800000000004
 31
0.0
  0
TEXT
  5
34
  8
0
 62
     7
 10
116.521923
 20
148.81999999999991
 30
0.0
 40
3.0923400000000001
  1
（t＝35～45）
 41
0.5
 72
     1
 11
123.892
 21
148.81999999999991
 31
0.0
  0
TEXT
  5
35
  8
0
 62
     7
 10
119.1326759999999
 20
153.90600000000001
 30
0.0
 40
3.0923400000000001
  1
洗面器固定用補強木
 41
0.5
 72
     2
 11
135.4189999999999
 21
153.90600000000001
 31
0.0
  0
TEXT
  5
36
  8
0
 62
     7
 10
134.84476000000001
 20
164.54699999999991
 30
0.0
 40
3.0923400000000001
  1
カウンター切込寸法
 41
0.5
 72
     1
 11
143.09100000000001
 21
164.54699999999991
 31
0.0
  0
TEXT
  5
37
  8
0
 62
     7
 10
158.21299999999999
 20
186.16399999999999
 30
0.0
 40
3.0923400000000001
  1
R20
 41
0.5
  0
TEXT
  5
38
  8
0
 62
     7
 10
71.048280000000005
 20
202.40999999999991
 30
0.0
 40
3.0923400000000001
  1
%%c46
 41
0.5
 72
     2
 11
75.171400000000006
 21
202.40999999999991
 31
0.0
  0
TEXT
  5
39
  8
0
 62
     7
 10
164.542
 20
219.797
 30
0.0
 40
3.0923400000000001
  1
50以上
 41
0.5
  0
TEXT
  5
3A
  8
0
 62
     7
 10
115.507859
 20
219.797
 30
0.0
 40
3.0923400000000001
  1
50以上
 41
0.5
 72
     2
 11
121.64099999999991
 21
219.797
 31
0.0
  0
TEXT
  5
3B
  8
0
 62
     7
 10
124.4929999999999
 20
194.83828749999989
 30
0.0
 40
3.0923400000000001
  1
320
 50
90.0
 41
0.5
 72
     1
 11
124.4929999999999
 21
196.7709999999999
 31
0.0
  0
TEXT
  5
3C
  8
0
 62
     7
 10
170.55252499999989
 20
172.1579999999999
 30
0.0
 40
3.0923400000000001
  1
55
 41
0.5
 72
     1
 11
171.84099999999989
 21
172.1579999999999
 31
0.0
  0
TEXT
  5
3D
  8
0
 62
     7
 10
113.052525
 20
172.1579999999999
 30
0.0
 40
3.0923400000000001
  1
55
 41
0.5
 72
     1
 11
114.34099999999999
 21
172.1579999999999
 31
0.0
  0
TEXT
  5
3E
  8
0
 62
     7
 10
141.1582875
 20
172.053
 30
0.0
 40
3.0923400000000001
  1
520
 41
0.5
 72
     1
 11
143.09100000000001
 21
172.053
 31
0.0
  0
TEXT
  5
3F
  8
0
 62
     7
 10
22.491800000000001
 20
194.96813499999999
 30
0.0
 40
3.0923400000000001
  1
415
 50
90.0
 41
0.5
 72
     1
 11
22.491800000000001
 21
196.77199999999999
 31
0.0
  0
TEXT
  5
40
  8
0
 62
     7
 10
28.544899999999998
 20
194.83928750000001
 30
0.0
 40
3.0923400000000001
  1
340
 50
90.0
 41
0.5
 72
     1
 11
28.544899999999998
 21
196.77199999999999
 31
0.0
  0
TEXT
  5
41
  8
0
 62
     7
 10
140.441
 20
124.6309824999999
 30
0.0
 40
3.0923400000000001
  1
120
 50
90.0
 41
0.5
 72
     1
 11
140.441
 21
126.306
 31
0.0
  0
TEXT
  5
42
  8
0
 62
     7
 10
100.1249999999999
 20
205.3469825
 30
0.0
 40
3.0923400000000001
  1
210
 50
90.0
 41
0.5
 72
     1
 11
100.1249999999999
 21
207.02199999999999
 31
0.0
  0
TEXT
  5
43
  8
0
 62
     7
 10
61.947987500000004
 20
168.452
 30
0.0
 40
3.0923400000000001
  1
540
 41
0.5
 72
     1
 11
63.88069999999999
 21
168.452
 31
0.0
  0
TEXT
  5
44
  8
0
 62
     7
 10
62.076834999999988
 20
162.13399999999999
 30
0.0
 40
3.0923400000000001
  1
615
 41
0.5
 72
     1
 11
63.88069999999999
 21
162.13399999999999
 31
0.0
  0
LINE
  5
45
  8
0
 62
     7
 10
108.77799999999991
 20
130.90999999999991
 30
0.0
 11
108.18600000000001
 21
133.12100000000001
 31
0.0
  0
LINE
  5
46
  8
0
 62
     7
 10
108.18600000000001
 20
133.12100000000001
 30
0.0
 11
107.5929999999999
 21
130.90999999999991
 31
0.0
  0
LINE
  5
47
  8
0
 62
     7
 10
107.5929999999999
 20
130.90999999999991
 30
0.0
 11
108.77799999999991
 21
130.90999999999991
 31
0.0
  0
LINE
  5
48
  8
0
 62
     7
 10
107.5929999999999
 20
118.33199999999999
 30
0.0
 11
108.18600000000001
 21
116.121
 31
0.0
  0
LINE
  5
49
  8
0
 62
     7
 10
108.18600000000001
 20
116.121
 30
0.0
 11
108.77799999999991
 21
118.33199999999999
 31
0.0
  0
LINE
  5
4A
  8
0
 62
     7
 10
108.77799999999991
 20
118.33199999999999
 30
0.0
 11
107.5929999999999
 21
118.33199999999999
 31
0.0
  0
LINE
  5
4B
  8
0
 62
     7
 10
136.43600000000001
 20
203.155
 30
0.0
 11
127.16200000000001
 21
203.155
 31
0.0
  0
LINE
  5
4C
  8
0
 62
     7
 10
95.180800000000005
 20
129.12200000000001
 30
0.0
 11
102.2259999999999
 21
129.12200000000001
 31
0.0
  0
LINE
  5
4D
  8
0
 62
     7
 10
90.591300000000004
 20
116.121
 30
0.0
 11
108.886
 21
116.121
 31
0.0
  0
LINE
  5
4E
  8
0
 62
     7
 10
94.993399999999994
 20
133.12100000000001
 30
0.0
 11
108.886
 21
133.12100000000001
 31
0.0
  0
LINE
  5
4F
  8
0
 62
     7
 10
102.1179999999999
 20
126.9099999999999
 30
0.0
 11
101.526
 21
129.12200000000001
 31
0.0
  0
LINE
  5
50
  8
0
 62
     7
 10
101.526
 20
129.12200000000001
 30
0.0
 11
100.93299999999989
 21
126.9099999999999
 31
0.0
  0
LINE
  5
51
  8
0
 62
     7
 10
100.93299999999989
 20
126.9099999999999
 30
0.0
 11
102.1179999999999
 21
126.9099999999999
 31
0.0
  0
LINE
  5
52
  8
0
 62
     7
 10
100.941
 20
135.33199999999991
 30
0.0
 11
101.5329999999999
 21
133.12100000000001
 31
0.0
  0
LINE
  5
53
  8
0
 62
     7
 10
101.5329999999999
 20
133.12100000000001
 30
0.0
 11
102.126
 21
135.33199999999991
 31
0.0
  0
LINE
  5
54
  8
0
 62
     7
 10
102.126
 20
135.33199999999991
 30
0.0
 11
100.941
 21
135.33199999999991
 31
0.0
  0
LINE
  5
55
  8
0
 62
     7
 10
108.18600000000001
 20
133.12100000000001
 30
0.0
 11
108.18600000000001
 21
116.121
 31
0.0
  0
LINE
  5
56
  8
0
 62
     7
 10
101.526
 20
137.08299999999991
 30
0.0
 11
101.526
 21
125.16
 31
0.0
  0
LINE
  5
57
  8
0
 62
     7
 10
149.9199999999999
 20
196.52199999999999
 30
0.0
 11
156.0029999999999
 21
196.52199999999999
 31
0.0
  0
LINE
  5
58
  8
0
 62
     7
 10
155.89599999999999
 20
194.31
 30
0.0
 11
155.30299999999991
 21
196.52199999999999
 31
0.0
  0
LINE
  5
59
  8
0
 62
     7
 10
155.30299999999991
 20
196.52199999999999
 30
0.0
 11
154.71100000000001
 21
194.31
 31
0.0
  0
LINE
  5
5A
  8
0
 62
     7
 10
154.71100000000001
 20
194.31
 30
0.0
 11
155.89599999999999
 21
194.31
 31
0.0
  0
LINE
  5
5B
  8
0
 62
     7
 10
155.89599999999999
 20
210.55999999999989
 30
0.0
 11
155.30299999999991
 21
212.77199999999999
 31
0.0
  0
LINE
  5
5C
  8
0
 62
     7
 10
155.30299999999991
 20
212.77199999999999
 30
0.0
 11
154.71100000000001
 21
210.55999999999989
 31
0.0
  0
LINE
  5
5D
  8
0
 62
     7
 10
154.71100000000001
 20
210.55999999999989
 30
0.0
 11
155.89599999999999
 21
210.55999999999989
 31
0.0
  0
LINE
  5
5E
  8
0
 62
     7
 10
154.71100000000001
 20
198.733
 30
0.0
 11
155.30299999999991
 21
196.52199999999999
 31
0.0
  0
LINE
  5
5F
  8
0
 62
     7
 10
155.30299999999991
 20
196.52199999999999
 30
0.0
 11
155.89599999999999
 21
198.733
 31
0.0
  0
LINE
  5
60
  8
0
 62
     7
 10
155.89599999999999
 20
198.733
 30
0.0
 11
154.71100000000001
 21
198.733
 31
0.0
  0
LINE
  5
61
  8
0
 62
     7
 10
154.7179999999999
 20
182.98199999999991
 30
0.0
 11
155.31100000000001
 21
180.7709999999999
 31
0.0
  0
LINE
  5
62
  8
0
 62
     7
 10
155.31100000000001
 20
180.7709999999999
 30
0.0
 11
155.90299999999991
 21
182.98199999999991
 31
0.0
  0
LINE
  5
63
  8
0
 62
     7
 10
155.90299999999991
 20
182.98199999999991
 30
0.0
 11
154.7179999999999
 21
182.98199999999991
 31
0.0
  0
LINE
  5
64
  8
0
 62
     7
 10
164.09099999999989
 20
128.10499999999999
 30
0.0
 11
164.09099999999989
 21
107.6449999999999
 31
0.0
  0
LINE
  5
65
  8
0
 62
     7
 10
143.09100000000001
 20
114.25
 30
0.0
 11
143.09100000000001
 21
107.6449999999999
 31
0.0
  0
LINE
  5
66
  8
0
 62
     7
 10
155.30299999999991
 20
212.77199999999999
 30
0.0
 11
155.30299999999991
 21
180.77199999999999
 31
0.0
  0
LINE
  5
67
  8
0
 62
     7
 10
138.45099999999991
 20
200.31200000000001
 30
0.0
 11
140.43399999999991
 21
199.16800000000001
 31
0.0
  0
LINE
  5
68
  8
0
 62
     7
 10
140.43399999999991
 20
199.16800000000001
 30
0.0
 11
139.28999999999999
 21
201.15000000000001
 31
0.0
  0
LINE
  5
69
  8
0
 62
     7
 10
139.28999999999999
 20
201.15000000000001
 30
0.0
 11
138.45099999999991
 21
200.31200000000001
 31
0.0
  0
LINE
  5
6A
  8
0
 62
     7
 10
136.43600000000001
 20
203.155
 30
0.0
 11
140.42799999999991
 21
199.1629999999999
 31
0.0
  0
LINE
  5
6B
  8
0
 62
     7
 10
161.87899999999991
 20
108.93000000000001
 30
0.0
 11
164.09099999999989
 21
108.33799999999999
 31
0.0
  0
LINE
  5
6C
  8
0
 62
     7
 10
164.09099999999989
 20
108.33799999999999
 30
0.0
 11
161.87899999999991
 21
107.745
 31
0.0
  0
LINE
  5
6D
  8
0
 62
     7
 10
161.87899999999991
 20
107.745
 30
0.0
 11
161.87899999999991
 21
108.93000000000001
 31
0.0
  0
LINE
  5
6E
  8
0
 62
     7
 10
145.30199999999999
 20
107.7529999999999
 30
0.0
 11
143.09100000000001
 21
108.345
 31
0.0
  0
LINE
  5
6F
  8
0
 62
     7
 10
143.09100000000001
 20
108.345
 30
0.0
 11
145.30199999999999
 21
108.938
 31
0.0
  0
LINE
  5
70
  8
0
 62
     7
 10
145.30199999999999
 20
108.938
 30
0.0
 11
145.30199999999999
 21
107.7529999999999
 31
0.0
  0
LINE
  5
71
  8
0
 62
     7
 10
162.541
 20
108.33799999999999
 30
0.0
 11
143.09200000000001
 21
108.33799999999999
 31
0.0
  0
LINE
  5
72
  8
0
  6
AIGENLINE001
 62
     7
 10
137.49000000000001
 20
196.52199999999999
 30
0.0
 11
148.88499999999999
 21
196.52199999999999
 31
0.0
  0
ARC
  5
73
  8
0
  6
AIGENLINE002
 62
     7
 10
143.090878
 20
196.52154599999989
 30
0.0
 40
3.7500110000000002
 50
0.00001
 51
89.999980000000008
  0
ARC
  5
74
  8
0
  6
AIGENLINE002
 62
     7
 10
143.09087899999989
 20
196.52154599999989
 30
0.0
 40
3.7500110000000002
 50
90.0
 51
179.99996999999991
  0
ARC
  5
75
  8
0
  6
AIGENLINE002
 62
     7
 10
143.090878
 20
196.52154599999989
 30
0.0
 40
3.750008999999999
 50
179.99996999999991
 51
270.00002000000001
  0
ARC
  5
76
  8
0
  6
AIGENLINE002
 62
     7
 10
143.090878
 20
196.521547
 30
0.0
 40
3.7500110000000002
 50
270.00002000000001
 51
359.99998999999991
  0
ARC
  5
77
  8
0
  6
AIGENLINE002
 62
     7
 10
143.09079199999991
 20
196.52163200000001
 30
0.0
 40
2.3000470000000002
 50
359.99786399999988
 51
89.997834999999995
  0
ARC
  5
78
  8
0
  6
AIGENLINE002
 62
     7
 10
143.0909649999999
 20
196.52163200000001
 30
0.0
 40
2.3000470000000002
 50
90.002145999999996
 51
180.0021549999999
  0
ARC
  5
79
  8
0
  6
AIGENLINE002
 62
     7
 10
143.090878
 20
196.52154599999989
 30
0.0
 40
2.29996
 50
179.99996999999991
 51
270.00002000000001
  0
ARC
  5
7A
  8
0
  6
AIGENLINE002
 62
     7
 10
143.090878
 20
196.521547
 30
0.0
 40
2.2999610000000001
 50
270.00002000000001
 51
359.99998999999991
  0
ARC
  5
7B
  8
0
 62
     7
 10
97.844065000000015
 20
64.112934999999993
 30
0.0
 40
1.0387269999999991
 50
2.0912509999999989
 51
87.888998999999998
  0
ARC
  5
7C
  8
0
 62
     7
 10
97.843354000000005
 20
64.189455000000009
 30
0.0
 40
1.0394639999999991
 50
272.14875799999987
 51
357.870992
  0
ARC
  5
7D
  8
0
 62
     7
 10
96.253831000000005
 20
64.188733999999997
 30
0.0
 40
1.0387159999999991
 50
182.09072399999999
 51
267.889565
  0
ARC
  5
7E
  8
0
 62
     7
 10
96.254553000000001
 20
64.112223999999983
 30
0.0
 40
1.0394639999999991
 50
92.148737999999994
 51
177.87097299999991
  0
LINE
  5
7F
  8
0
  6
AIGENLINE001
 62
     7
 10
94.638400000000004
 20
64.150800000000004
 30
0.0
 11
99.459500000000006
 21
64.150800000000004
 31
0.0
  0
LINE
  5
80
  8
0
  6
AIGENLINE001
 62
     7
 10
97.049300000000002
 20
62.765900000000002
 30
0.0
 11
97.049300000000002
 21
65.552700000000002
 31
0.0
  0
LINE
  5
81
  8
0
  6
AIGENLINE001
 62
     7
 10
97.882300000000001
 20
65.709800000000001
 30
0.0
 11
97.882300000000001
 21
62.522300000000001
 31
0.0
  0
LINE
  5
82
  8
0
  6
AIGENLINE001
 62
     7
 10
96.215599999999995
 20
65.709800000000001
 30
0.0
 11
96.215599999999995
 21
62.522300000000001
 31
0.0
  0
LINE
  5
83
  8
0
 62
     7
 10
97.882300000000001
 20
65.15100000000001
 30
0.0
 11
96.215599999999995
 21
65.15100000000001
 31
0.0
  0
LINE
  5
84
  8
0
 62
     7
 10
97.882300000000001
 20
63.150700000000001
 30
0.0
 11
96.215599999999995
 21
63.150700000000001
 31
0.0
  0
LINE
  5
85
  8
0
  6
AIGENLINE001
 62
     7
 10
97.049300000000002
 20
82.884399999999985
 30
0.0
 11
97.049300000000002
 21
80.001800000000003
 31
0.0
  0
LINE
  5
86
  8
0
 62
     7
 10
89.548599999999993
 20
59.1509
 30
0.0
 11
89.548599999999993
 21
69.150700000000001
 31
0.0
  0
LINE
  5
87
  8
0
 62
     7
 10
86.215100000000007
 20
59.484400000000001
 30
0.0
 11
86.215100000000007
 21
68.817599999999985
 31
0.0
  0
LINE
  5
88
  8
0
 62
     7
 10
101.84399999999999
 20
81.222800000000007
 30
0.0
 11
106.8889999999999
 21
81.222800000000007
 31
0.0
  0
LINE
  5
89
  8
0
 62
     7
 10
101.84399999999999
 20
81.722700000000003
 30
0.0
 11
106.8889999999999
 21
81.722700000000003
 31
0.0
  0
LINE
  5
8A
  8
0
 62
     7
 10
101.21599999999999
 20
69.150700000000001
 30
0.0
 11
84.549000000000007
 21
69.150700000000001
 31
0.0
  0
LINE
  5
8B
  8
0
 62
     7
 10
84.549000000000007
 20
59.1509
 30
0.0
 11
84.549000000000007
 21
69.150700000000001
 31
0.0
  0
LINE
  5
8C
  8
0
 62
     7
 10
101.21599999999999
 20
59.1509
 30
0.0
 11
84.549000000000007
 21
59.1509
 31
0.0
  0
LINE
  5
8D
  8
0
 62
     7
 10
101.21599999999999
 20
59.1509
 30
0.0
 11
101.21599999999999
 21
69.150700000000001
 31
0.0
  0
LINE
  5
8E
  8
0
 62
     7
 10
101.21599999999999
 20
81.222800000000007
 30
0.0
 11
89.645099999999999
 21
81.222800000000007
 31
0.0
  0
LINE
  5
8F
  8
0
 62
     7
 10
89.067699999999988
 20
81.555899999999994
 30
0.0
 11
85.892600000000016
 21
87.055999999999997
 31
0.0
  0
ARC
  5
90
  8
0
 62
     7
 10
89.652314000000004
 20
81.902306999999979
 30
0.0
 40
0.6795720000000001
 50
210.64508900000001
 51
269.38771299999991
  0
LINE
  5
91
  8
0
 62
     7
 10
89.582999999999984
 20
81.722700000000003
 30
0.0
 11
86.407999999999987
 21
87.222800000000007
 31
0.0
  0
LINE
  5
92
  8
0
 62
     7
 10
85.830600000000004
 20
87.555899999999994
 30
0.0
 11
84.549000000000007
 21
87.555899999999994
 31
0.0
  0
ARC
  5
93
  8
0
 62
     7
 10
85.823356000000004
 20
86.876400000000004
 30
0.0
 40
0.6795720000000001
 50
30.645068999999999
 51
89.387692999999999
  0
LINE
  5
94
  8
0
 62
     7
 10
85.892600000000016
 20
87.055999999999997
 30
0.0
 11
84.549000000000007
 21
87.055999999999997
 31
0.0
  0
LINE
  5
95
  8
0
 62
     7
 10
84.549000000000007
 20
87.055999999999997
 30
0.0
 11
84.549000000000007
 21
87.555899999999994
 31
0.0
  0
LINE
  5
96
  8
0
 62
     7
 10
101.21599999999999
 20
81.722700000000003
 30
0.0
 11
89.582999999999984
 21
81.722700000000003
 31
0.0
  0
LINE
  5
97
  8
0
 62
     7
 10
101.21599999999999
 20
81.222800000000007
 30
0.0
 11
101.21599999999999
 21
81.722700000000003
 31
0.0
  0
LINE
  5
98
  8
0
 62
     7
 10
97.049300000000002
 20
62.5306
 30
0.0
 11
97.048599999999993
 21
53.556399999999996
 31
0.0
  0
LINE
  5
99
  8
0
 62
     7
 10
99.741299999999995
 20
53.581899999999997
 30
0.0
 11
101.21599999999999
 21
53.9771
 31
0.0
  0
LINE
  5
9A
  8
0
 62
     7
 10
101.21599999999999
 20
53.9771
 30
0.0
 11
99.741299999999995
 21
54.372199999999992
 31
0.0
  0
LINE
  5
9B
  8
0
 62
     7
 10
99.741299999999995
 20
54.372199999999992
 30
0.0
 11
99.741299999999995
 21
53.581899999999997
 31
0.0
  0
LINE
  5
9C
  8
0
 62
     7
 10
98.523100000000014
 20
54.3626
 30
0.0
 11
97.048599999999993
 21
53.967399999999998
 31
0.0
  0
LINE
  5
9D
  8
0
 62
     7
 10
97.048599999999993
 20
53.967399999999998
 30
0.0
 11
98.523100000000014
 21
53.572299999999998
 31
0.0
  0
LINE
  5
9E
  8
0
 62
     7
 10
98.523100000000014
 20
53.572299999999998
 30
0.0
 11
98.523100000000014
 21
54.3626
 31
0.0
  0
LINE
  5
9F
  8
0
 62
     7
 10
101.21599999999999
 20
53.967399999999998
 30
0.0
 11
90.580699999999979
 21
53.967399999999998
 31
0.0
  0
LINE
  5
A0
  8
0
 62
     7
 10
84.549000000000007
 20
58.508800000000001
 30
0.0
 11
84.549000000000007
 21
48.6265
 31
0.0
  0
LINE
  5
A1
  8
0
 62
     7
 10
101.21599999999999
 20
58.508800000000001
 30
0.0
 11
101.21599999999999
 21
48.6265
 31
0.0
  0
LINE
  5
A2
  8
0
 62
     7
 10
84.147300000000001
 20
88.437899999999999
 30
0.0
 11
85.393100000000004
 21
87.555899999999994
 31
0.0
  0
LINE
  5
A3
  8
0
 62
     7
 10
85.393100000000004
 20
87.555899999999994
 30
0.0
 11
84.755099999999985
 21
88.941900000000004
 31
0.0
  0
LINE
  5
A4
  8
0
 62
     7
 10
84.755099999999985
 20
88.941900000000004
 30
0.0
 11
84.147300000000001
 21
88.437899999999999
 31
0.0
  0
LINE
  5
A5
  8
0
 62
     7
 10
81.283900000000017
 20
92.503500000000003
 30
0.0
 11
85.393100000000004
 21
87.555899999999994
 31
0.0
  0
LINE
  5
A6
  8
0
 62
     7
 10
81.283900000000017
 20
92.503500000000003
 30
0.0
 11
65.628999999999991
 21
92.503500000000003
 31
0.0
  0
LINE
  5
A7
  8
0
 62
     7
 10
99.741299999999995
 20
48.651899999999998
 30
0.0
 11
101.21599999999999
 21
49.0471
 31
0.0
  0
LINE
  5
A8
  8
0
 62
     7
 10
101.21599999999999
 20
49.0471
 30
0.0
 11
99.741299999999995
 21
49.44230000000001
 31
0.0
  0
LINE
  5
A9
  8
0
 62
     7
 10
99.741299999999995
 20
49.44230000000001
 30
0.0
 11
99.741299999999995
 21
48.651899999999998
 31
0.0
  0
LINE
  5
AA
  8
0
 62
     7
 10
86.023499999999984
 20
49.432600000000001
 30
0.0
 11
84.549000000000007
 21
49.037500000000001
 31
0.0
  0
LINE
  5
AB
  8
0
 62
     7
 10
84.549000000000007
 20
49.037500000000001
 30
0.0
 11
86.023499999999984
 21
48.642299999999999
 31
0.0
  0
LINE
  5
AC
  8
0
 62
     7
 10
86.023499999999984
 20
48.642299999999999
 30
0.0
 11
86.023499999999984
 21
49.432600000000001
 31
0.0
  0
LINE
  5
AD
  8
0
 62
     7
 10
101.21599999999999
 20
49.037500000000001
 30
0.0
 11
84.549000000000007
 21
49.037500000000001
 31
0.0
  0
LINE
  5
AE
  8
0
 62
     7
 10
88.6143
 20
81.222800000000007
 30
0.0
 11
80.365999999999985
 21
81.222800000000007
 31
0.0
  0
LINE
  5
AF
  8
0
 62
     7
 10
83.932999999999993
 20
87.555899999999994
 30
0.0
 11
80.365999999999985
 21
87.555899999999994
 31
0.0
  0
LINE
  5
B0
  8
0
 62
     7
 10
81.170799999999986
 20
86.081800000000001
 30
0.0
 11
80.775899999999979
 21
87.556299999999993
 31
0.0
  0
LINE
  5
B1
  8
0
 62
     7
 10
80.775899999999979
 20
87.556299999999993
 30
0.0
 11
80.380399999999995
 21
86.081800000000001
 31
0.0
  0
LINE
  5
B2
  8
0
 62
     7
 10
80.380399999999995
 20
86.081800000000001
 30
0.0
 11
81.170799999999986
 21
86.081800000000001
 31
0.0
  0
LINE
  5
B3
  8
0
 62
     7
 10
80.390100000000004
 20
82.696899999999999
 30
0.0
 11
80.785600000000017
 21
81.222399999999993
 31
0.0
  0
LINE
  5
B4
  8
0
 62
     7
 10
80.785600000000017
 20
81.222399999999993
 30
0.0
 11
81.180400000000006
 21
82.696899999999999
 31
0.0
  0
LINE
  5
B5
  8
0
 62
     7
 10
81.180400000000006
 20
82.696899999999999
 30
0.0
 11
80.390100000000004
 21
82.696899999999999
 31
0.0
  0
LINE
  5
B6
  8
0
 62
     7
 10
80.775899999999979
 20
87.555899999999994
 30
0.0
 11
80.775899999999979
 21
81.222800000000007
 31
0.0
  0
LINE
  5
B7
  8
0
 62
     7
 10
101.84399999999999
 20
59.1509
 30
0.0
 11
108.0289999999999
 21
59.1509
 31
0.0
  0
LINE
  5
B8
  8
0
 62
     7
 10
101.84399999999999
 20
69.150700000000001
 30
0.0
 11
108.0289999999999
 21
69.150700000000001
 31
0.0
  0
LINE
  5
B9
  8
0
 62
     7
 10
106.87299999999991
 20
79.7483
 30
0.0
 11
106.4789999999999
 21
81.222800000000007
 31
0.0
  0
LINE
  5
BA
  8
0
 62
     7
 10
106.4789999999999
 20
81.222800000000007
 30
0.0
 11
106.0829999999999
 21
79.7483
 31
0.0
  0
LINE
  5
BB
  8
0
 62
     7
 10
106.0829999999999
 20
79.7483
 30
0.0
 11
106.87299999999991
 21
79.7483
 31
0.0
  0
LINE
  5
BC
  8
0
 62
     7
 10
106.0829999999999
 20
83.197199999999995
 30
0.0
 11
106.4789999999999
 21
81.722700000000003
 31
0.0
  0
LINE
  5
BD
  8
0
 62
     7
 10
106.4789999999999
 20
81.722700000000003
 30
0.0
 11
106.87299999999991
 21
83.197199999999995
 31
0.0
  0
LINE
  5
BE
  8
0
 62
     7
 10
106.87299999999991
 20
83.197199999999995
 30
0.0
 11
106.0829999999999
 21
83.197199999999995
 31
0.0
  0
LINE
  5
BF
  8
0
 62
     7
 10
106.4789999999999
 20
87.062600000000003
 30
0.0
 11
106.4789999999999
 21
78.769499999999994
 31
0.0
  0
LINE
  5
C0
  8
0
 62
     7
 10
108.01300000000001
 20
67.676599999999993
 30
0.0
 11
107.6179999999999
 21
69.1511
 31
0.0
  0
LINE
  5
C1
  8
0
 62
     7
 10
107.6179999999999
 20
69.1511
 30
0.0
 11
107.223
 21
67.676599999999993
 31
0.0
  0
LINE
  5
C2
  8
0
 62
     7
 10
107.223
 20
67.676599999999993
 30
0.0
 11
108.01300000000001
 21
67.676599999999993
 31
0.0
  0
LINE
  5
C3
  8
0
 62
     7
 10
107.232
 20
60.625100000000003
 30
0.0
 11
107.627
 21
59.150599999999997
 31
0.0
  0
LINE
  5
C4
  8
0
 62
     7
 10
107.627
 20
59.150599999999997
 30
0.0
 11
108.023
 21
60.625100000000003
 31
0.0
  0
LINE
  5
C5
  8
0
 62
     7
 10
108.023
 20
60.625100000000003
 30
0.0
 11
107.232
 21
60.625100000000003
 31
0.0
  0
LINE
  5
C6
  8
0
 62
     7
 10
107.6179999999999
 20
69.150700000000001
 30
0.0
 11
107.6179999999999
 21
59.1509
 31
0.0
  0
LINE
  5
C7
  8
0
 62
     7
 10
111.79299999999991
 20
152.85599999999991
 30
0.0
 11
135.4189999999999
 21
152.85599999999991
 31
0.0
  0
LINE
  5
C8
  8
0
 62
     7
 10
107.97
 20
178.5449999999999
 30
0.0
 11
108.282
 21
180.81299999999999
 31
0.0
  0
LINE
  5
C9
  8
0
 62
     7
 10
108.282
 20
180.81299999999999
 30
0.0
 11
109.146
 21
178.6929999999999
 31
0.0
  0
LINE
  5
CA
  8
0
 62
     7
 10
109.146
 20
178.6929999999999
 30
0.0
 11
107.97
 21
178.5449999999999
 31
0.0
  0
LINE
  5
CB
  8
0
 62
     7
 10
111.79299999999991
 20
152.85599999999991
 30
0.0
 11
108.27500000000001
 21
180.81099999999989
 31
0.0
  0
LINE
  5
CC
  8
0
 62
     7
 10
174.59099999999989
 20
170.65299999999991
 30
0.0
 11
174.59099999999989
 21
180.071
 31
0.0
  0
LINE
  5
CD
  8
0
  6
AIGENLINE002
 62
     7
 10
146.84100000000001
 20
121.121
 30
0.0
 11
146.91499999999991
 21
121.123
 31
0.0
  0
ARC
  5
CE
  8
0
  6
AIGENLINE002
 62
     7
 10
139.33878200000001
 20
122.6250469999999
 30
0.0
 40
1.5040269999999989
 50
267.25675999999987
 51
270.06637399999988
  0
LINE
  5
CF
  8
0
  6
AIGENLINE002
 62
     7
 10
67.630600000000001
 20
121.121
 30
0.0
 11
67.704700000000003
 21
121.123
 31
0.0
  0
ARC
  5
D0
  8
0
  6
AIGENLINE002
 62
     7
 10
60.129089999999998
 20
122.66572099999991
 30
0.0
 40
1.5447010000000001
 50
267.29336699999988
 51
270.05454500000002
  0
LINE
  5
D1
  8
0
 62
     7
 10
158.21299999999999
 20
185.464
 30
0.0
 11
164.47099999999989
 21
185.464
 31
0.0
  0
LINE
  5
D2
  8
0
 62
     7
 10
166.55799999999999
 20
182.53999999999991
 30
0.0
 11
168.53999999999999
 21
181.39500000000001
 31
0.0
  0
LINE
  5
D3
  8
0
 62
     7
 10
168.53999999999999
 20
181.39500000000001
 30
0.0
 11
167.3959999999999
 21
183.37700000000001
 31
0.0
  0
LINE
  5
D4
  8
0
 62
     7
 10
167.3959999999999
 20
183.37700000000001
 30
0.0
 11
166.55799999999999
 21
182.53999999999991
 31
0.0
  0
LINE
  5
D5
  8
0
 62
     7
 10
164.47099999999989
 20
185.464
 30
0.0
 11
168.541
 21
181.39500000000001
 31
0.0
  0
LINE
  5
D6
  8
0
 62
     7
 10
60.271299999999989
 20
193.75099999999989
 30
0.0
 11
62.254300000000001
 21
194.8959999999999
 31
0.0
  0
LINE
  5
D7
  8
0
 62
     7
 10
62.254300000000001
 20
194.8959999999999
 30
0.0
 11
61.10949999999999
 21
192.9129999999999
 31
0.0
  0
LINE
  5
D8
  8
0
 62
     7
 10
61.10949999999999
 20
192.9129999999999
 30
0.0
 11
60.271299999999989
 21
193.75099999999989
 31
0.0
  0
LINE
  5
D9
  8
0
 62
     7
 10
67.489500000000007
 20
199.29300000000001
 30
0.0
 11
65.506799999999984
 21
198.14899999999989
 31
0.0
  0
LINE
  5
DA
  8
0
 62
     7
 10
65.506799999999984
 20
198.14899999999989
 30
0.0
 11
66.651700000000005
 21
200.13099999999989
 31
0.0
  0
LINE
  5
DB
  8
0
 62
     7
 10
66.651700000000005
 20
200.13099999999989
 30
0.0
 11
67.489500000000007
 21
199.29300000000001
 31
0.0
  0
LINE
  5
DC
  8
0
 62
     7
 10
59.380400000000002
 20
192.02199999999999
 30
0.0
 11
68.380399999999995
 21
201.02199999999999
 31
0.0
  0
LINE
  5
DD
  8
0
 62
     7
 10
68.380399999999995
 20
201.02199999999999
 30
0.0
 11
75.121799999999993
 21
201.02199999999999
 31
0.0
  0
LINE
  5
DE
  8
0
 62
     7
 10
29.837499999999999
 20
211.56
 30
0.0
 11
29.244900000000001
 21
213.77199999999999
 31
0.0
  0
LINE
  5
DF
  8
0
 62
     7
 10
29.244900000000001
 20
213.77199999999999
 30
0.0
 11
28.6524
 21
211.56
 31
0.0
  0
LINE
  5
E0
  8
0
 62
     7
 10
28.6524
 20
211.56
 30
0.0
 11
29.837499999999999
 21
211.56
 31
0.0
  0
LINE
  5
E1
  8
0
 62
     7
 10
28.6599
 20
181.98299999999989
 30
0.0
 11
29.252500000000001
 21
179.77199999999999
 31
0.0
  0
LINE
  5
E2
  8
0
 62
     7
 10
29.252500000000001
 20
179.77199999999999
 30
0.0
 11
29.845099999999999
 21
181.98299999999989
 31
0.0
  0
LINE
  5
E3
  8
0
 62
     7
 10
29.845099999999999
 20
181.98299999999989
 30
0.0
 11
28.6599
 21
181.98299999999989
 31
0.0
  0
LINE
  5
E4
  8
0
 62
     7
 10
29.244900000000001
 20
212.22199999999989
 30
0.0
 11
29.244900000000001
 21
179.77199999999999
 31
0.0
  0
LINE
  5
E5
  8
0
 62
     7
 10
23.784400000000002
 20
215.2519999999999
 30
0.0
 11
23.191800000000001
 21
217.464
 31
0.0
  0
LINE
  5
E6
  8
0
 62
     7
 10
23.191800000000001
 20
217.464
 30
0.0
 11
22.599299999999999
 21
215.2519999999999
 31
0.0
  0
LINE
  5
E7
  8
0
 62
     7
 10
22.599299999999999
 20
215.2519999999999
 30
0.0
 11
23.784400000000002
 21
215.2519999999999
 31
0.0
  0
LINE
  5
E8
  8
0
 62
     7
 10
22.606899999999989
 20
178.23299999999989
 30
0.0
 11
23.199400000000001
 21
176.02199999999999
 31
0.0
  0
LINE
  5
E9
  8
0
 62
     7
 10
23.199400000000001
 20
176.02199999999999
 30
0.0
 11
23.791999999999991
 21
178.23299999999989
 31
0.0
  0
LINE
  5
EA
  8
0
 62
     7
 10
23.791999999999991
 20
178.23299999999989
 30
0.0
 11
22.606899999999989
 21
178.23299999999989
 31
0.0
  0
LINE
  5
EB
  8
0
 62
     7
 10
23.191800000000001
 20
215.91399999999999
 30
0.0
 11
23.191800000000001
 21
176.02199999999999
 31
0.0
  0
LINE
  5
EC
  8
0
 62
     7
 10
28.8949
 20
179.77199999999999
 30
0.0
 11
38.158799999999992
 21
179.77199999999999
 31
0.0
  0
LINE
  5
ED
  8
0
 62
     7
 10
28.8949
 20
213.77199999999999
 30
0.0
 11
38.158799999999992
 21
213.77199999999999
 31
0.0
  0
LINE
  5
EE
  8
0
 62
     7
 10
141.73299999999989
 20
130.90899999999991
 30
0.0
 11
141.14099999999991
 21
133.12100000000001
 31
0.0
  0
LINE
  5
EF
  8
0
 62
     7
 10
141.14099999999991
 20
133.12100000000001
 30
0.0
 11
140.548
 21
130.90899999999991
 31
0.0
  0
LINE
  5
F0
  8
0
 62
     7
 10
140.548
 20
130.90899999999991
 30
0.0
 11
141.73299999999989
 21
130.90899999999991
 31
0.0
  0
LINE
  5
F1
  8
0
 62
     7
 10
140.548
 20
123.33199999999999
 30
0.0
 11
141.14099999999991
 21
121.121
 31
0.0
  0
LINE
  5
F2
  8
0
 62
     7
 10
141.14099999999991
 20
121.121
 30
0.0
 11
141.73299999999989
 21
123.33199999999999
 31
0.0
  0
LINE
  5
F3
  8
0
 62
     7
 10
141.73299999999989
 20
123.33199999999999
 30
0.0
 11
140.548
 21
123.33199999999999
 31
0.0
  0
LINE
  5
F4
  8
0
 62
     7
 10
141.14099999999991
 20
133.12100000000001
 30
0.0
 11
141.14099999999991
 21
121.121
 31
0.0
  0
LINE
  5
F5
  8
0
 62
     7
 10
69.580500000000001
 20
196.52199999999999
 30
0.0
 11
101.526
 21
196.52199999999999
 31
0.0
  0
LINE
  5
F6
  8
0
 62
     7
 10
90.958699999999993
 20
217.52199999999999
 30
0.0
 11
101.526
 21
217.52199999999999
 31
0.0
  0
LINE
  5
F7
  8
0
 62
     7
 10
22.491800000000001
 20
217.52199999999999
 30
0.0
 11
38.158799999999992
 21
217.52199999999999
 31
0.0
  0
LINE
  5
F8
  8
0
 62
     7
 10
22.491800000000001
 20
176.02199999999999
 30
0.0
 11
38.158799999999992
 21
176.02199999999999
 31
0.0
  0
LINE
  5
F9
  8
0
 62
     7
 10
101.41799999999991
 20
215.31
 30
0.0
 11
100.825
 21
217.52199999999999
 31
0.0
  0
LINE
  5
FA
  8
0
 62
     7
 10
100.825
 20
217.52199999999999
 30
0.0
 11
100.2329999999999
 21
215.31
 31
0.0
  0
LINE
  5
FB
  8
0
 62
     7
 10
100.2329999999999
 20
215.31
 30
0.0
 11
101.41799999999991
 21
215.31
 31
0.0
  0
LINE
  5
FC
  8
0
 62
     7
 10
100.241
 20
198.733
 30
0.0
 11
100.8329999999999
 21
196.52199999999999
 31
0.0
  0
LINE
  5
FD
  8
0
 62
     7
 10
100.8329999999999
 20
196.52199999999999
 30
0.0
 11
101.4259999999999
 21
198.733
 31
0.0
  0
LINE
  5
FE
  8
0
 62
     7
 10
101.4259999999999
 20
198.733
 30
0.0
 11
100.241
 21
198.733
 31
0.0
  0
LINE
  5
FF
  8
0
 62
     7
 10
100.825
 20
215.97200000000001
 30
0.0
 11
100.825
 21
196.52199999999999
 31
0.0
  0
LINE
  5
100
  8
0
 62
     7
 10
176.80299999999991
 20
218.50499999999991
 30
0.0
 11
174.59099999999989
 21
219.09700000000001
 31
0.0
  0
LINE
  5
101
  8
0
 62
     7
 10
174.59099999999989
 20
219.09700000000001
 30
0.0
 11
176.80299999999991
 21
219.68999999999991
 31
0.0
  0
LINE
  5
102
  8
0
 62
     7
 10
176.80299999999991
 20
219.68999999999991
 30
0.0
 11
176.80299999999991
 21
218.50499999999991
 31
0.0
  0
LINE
  5
103
  8
0
 62
     7
 10
177.38
 20
219.68199999999999
 30
0.0
 11
179.59099999999989
 21
219.09
 31
0.0
  0
LINE
  5
104
  8
0
 62
     7
 10
179.59099999999989
 20
219.09
 30
0.0
 11
177.38
 21
218.49700000000001
 31
0.0
  0
LINE
  5
105
  8
0
 62
     7
 10
177.38
 20
218.49700000000001
 30
0.0
 11
177.38
 21
219.68199999999999
 31
0.0
  0
LINE
  5
106
  8
0
 62
     7
 10
164.542
 20
219.09700000000001
 30
0.0
 11
179.59099999999989
 21
219.09700000000001
 31
0.0
  0
LINE
  5
107
  8
0
 62
     7
 10
179.59099999999989
 20
213.75099999999989
 30
0.0
 11
179.59099999999989
 21
219.78999999999999
 31
0.0
  0
LINE
  5
108
  8
0
 62
     7
 10
174.59099999999989
 20
213.75099999999989
 30
0.0
 11
174.59099999999989
 21
219.78999999999999
 31
0.0
  0
LINE
  5
109
  8
0
 62
     7
 10
109.379
 20
218.50499999999991
 30
0.0
 11
111.59099999999999
 21
219.09700000000001
 31
0.0
  0
LINE
  5
10A
  8
0
 62
     7
 10
111.59099999999999
 20
219.09700000000001
 30
0.0
 11
109.379
 21
219.68999999999991
 31
0.0
  0
LINE
  5
10B
  8
0
 62
     7
 10
109.379
 20
219.68999999999991
 30
0.0
 11
109.379
 21
218.50499999999991
 31
0.0
  0
LINE
  5
10C
  8
0
 62
     7
 10
108.80199999999989
 20
219.68199999999999
 30
0.0
 11
106.59099999999999
 21
219.09
 31
0.0
  0
LINE
  5
10D
  8
0
 62
     7
 10
106.59099999999999
 20
219.09
 30
0.0
 11
108.80199999999989
 21
218.49700000000001
 31
0.0
  0
LINE
  5
10E
  8
0
 62
     7
 10
108.80199999999989
 20
218.49700000000001
 30
0.0
 11
108.80199999999989
 21
219.68199999999999
 31
0.0
  0
LINE
  5
10F
  8
0
 62
     7
 10
121.64099999999991
 20
219.09700000000001
 30
0.0
 11
106.592
 21
219.09700000000001
 31
0.0
  0
LINE
  5
110
  8
0
 62
     7
 10
125.7849999999999
 20
210.55999999999989
 30
0.0
 11
125.1929999999999
 21
212.77199999999999
 31
0.0
  0
LINE
  5
111
  8
0
 62
     7
 10
125.1929999999999
 20
212.77199999999999
 30
0.0
 11
124.59999999999989
 21
210.55999999999989
 31
0.0
  0
LINE
  5
112
  8
0
 62
     7
 10
124.59999999999989
 20
210.55999999999989
 30
0.0
 11
125.7849999999999
 21
210.55999999999989
 31
0.0
  0
LINE
  5
113
  8
0
 62
     7
 10
124.6079999999999
 20
182.98199999999991
 30
0.0
 11
125.2
 21
180.7709999999999
 31
0.0
  0
LINE
  5
114
  8
0
 62
     7
 10
125.2
 20
180.7709999999999
 30
0.0
 11
125.79299999999991
 21
182.98199999999991
 31
0.0
  0
LINE
  5
115
  8
0
 62
     7
 10
125.79299999999991
 20
182.98199999999991
 30
0.0
 11
124.6079999999999
 21
182.98199999999991
 31
0.0
  0
LINE
  5
116
  8
0
 62
     7
 10
125.1929999999999
 20
211.22200000000001
 30
0.0
 11
125.1929999999999
 21
180.77199999999999
 31
0.0
  0
LINE
  5
117
  8
0
 62
     7
 10
88.6691
 20
168.34399999999999
 30
0.0
 11
90.880799999999994
 21
167.75200000000001
 31
0.0
  0
LINE
  5
118
  8
0
 62
     7
 10
90.880799999999994
 20
167.75200000000001
 30
0.0
 11
88.6691
 21
167.15899999999999
 31
0.0
  0
LINE
  5
119
  8
0
 62
     7
 10
88.6691
 20
167.15899999999999
 30
0.0
 11
88.6691
 21
168.34399999999999
 31
0.0
  0
LINE
  5
11A
  8
0
 62
     7
 10
39.091599999999993
 20
167.16699999999989
 30
0.0
 11
36.880499999999998
 21
167.75899999999999
 31
0.0
  0
LINE
  5
11B
  8
0
 62
     7
 10
36.880499999999998
 20
167.75899999999999
 30
0.0
 11
39.091599999999993
 21
168.352
 31
0.0
  0
LINE
  5
11C
  8
0
 62
     7
 10
39.091599999999993
 20
168.352
 30
0.0
 11
39.091599999999993
 21
167.16699999999989
 31
0.0
  0
LINE
  5
11D
  8
0
 62
     7
 10
89.331199999999995
 20
167.75200000000001
 30
0.0
 11
36.8812
 21
167.75200000000001
 31
0.0
  0
LINE
  5
11E
  8
0
 62
     7
 10
92.4191
 20
162.02600000000001
 30
0.0
 11
94.630799999999994
 21
161.434
 31
0.0
  0
LINE
  5
11F
  8
0
 62
     7
 10
94.630799999999994
 20
161.434
 30
0.0
 11
92.4191
 21
160.84100000000001
 31
0.0
  0
LINE
  5
120
  8
0
 62
     7
 10
92.4191
 20
160.84100000000001
 30
0.0
 11
92.4191
 21
162.02600000000001
 31
0.0
  0
LINE
  5
121
  8
0
 62
     7
 10
35.341599999999993
 20
160.8489999999999
 30
0.0
 11
33.130499999999998
 21
161.441
 31
0.0
  0
LINE
  5
122
  8
0
 62
     7
 10
33.130499999999998
 20
161.441
 30
0.0
 11
35.341599999999993
 21
162.03399999999991
 31
0.0
  0
LINE
  5
123
  8
0
 62
     7
 10
35.341599999999993
 20
162.03399999999991
 30
0.0
 11
35.341599999999993
 21
160.8489999999999
 31
0.0
  0
LINE
  5
124
  8
0
 62
     7
 10
93.081199999999995
 20
161.434
 30
0.0
 11
33.1312
 21
161.434
 31
0.0
  0
LINE
  5
125
  8
0
 62
     7
 10
172.37999999999991
 20
171.94599999999991
 30
0.0
 11
174.59099999999989
 21
171.35299999999989
 31
0.0
  0
LINE
  5
126
  8
0
 62
     7
 10
174.59099999999989
 20
171.35299999999989
 30
0.0
 11
172.37999999999991
 21
170.761
 31
0.0
  0
LINE
  5
127
  8
0
 62
     7
 10
172.37999999999991
 20
170.761
 30
0.0
 11
172.37999999999991
 21
171.94599999999991
 31
0.0
  0
LINE
  5
128
  8
0
 62
     7
 10
171.30199999999999
 20
170.768
 30
0.0
 11
169.09099999999989
 21
171.3609999999999
 31
0.0
  0
LINE
  5
129
  8
0
 62
     7
 10
169.09099999999989
 20
171.3609999999999
 30
0.0
 11
171.30199999999999
 21
171.95299999999989
 31
0.0
  0
LINE
  5
12A
  8
0
 62
     7
 10
171.30199999999999
 20
171.95299999999989
 30
0.0
 11
171.30199999999999
 21
170.768
 31
0.0
  0
LINE
  5
12B
  8
0
 62
     7
 10
174.59099999999989
 20
171.35299999999989
 30
0.0
 11
169.09200000000001
 21
171.35299999999989
 31
0.0
  0
LINE
  5
12C
  8
0
 62
     7
 10
114.87899999999991
 20
171.94599999999991
 30
0.0
 11
117.09099999999999
 21
171.35299999999989
 31
0.0
  0
LINE
  5
12D
  8
0
 62
     7
 10
117.09099999999999
 20
171.35299999999989
 30
0.0
 11
114.87899999999991
 21
170.761
 31
0.0
  0
LINE
  5
12E
  8
0
 62
     7
 10
114.87899999999991
 20
170.761
 30
0.0
 11
114.87899999999991
 21
171.94599999999991
 31
0.0
  0
LINE
  5
12F
  8
0
 62
     7
 10
113.80200000000001
 20
170.768
 30
0.0
 11
111.59099999999999
 21
171.3609999999999
 31
0.0
  0
LINE
  5
130
  8
0
 62
     7
 10
111.59099999999999
 20
171.3609999999999
 30
0.0
 11
113.80200000000001
 21
171.95299999999989
 31
0.0
  0
LINE
  5
131
  8
0
 62
     7
 10
113.80200000000001
 20
171.95299999999989
 30
0.0
 11
113.80200000000001
 21
170.768
 31
0.0
  0
LINE
  5
132
  8
0
 62
     7
 10
117.09099999999999
 20
171.35299999999989
 30
0.0
 11
111.59099999999999
 21
171.35299999999989
 31
0.0
  0
LINE
  5
133
  8
0
 62
     7
 10
166.87899999999999
 20
171.94599999999991
 30
0.0
 11
169.09099999999989
 21
171.35299999999989
 31
0.0
  0
LINE
  5
134
  8
0
 62
     7
 10
169.09099999999989
 20
171.35299999999989
 30
0.0
 11
166.87899999999999
 21
170.761
 31
0.0
  0
LINE
  5
135
  8
0
 62
     7
 10
166.87899999999999
 20
170.761
 30
0.0
 11
166.87899999999999
 21
171.94599999999991
 31
0.0
  0
LINE
  5
136
  8
0
 62
     7
 10
119.30200000000001
 20
170.768
 30
0.0
 11
117.09099999999999
 21
171.3609999999999
 31
0.0
  0
LINE
  5
137
  8
0
 62
     7
 10
117.09099999999999
 20
171.3609999999999
 30
0.0
 11
119.30200000000001
 21
171.95299999999989
 31
0.0
  0
LINE
  5
138
  8
0
 62
     7
 10
119.30200000000001
 20
171.95299999999989
 30
0.0
 11
119.30200000000001
 21
170.768
 31
0.0
  0
LINE
  5
139
  8
0
 62
     7
 10
167.542
 20
171.35299999999989
 30
0.0
 11
117.092
 21
171.35299999999989
 31
0.0
  0
LINE
  5
13A
  8
0
 62
     7
 10
90.880799999999994
 20
167.059
 30
0.0
 11
90.880799999999994
 21
180.8709999999999
 31
0.0
  0
LINE
  5
13B
  8
0
 62
     7
 10
94.630799999999994
 20
160.74100000000001
 30
0.0
 11
94.630799999999994
 21
179.50599999999989
 31
0.0
  0
LINE
  5
13C
  8
0
 62
     7
 10
36.880499999999998
 20
167.059
 30
0.0
 11
36.880499999999998
 21
180.8709999999999
 31
0.0
  0
LINE
  5
13D
  8
0
 62
     7
 10
33.130499999999998
 20
160.74100000000001
 30
0.0
 11
33.130499999999998
 21
179.50599999999989
 31
0.0
  0
LINE
  5
13E
  8
0
 62
     7
 10
169.09099999999989
 20
170.65299999999991
 30
0.0
 11
169.09099999999989
 21
180.071
 31
0.0
  0
LINE
  5
13F
  8
0
 62
     7
 10
106.59099999999999
 20
213.75099999999989
 30
0.0
 11
106.59099999999999
 21
219.78999999999999
 31
0.0
  0
LINE
  5
140
  8
0
 62
     7
 10
111.59099999999999
 20
213.75099999999989
 30
0.0
 11
111.59099999999999
 21
219.78999999999999
 31
0.0
  0
LINE
  5
141
  8
0
 62
     7
 10
111.59099999999999
 20
170.65299999999991
 30
0.0
 11
111.59099999999999
 21
180.071
 31
0.0
  0
LINE
  5
142
  8
0
 62
     7
 10
117.09099999999999
 20
170.65299999999991
 30
0.0
 11
117.09099999999999
 21
180.071
 31
0.0
  0
LINE
  5
143
  8
0
  6
AIGENLINE003
 62
     7
 10
179.59099999999989
 20
212.77199999999999
 30
0.0
 11
174.59099999999989
 21
180.7709999999999
 31
0.0
  0
LINE
  5
144
  8
0
  6
AIGENLINE003
 62
     7
 10
174.59099999999989
 20
212.77199999999999
 30
0.0
 11
179.59099999999989
 21
180.7709999999999
 31
0.0
  0
LINE
  5
145
  8
0
  6
AIGENLINE003
 62
     7
 10
111.59099999999999
 20
212.77199999999999
 30
0.0
 11
106.59099999999999
 21
180.7709999999999
 31
0.0
  0
LINE
  5
146
  8
0
  6
AIGENLINE003
 62
     7
 10
106.59099999999999
 20
212.77199999999999
 30
0.0
 11
111.59099999999999
 21
180.7709999999999
 31
0.0
  0
LINE
  5
147
  8
0
  6
AIGENLINE002
 62
     7
 10
145.39099999999999
 20
119.621
 30
0.0
 11
145.39099999999999
 21
116.121
 31
0.0
  0
LINE
  5
148
  8
0
  6
AIGENLINE002
 62
     7
 10
143.09100000000001
 20
121.121
 30
0.0
 11
146.84100000000001
 21
121.121
 31
0.0
  0
LINE
  5
149
  8
0
  6
AIGENLINE002
 62
     7
 10
145.39099999999999
 20
119.621
 30
0.0
 11
146.84100000000001
 21
121.121
 31
0.0
  0
LINE
  5
14A
  8
0
  6
AIGENLINE002
 62
     7
 10
143.09100000000001
 20
119.621
 30
0.0
 11
145.39099999999999
 21
119.621
 31
0.0
  0
LINE
  5
14B
  8
0
  6
AIGENLINE002
 62
     7
 10
140.791
 20
119.621
 30
0.0
 11
140.791
 21
116.121
 31
0.0
  0
LINE
  5
14C
  8
0
  6
AIGENLINE002
 62
     7
 10
143.09100000000001
 20
121.121
 30
0.0
 11
139.34100000000001
 21
121.121
 31
0.0
  0
LINE
  5
14D
  8
0
  6
AIGENLINE002
 62
     7
 10
140.791
 20
119.621
 30
0.0
 11
139.34100000000001
 21
121.121
 31
0.0
  0
LINE
  5
14E
  8
0
  6
AIGENLINE002
 62
     7
 10
143.09100000000001
 20
119.621
 30
0.0
 11
140.791
 21
119.621
 31
0.0
  0
ARC
  5
14F
  8
0
 62
     7
 10
37.171686000000001
 20
117.0047
 30
0.0
 40
0.9588719999999998
 50
21.150853000000001
 51
42.386194000000003
  0
LINE
  5
150
  8
0
 62
     7
 10
38.066000000000003
 20
117.351
 30
0.0
 11
38.1569
 21
116.395
 31
0.0
  0
ARC
  5
151
  8
0
 62
     7
 10
38.468271000000001
 20
116.434422
 30
0.0
 40
0.313886
 50
187.27676099999999
 51
267.75021800000002
  0
LINE
  5
152
  8
0
 62
     7
 10
38.455899999999993
 20
116.121
 30
0.0
 11
63.880600000000001
 21
116.121
 31
0.0
  0
ARC
  5
153
  8
0
 62
     7
 10
90.598026000000004
 20
116.9991039999999
 30
0.0
 40
0.9692079999999999
 50
137.69600099999991
 51
158.73079599999991
  0
LINE
  5
154
  8
0
 62
     7
 10
89.694800000000001
 20
117.351
 30
0.0
 11
89.603899999999996
 21
116.395
 31
0.0
  0
ARC
  5
155
  8
0
 62
     7
 10
89.292959999999994
 20
116.433931
 30
0.0
 40
0.313392
 50
272.23664400000001
 51
352.80221299999999
  0
LINE
  5
156
  8
0
 62
     7
 10
89.305199999999985
 20
116.121
 30
0.0
 11
63.880600000000001
 21
116.121
 31
0.0
  0
ARC
  5
157
  8
0
 62
     7
 10
126.633591
 20
117.0062689999999
 30
0.0
 40
0.9570570000000001
 50
21.092173999999989
 51
42.386099999999999
  0
LINE
  5
158
  8
0
 62
     7
 10
127.527
 20
117.351
 30
0.0
 11
127.617
 21
116.395
 31
0.0
  0
ARC
  5
159
  8
0
 62
     7
 10
127.92926799999989
 20
116.43489199999991
 30
0.0
 40
0.314373
 50
187.35182800000001
 51
267.67515099999991
  0
LINE
  5
15A
  8
0
 62
     7
 10
127.917
 20
116.121
 30
0.0
 11
143.09100000000001
 21
116.121
 31
0.0
  0
ARC
  5
15B
  8
0
 62
     7
 10
134.49901199999999
 20
124.80256199999999
 30
0.0
 40
10.118688000000001
 50
180.28143
 51
224.971754
  0
LINE
  5
15C
  8
0
 62
     7
 10
124.276
 20
129.12100000000001
 30
0.0
 11
124.38
 21
124.7529999999999
 31
0.0
  0
ARC
  5
15D
  8
0
 62
     7
 10
45.041575999999999
 20
124.803375
 30
0.0
 40
10.121475999999999
 50
180.28595599999991
 51
224.962492
  0
LINE
  5
15E
  8
0
 62
     7
 10
34.8155
 20
129.12100000000001
 30
0.0
 11
34.920200000000001
 21
124.7529999999999
 31
0.0
  0
ARC
  5
15F
  8
0
 62
     7
 10
82.721184999999991
 20
124.802556
 30
0.0
 40
10.119507
 50
315.03294699999998
 51
359.71864499999998
  0
LINE
  5
160
  8
0
 62
     7
 10
92.945299999999989
 20
129.12100000000001
 30
0.0
 11
92.840599999999995
 21
124.7529999999999
 31
0.0
  0
ARC
  5
161
  8
0
 62
     7
 10
152.18065499999989
 20
124.8025469999999
 30
0.0
 40
10.12031899999999
 50
315.03760899999992
 51
359.71871900000002
  0
ARC
  5
162
  8
0
  6
AIGENLINE002
 62
     7
 10
156.53685400000001
 20
123.109521
 30
0.0
 40
1.027671999999999
 50
273.93914599999988
 51
344.24534699999998
  0
LINE
  5
163
  8
0
  6
AIGENLINE002
 62
     7
 10
146.91499999999991
 20
121.123
 30
0.0
 11
156.607
 21
122.084
 31
0.0
  0
ARC
  5
164
  8
0
 62
     7
 10
163.59070399999999
 20
129.62115900000001
 30
0.0
 40
0.5002310000000002
 50
270.00002000000001
 51
359.99998999999991
  0
ARC
  5
165
  8
0
 62
     7
 10
163.46922199999989
 20
129.6228539999999
 30
0.0
 40
0.6217160000000001
 50
359.84380800000008
 51
2.7022509999999991
  0
ARC
  5
166
  8
0
 62
     7
 10
163.38667899999999
 20
132.60281199999989
 30
0.0
 40
0.5185070000000001
 50
5.4627169999999987
 51
88.164181999999997
  0
LINE
  5
167
  8
0
 62
     7
 10
163.90299999999991
 20
132.65199999999999
 30
0.0
 11
164.09
 21
129.65199999999999
 31
0.0
  0
LINE
  5
168
  8
0
  6
AIGENLINE002
 62
     7
 10
157.52600000000001
 20
122.8299999999999
 30
0.0
 11
160.34100000000001
 21
133.12100000000001
 31
0.0
  0
LINE
  5
169
  8
0
 62
     7
 10
143.09100000000001
 20
117.651
 30
0.0
 11
159.34100000000001
 21
117.651
 31
0.0
  0
LINE
  5
16A
  8
0
 62
     7
 10
162.40600000000001
 20
129.12100000000001
 30
0.0
 11
162.30099999999999
 21
124.7529999999999
 31
0.0
  0
ARC
  5
16B
  8
0
 62
     7
 10
160.04839699999991
 20
117.0062689999999
 30
0.0
 40
0.9570570000000001
 50
137.61387999999991
 51
158.90780599999999
  0
LINE
  5
16C
  8
0
 62
     7
 10
159.15499999999989
 20
117.351
 30
0.0
 11
159.065
 21
116.395
 31
0.0
  0
ARC
  5
16D
  8
0
 62
     7
 10
158.7527199999999
 20
116.43489199999991
 30
0.0
 40
0.314373
 50
272.32486899999992
 51
352.64819199999999
  0
LINE
  5
16E
  8
0
 62
     7
 10
158.76499999999999
 20
116.121
 30
0.0
 11
143.09100000000001
 21
116.121
 31
0.0
  0
LINE
  5
16F
  8
0
 62
     7
 10
163.59100000000001
 20
129.12100000000001
 30
0.0
 11
143.09100000000001
 21
129.12100000000001
 31
0.0
  0
LINE
  5
170
  8
0
 62
     7
 10
143.09100000000001
 20
133.12100000000001
 30
0.0
 11
163.40299999999991
 21
133.12100000000001
 31
0.0
  0
ARC
  5
171
  8
0
  6
AIGENLINE002
 62
     7
 10
130.14444499999991
 20
123.109521
 30
0.0
 40
1.027671999999999
 50
195.75467299999991
 51
266.06087400000001
  0
LINE
  5
172
  8
0
  6
AIGENLINE002
 62
     7
 10
139.267
 20
121.123
 30
0.0
 11
130.0739999999999
 21
122.084
 31
0.0
  0
ARC
  5
173
  8
0
 62
     7
 10
123.1099319999999
 20
129.63978199999991
 30
0.0
 40
0.5192140000000001
 50
182.05547899999991
 51
267.86557699999997
  0
ARC
  5
174
  8
0
 62
     7
 10
123.212757
 20
129.6228539999999
 30
0.0
 40
0.621707
 50
177.29770899999991
 51
180.15623099999999
  0
ARC
  5
175
  8
0
 62
     7
 10
123.294461
 20
132.6037389999999
 30
0.0
 40
0.5175760000000002
 50
91.821534999999997
 51
174.63045399999999
  0
LINE
  5
176
  8
0
 62
     7
 10
122.7789999999999
 20
132.65199999999999
 30
0.0
 11
122.592
 21
129.65199999999999
 31
0.0
  0
LINE
  5
177
  8
0
  6
AIGENLINE002
 62
     7
 10
129.15499999999989
 20
122.8299999999999
 30
0.0
 11
126.34099999999999
 21
133.12100000000001
 31
0.0
  0
LINE
  5
178
  8
0
 62
     7
 10
143.09100000000001
 20
117.651
 30
0.0
 11
127.34
 21
117.651
 31
0.0
  0
LINE
  5
179
  8
0
 62
     7
 10
123.09099999999999
 20
129.12100000000001
 30
0.0
 11
143.09100000000001
 21
129.12100000000001
 31
0.0
  0
LINE
  5
17A
  8
0
 62
     7
 10
143.09100000000001
 20
133.12100000000001
 30
0.0
 11
123.27799999999991
 21
133.12100000000001
 31
0.0
  0
LINE
  5
17B
  8
0
  6
AIGENLINE001
 62
     7
 10
143.09100000000001
 20
133.95099999999991
 30
0.0
 11
143.09100000000001
 21
114.9499999999999
 31
0.0
  0
ARC
  5
17C
  8
0
  6
AIGENLINE002
 62
     7
 10
87.076571999999985
 20
123.109521
 30
0.0
 40
1.027671999999999
 50
273.93914599999988
 51
344.24534699999998
  0
LINE
  5
17D
  8
0
  6
AIGENLINE002
 62
     7
 10
67.704700000000003
 20
121.123
 30
0.0
 11
87.147199999999984
 21
122.084
 31
0.0
  0
LINE
  5
17E
  8
0
  6
AIGENLINE002
 62
     7
 10
66.180499999999995
 20
119.621
 30
0.0
 11
66.180499999999995
 21
116.121
 31
0.0
  0
ARC
  5
17F
  8
0
 62
     7
 10
94.111428000000004
 20
129.640141
 30
0.0
 40
0.519573
 50
272.13313399999993
 51
357.90634899999998
  0
ARC
  5
180
  8
0
 62
     7
 10
94.172212999999985
 20
129.621398
 30
0.0
 40
0.458441
 50
359.97014200000001
 51
3.8481629999999991
  0
ARC
  5
181
  8
0
 62
     7
 10
93.926062999999999
 20
132.602836
 30
0.0
 40
0.5184949999999999
 50
5.4602589999999989
 51
88.127189999999985
  0
LINE
  5
182
  8
0
 62
     7
 10
94.442199999999985
 20
132.65199999999999
 30
0.0
 11
94.629599999999996
 21
129.65199999999999
 31
0.0
  0
LINE
  5
183
  8
0
  6
AIGENLINE002
 62
     7
 10
88.065600000000003
 20
122.8299999999999
 30
0.0
 11
90.880600000000001
 21
133.12100000000001
 31
0.0
  0
LINE
  5
184
  8
0
  6
AIGENLINE002
 62
     7
 10
63.880600000000001
 20
121.121
 30
0.0
 11
67.630600000000001
 21
121.121
 31
0.0
  0
LINE
  5
185
  8
0
  6
AIGENLINE002
 62
     7
 10
66.180499999999995
 20
119.621
 30
0.0
 11
67.630600000000001
 21
121.121
 31
0.0
  0
LINE
  5
186
  8
0
  6
AIGENLINE002
 62
     7
 10
63.880600000000001
 20
119.621
 30
0.0
 11
66.180499999999995
 21
119.621
 31
0.0
  0
LINE
  5
187
  8
0
 62
     7
 10
63.880600000000001
 20
117.651
 30
0.0
 11
89.880899999999997
 21
117.651
 31
0.0
  0
LINE
  5
188
  8
0
 62
     7
 10
94.130799999999994
 20
129.12100000000001
 30
0.0
 11
63.880600000000001
 21
129.12100000000001
 31
0.0
  0
LINE
  5
189
  8
0
 62
     7
 10
63.880600000000001
 20
133.12100000000001
 30
0.0
 11
93.942999999999984
 21
133.12100000000001
 31
0.0
  0
ARC
  5
18A
  8
0
  6
AIGENLINE002
 62
     7
 10
40.684224
 20
123.109521
 30
0.0
 40
1.027671999999999
 50
195.75467299999991
 51
266.06087400000001
  0
LINE
  5
18B
  8
0
  6
AIGENLINE002
 62
     7
 10
60.056100000000001
 20
121.123
 30
0.0
 11
40.613599999999991
 21
122.084
 31
0.0
  0
LINE
  5
18C
  8
0
  6
AIGENLINE002
 62
     7
 10
61.580300000000001
 20
119.621
 30
0.0
 11
61.580300000000001
 21
116.121
 31
0.0
  0
ARC
  5
18D
  8
0
  6
AIGENLINE002
 62
     7
 10
63.880569999999992
 20
129.12092799999991
 30
0.0
 40
1.249889
 50
270.00002000000001
 51
359.99998999999991
  0
ARC
  5
18E
  8
0
  6
AIGENLINE002
 62
     7
 10
63.880398
 20
129.12110000000001
 30
0.0
 40
1.2500610000000001
 50
180.00790499999991
 51
270.00791499999991
  0
ARC
  5
18F
  8
0
  6
AIGENLINE002
 62
     7
 10
63.880569999999992
 20
129.12092799999991
 30
0.0
 40
1.250232999999999
 50
90.0
 51
179.99996999999991
  0
ARC
  5
190
  8
0
  6
AIGENLINE002
 62
     7
 10
63.880398
 20
129.12110000000001
 30
0.0
 40
1.2500610000000001
 50
359.99211500000001
 51
89.992084999999989
  0
ARC
  5
191
  8
0
 62
     7
 10
33.630372999999999
 20
129.62115900000001
 30
0.0
 40
0.5002310000000002
 50
179.99996999999991
 51
270.00002000000001
  0
ARC
  5
192
  8
0
 62
     7
 10
33.614046000000002
 20
129.62054900000001
 30
0.0
 40
0.483904
 50
176.2538879999999
 51
179.9277679999999
  0
ARC
  5
193
  8
0
 62
     7
 10
33.834733
 20
132.602836
 30
0.0
 40
0.5184949999999999
 50
91.872790000000009
 51
174.5397209999999
  0
LINE
  5
194
  8
0
 62
     7
 10
33.318600000000004
 20
132.65199999999999
 30
0.0
 11
33.1312
 21
129.65199999999999
 31
0.0
  0
LINE
  5
195
  8
0
  6
AIGENLINE002
 62
     7
 10
39.6952
 20
122.8299999999999
 30
0.0
 11
36.880200000000002
 21
133.12100000000001
 31
0.0
  0
LINE
  5
196
  8
0
  6
AIGENLINE002
 62
     7
 10
63.880600000000001
 20
121.121
 30
0.0
 11
60.130600000000001
 21
121.121
 31
0.0
  0
LINE
  5
197
  8
0
  6
AIGENLINE002
 62
     7
 10
61.580300000000001
 20
119.621
 30
0.0
 11
60.130600000000001
 21
121.121
 31
0.0
  0
LINE
  5
198
  8
0
  6
AIGENLINE002
 62
     7
 10
63.880600000000001
 20
119.621
 30
0.0
 11
61.580300000000001
 21
119.621
 31
0.0
  0
LINE
  5
199
  8
0
 62
     7
 10
63.880600000000001
 20
117.651
 30
0.0
 11
37.879899999999999
 21
117.651
 31
0.0
  0
LINE
  5
19A
  8
0
 62
     7
 10
33.630400000000002
 20
129.12100000000001
 30
0.0
 11
63.880600000000001
 21
129.12100000000001
 31
0.0
  0
LINE
  5
19B
  8
0
 62
     7
 10
63.880600000000001
 20
133.12100000000001
 30
0.0
 11
33.817799999999998
 21
133.12100000000001
 31
0.0
  0
LINE
  5
19C
  8
0
  6
AIGENLINE001
 62
     7
 10
63.880600000000001
 20
133.95099999999991
 30
0.0
 11
63.880600000000001
 21
114.9499999999999
 31
0.0
  0
LINE
  5
19D
  8
0
  6
AIGENLINE003
 62
     7
 10
179.59099999999989
 20
180.7709999999999
 30
0.0
 11
174.59099999999989
 21
180.7709999999999
 31
0.0
  0
LINE
  5
19E
  8
0
  6
AIGENLINE003
 62
     7
 10
174.59099999999989
 20
180.7709999999999
 30
0.0
 11
174.59099999999989
 21
212.77199999999999
 31
0.0
  0
LINE
  5
19F
  8
0
  6
AIGENLINE003
 62
     7
 10
174.59099999999989
 20
212.77199999999999
 30
0.0
 11
179.59099999999989
 21
212.77199999999999
 31
0.0
  0
LINE
  5
1A0
  8
0
  6
AIGENLINE003
 62
     7
 10
179.59099999999989
 20
212.77199999999999
 30
0.0
 11
179.59099999999989
 21
180.7709999999999
 31
0.0
  0
LINE
  5
1A1
  8
0
  6
AIGENLINE003
 62
     7
 10
111.59099999999999
 20
180.7709999999999
 30
0.0
 11
106.59099999999999
 21
180.7709999999999
 31
0.0
  0
LINE
  5
1A2
  8
0
  6
AIGENLINE003
 62
     7
 10
106.59099999999999
 20
180.7709999999999
 30
0.0
 11
106.59099999999999
 21
212.77199999999999
 31
0.0
  0
LINE
  5
1A3
  8
0
  6
AIGENLINE003
 62
     7
 10
106.59099999999999
 20
212.77199999999999
 30
0.0
 11
111.59099999999999
 21
212.77199999999999
 31
0.0
  0
LINE
  5
1A4
  8
0
  6
AIGENLINE003
 62
     7
 10
111.59099999999999
 20
212.77199999999999
 30
0.0
 11
111.59099999999999
 21
180.7709999999999
 31
0.0
  0
ARC
  5
1A5
  8
0
 62
     7
 10
167.091115
 20
182.7713949999999
 30
0.0
 40
2.000062999999999
 50
270.004954
 51
0.004925
  0
ARC
  5
1A6
  8
0
 62
     7
 10
167.091115
 20
210.77158499999999
 30
0.0
 40
2.000062999999999
 50
359.99507499999999
 51
89.995045999999988
  0
LINE
  5
1A7
  8
0
 62
     7
 10
169.09099999999989
 20
210.7709999999999
 30
0.0
 11
169.09099999999989
 21
182.77199999999999
 31
0.0
  0
LINE
  5
1A8
  8
0
 62
     7
 10
143.09100000000001
 20
180.7709999999999
 30
0.0
 11
167.09099999999989
 21
180.7709999999999
 31
0.0
  0
LINE
  5
1A9
  8
0
 62
     7
 10
143.09100000000001
 20
212.77199999999999
 30
0.0
 11
167.09099999999989
 21
212.77199999999999
 31
0.0
  0
ARC
  5
1AA
  8
0
 62
     7
 10
119.090986
 20
182.7713939999999
 30
0.0
 40
2.0000619999999989
 50
179.995036
 51
269.99508500000002
  0
ARC
  5
1AB
  8
0
 62
     7
 10
119.090986
 20
210.77158499999999
 30
0.0
 40
2.000062999999999
 50
90.004935000000003
 51
180.00494499999991
  0
LINE
  5
1AC
  8
0
 62
     7
 10
117.09099999999999
 20
210.7709999999999
 30
0.0
 11
117.09099999999999
 21
182.77199999999999
 31
0.0
  0
LINE
  5
1AD
  8
0
 62
     7
 10
143.09100000000001
 20
180.7709999999999
 30
0.0
 11
119.09099999999999
 21
180.7709999999999
 31
0.0
  0
LINE
  5
1AE
  8
0
 62
     7
 10
143.09100000000001
 20
212.77199999999999
 30
0.0
 11
119.09099999999999
 21
212.77199999999999
 31
0.0
  0
ARC
  5
1AF
  8
0
 62
     7
 10
65.067526999999984
 20
180.02227699999989
 30
0.0
 40
0.062937
 50
310.12515500000001
 51
359.29455300000001
  0
ARC
  5
1B0
  8
0
 62
     7
 10
64.969826999999995
 20
180.112076
 30
0.0
 40
0.195291
 50
300.72107599999993
 51
315.06993899999998
  0
ARC
  5
1B1
  8
0
 62
     7
 10
64.832166999999984
 20
180.341249
 30
0.0
 40
0.4626300000000001
 50
291.337896
 51
300.87794599999989
  0
ARC
  5
1B2
  8
0
 62
     7
 10
64.627802000000003
 20
180.85759499999989
 30
0.0
 40
1.0179450000000001
 50
284.98495099999991
 51
291.47717699999993
  0
ARC
  5
1B3
  8
0
 62
     7
 10
64.378106000000002
 20
181.77768299999991
 30
0.0
 40
1.971309999999999
 50
280.33936199999988
 51
285.08092199999999
  0
ARC
  5
1B4
  8
0
 62
     7
 10
64.065646000000001
 20
183.50105300000001
 30
0.0
 40
3.7227760000000001
 50
273.321776
 51
280.30980099999988
  0
ARC
  5
1B5
  8
0
 62
     7
 10
63.887492000000002
 20
185.676671
 30
0.0
 40
5.9052879999999988
 50
269.93284699999998
 51
273.82428799999991
  0
ARC
  5
1B6
  8
0
 62
     7
 10
63.880195999999991
 20
185.46388799999991
 30
0.0
 40
5.692501
 50
262.69983999999999
 51
270.00377300000002
  0
ARC
  5
1B7
  8
0
 62
     7
 10
63.463712999999998
 20
182.08566399999989
 30
0.0
 40
2.2887960000000001
 50
253.43987100000001
 51
262.29541999999998
  0
ARC
  5
1B8
  8
0
 62
     7
 10
63.0182
 20
180.541301
 30
0.0
 40
0.681638
 50
243.78270099999989
 51
252.335047
  0
ARC
  5
1B9
  8
0
 62
     7
 10
62.835737999999999
 20
180.174205
 30
0.0
 40
0.271704
 50
230.34734199999991
 51
244.10249400000001
  0
ARC
  5
1BA
  8
0
 62
     7
 10
62.715738999999992
 20
180.032589
 30
0.0
 40
0.086119
 50
187.39712800000001
 51
231.69204099999999
  0
ARC
  5
1BB
  8
0
 62
     7
 10
62.693243999999993
 20
180.02072799999999
 30
0.0
 40
0.062912
 50
130.114732
 51
179.29487
  0
ARC
  5
1BC
  8
0
 62
     7
 10
62.790787000000002
 20
179.93101299999989
 30
0.0
 40
0.195095
 50
120.6912879999999
 51
135.05199500000001
  0
ARC
  5
1BD
  8
0
 62
     7
 10
62.928058
 20
179.702324
 30
0.0
 40
0.461818
 50
111.299784
 51
120.85488599999999
  0
ARC
  5
1BE
  8
0
 62
     7
 10
63.132872999999989
 20
179.18447900000001
 30
0.0
 40
1.018691999999999
 50
104.965402
 51
111.4526799999999
  0
ARC
  5
1BF
  8
0
 62
     7
 10
63.380837
 20
178.26918599999999
 30
0.0
 40
1.9669759999999989
 50
100.30606899999989
 51
105.05836600000001
  0
ARC
  5
1C0
  8
0
 62
     7
 10
63.694367999999997
 20
176.54075900000001
 30
0.0
 40
3.723609999999999
 50
93.306218000000015
 51
100.2944589999999
  0
ARC
  5
1C1
  8
0
 62
     7
 10
63.873430000000013
 20
174.34825699999999
 30
0.0
 40
5.9230210000000003
 50
89.930925999999999
 51
93.812313000000003
  0
ARC
  5
1C2
  8
0
 62
     7
 10
63.880920000000003
 20
174.56800699999991
 30
0.0
 40
5.7032660000000002
 50
82.716099999999997
 51
90.003502000000012
  0
ARC
  5
1C3
  8
0
 62
     7
 10
64.298299
 20
177.959148
 30
0.0
 40
2.286629
 50
73.455061000000001
 51
82.316753000000006
  0
ARC
  5
1C4
  8
0
 62
     7
 10
64.742159999999998
 20
179.4997009999999
 30
0.0
 40
0.6835899999999999
 50
63.822064000000012
 51
72.347410999999994
  0
ARC
  5
1C5
  8
0
 62
     7
 10
64.925031000000004
 20
179.868605
 30
0.0
 40
0.271853
 50
50.366219000000001
 51
64.110333999999995
  0
ARC
  5
1C6
  8
0
 62
     7
 10
65.045132999999993
 20
180.01043200000001
 30
0.0
 40
0.086041
 50
7.3921179999999982
 51
51.715753999999997
  0
LINE
  5
1C7
  8
0
  6
AIGENLINE001
 62
     7
 10
105.0349999999999
 20
196.7709999999999
 30
0.0
 11
113.277
 21
196.7709999999999
 31
0.0
  0
LINE
  5
1C8
  8
0
  6
AIGENLINE001
 62
     7
 10
172.858
 20
196.7709999999999
 30
0.0
 11
181.10099999999991
 21
196.7709999999999
 31
0.0
  0
LINE
  5
1C9
  8
0
  6
AIGENLINE001
 62
     7
 10
143.09100000000001
 20
214.52199999999999
 30
0.0
 11
143.09100000000001
 21
178.7709999999999
 31
0.0
  0
LINE
  5
1CA
  8
0
  6
AIGENLINE001
 62
     7
 10
60.880600000000001
 20
180.02199999999999
 30
0.0
 11
66.880600000000001
 21
180.02199999999999
 31
0.0
  0
LINE
  5
1CB
  8
0
  6
AIGENLINE001
 62
     7
 10
124.84999999999989
 20
129.12100000000001
 30
0.0
 11
130.364
 21
129.12100000000001
 31
0.0
  0
LINE
  5
1CC
  8
0
  6
AIGENLINE001
 62
     7
 10
125.59
 20
128.61600000000001
 30
0.0
 11
129.20199999999991
 21
129.6039999999999
 31
0.0
  0
LINE
  5
1CD
  8
0
  6
AIGENLINE001
 62
     7
 10
61.010300000000001
 20
129.12100000000001
 30
0.0
 11
66.524500000000003
 21
129.12100000000001
 31
0.0
  0
LINE
  5
1CE
  8
0
  6
AIGENLINE001
 62
     7
 10
58.880299999999998
 20
196.52199999999999
 30
0.0
 11
68.880499999999984
 21
196.52199999999999
 31
0.0
  0
LINE
  5
1CF
  8
0
  6
AIGENLINE001
 62
     7
 10
63.880600000000001
 20
218.69
 30
0.0
 11
63.880600000000001
 21
173.69
 31
0.0
  0
ARC
  5
1D0
  8
0
 62
     7
 10
63.880397000000002
 20
196.52137400000001
 30
0.0
 40
3.7501829999999998
 50
0.002642
 51
90.002611999999985
  0
ARC
  5
1D1
  8
0
 62
     7
 10
63.88039899999999
 20
196.52171799999991
 30
0.0
 40
3.7498390000000001
 50
90.002631999999991
 51
180.0026419999999
  0
ARC
  5
1D2
  8
0
 62
     7
 10
63.880397000000002
 20
196.52137400000001
 30
0.0
 40
3.7498369999999999
 50
179.9973379999999
 51
269.99738799999989
  0
ARC
  5
1D3
  8
0
 62
     7
 10
63.880397000000002
 20
196.5217199999999
 30
0.0
 40
3.7501829999999998
 50
269.99738799999989
 51
359.99735800000002
  0
ARC
  5
1D4
  8
0
 62
     7
 10
63.880397000000002
 20
196.52137400000001
 30
0.0
 40
2.3001330000000002
 50
0.004301
 51
90.004271000000017
  0
ARC
  5
1D5
  8
0
 62
     7
 10
63.968777000000003
 20
196.432996
 30
0.0
 40
2.3901520000000001
 50
92.123187000000001
 51
177.87678299999999
  0
ARC
  5
1D6
  8
0
 62
     7
 10
63.968369000000003
 20
196.60969
 30
0.0
 40
2.3897289999999991
 50
182.11380299999999
 51
267.88622700000002
  0
ARC
  5
1D7
  8
0
 62
     7
 10
63.880397000000002
 20
196.52171899999991
 30
0.0
 40
2.3001330000000002
 50
269.99572899999993
 51
359.99569899999989
  0
ARC
  5
1D8
  8
0
 62
     7
 10
-0.8819600000000001
 20
4471.4059999999999
 30
0.0
 40
4292.2849999999989
 50
271.14483200000001
 51
271.18487299999993
  0
ARC
  5
1D9
  8
0
 62
     7
 10
63.562630000000013
 20
1257.9580000000001
 30
0.0
 40
1078.1899999999989
 50
270.97330399999993
 51
271.13269899999989
  0
ARC
  5
1DA
  8
0
 62
     7
 10
64.919941000000009
 20
1176.741
 30
0.0
 40
996.96267299999988
 50
270.80220200000002
 51
270.97459500000002
  0
ARC
  5
1DB
  8
0
 62
     7
 10
65.707588999999999
 20
1103.5329999999999
 30
0.0
 40
923.75034800000003
 50
270.630877
 51
270.81692599999991
  0
ARC
  5
1DC
  8
0
 62
     7
 10
64.185657999999989
 20
1216.6489999999999
 30
0.0
 40
1036.876
 50
270.31464499999998
 51
270.64614999999992
  0
ARC
  5
1DD
  8
0
 62
     7
 10
64.020174999999995
 20
1196.089999999999
 30
0.0
 40
1016.3189999999991
 50
269.99214000000001
 51
270.33033899999998
  0
ARC
  5
1DE
  8
0
 62
     7
 10
63.833899000000002
 20
1242.918999999999
 30
0.0
 40
1063.1469999999999
 50
269.35589099999999
 51
270.00252499999988
  0
ARC
  5
1DF
  8
0
 62
     7
 10
63.765655000000002
 20
1237.586
 30
0.0
 40
1057.8140000000001
 50
269.03139599999992
 51
269.35634099999999
  0
ARC
  5
1E0
  8
0
 62
     7
 10
65.160285999999999
 20
1330.779
 30
0.0
 40
1151.0170000000001
 50
268.74177999999989
 51
269.04040400000002
  0
ARC
  5
1E1
  8
0
 62
     7
 10
39.922910999999999
 20
183.033129
 30
0.0
 40
2.9942880000000001
 50
247.86318700000001
 51
269.28744
  0
ARC
  5
1E2
  8
0
 62
     7
 10
39.893439999999998
 20
182.92256800000001
 30
0.0
 40
2.880806999999999
 50
236.4733259999999
 51
247.57752400000001
  0
ARC
  5
1E3
  8
0
 62
     7
 10
39.880688999999997
 20
182.885096
 30
0.0
 40
2.842544999999999
 50
225.10560099999989
 51
236.27041
  0
ARC
  5
1E4
  8
0
 62
     7
 10
39.834173999999997
 20
182.83049199999991
 30
0.0
 40
2.771037999999999
 50
213.48379299999991
 51
224.9900549999999
  0
ARC
  5
1E5
  8
0
 62
     7
 10
39.923310000000001
 20
182.88638499999999
 30
0.0
 40
2.876218999999999
 50
202.3728679999999
 51
213.43281400000001
  0
ARC
  5
1E6
  8
0
 62
     7
 10
40.000554999999999
 20
182.91075900000001
 30
0.0
 40
2.9569349999999992
 50
180.62437199999999
 51
202.239891
  0
ARC
  5
1E7
  8
0
 62
     7
 10
1123.143
 20
207.4516769999999
 30
0.0
 40
1086.3779999999999
 50
181.2045259999999
 51
181.29612299999991
  0
ARC
  5
1E8
  8
0
 62
     7
 10
655.93331199999989
 20
197.39307400000001
 30
0.0
 40
619.05930599999999
 50
181.02199899999999
 51
181.18276399999991
  0
ARC
  5
1E9
  8
0
 62
     7
 10
680.03545099999997
 20
197.59310199999999
 30
0.0
 40
643.16121999999996
 50
180.69209199999989
 51
181.001519
  0
ARC
  5
1EA
  8
0
 62
     7
 10
630.65370800000005
 20
196.8020459999999
 30
0.0
 40
593.77355599999999
 50
180.00295199999999
 51
180.6733209999999
  0
ARC
  5
1EB
  8
0
 62
     7
 10
630.85325299999988
 20
196.739755
 30
0.0
 40
593.97310099999993
 50
179.3267919999999
 51
179.99690199999989
  0
ARC
  5
1EC
  8
0
 62
     7
 10
636.632026
 20
196.592444
 30
0.0
 40
599.75321099999996
 50
178.9873509999999
 51
179.31920600000001
  0
ARC
  5
1ED
  8
0
 62
     7
 10
657.47798699999998
 20
196.117986
 30
0.0
 40
620.60431100000005
 50
178.81723400000001
 51
178.97756699999999
  0
ARC
  5
1EE
  8
0
 62
     7
 10
1123.1059999999991
 20
186.092118
 30
0.0
 40
1086.339999999999
 50
178.70387600000001
 51
178.79547600000001
  0
ARC
  5
1EF
  8
0
 62
     7
 10
40.069895999999993
 20
210.61771200000001
 30
0.0
 40
3.026460999999999
 50
157.923968
 51
179.11527100000001
  0
ARC
  5
1F0
  8
0
 62
     7
 10
39.891337
 20
210.67597599999999
 30
0.0
 40
2.8391250000000001
 50
146.39152200000001
 51
157.659268
  0
ARC
  5
1F1
  8
0
 62
     7
 10
39.795383000000001
 20
210.74415699999989
 30
0.0
 40
2.721474999999999
 50
134.80665999999999
 51
146.46882600000001
  0
ARC
  5
1F2
  8
0
 62
     7
 10
39.850386999999998
 20
210.6945629999999
 30
0.0
 40
2.7954259999999991
 50
123.4836269999999
 51
134.89018300000001
  0
ARC
  5
1F3
  8
0
 62
     7
 10
39.906014999999996
 20
210.59288599999999
 30
0.0
 40
2.9109359999999991
 50
112.35020299999999
 51
123.2927219999999
  0
ARC
  5
1F4
  8
0
 62
     7
 10
39.910973999999989
 20
210.57034899999999
 30
0.0
 40
2.9336679999999991
 50
90.494134999999986
 51
112.272396
  0
ARC
  5
1F5
  8
0
 62
     7
 10
75.248060999999993
 20
-1458.3879999999999
 30
0.0
 40
1672.2660000000001
 50
91.006137000000024
 51
91.211679000000004
  0
ARC
  5
1F6
  8
0
 62
     7
 10
63.192658000000002
 20
-803.32059500000014
 30
0.0
 40
1017.0879999999991
 50
90.63715400000001
 51
90.975110000000001
  0
ARC
  5
1F7
  8
0
 62
     7
 10
63.772830000000013
 20
-838.46866099999988
 30
0.0
 40
1052.24026
 50
89.994123000000016
 51
90.647459999999995
  0
ARC
  5
1F8
  8
0
 62
     7
 10
63.903821000000001
 20
-843.89544199999989
 30
0.0
 40
1057.6669999999999
 50
89.676271999999997
 51
90.001249999999999
  0
ARC
  5
1F9
  8
0
 62
     7
 10
64.188987999999995
 20
-822.70838400000002
 30
0.0
 40
1036.479
 50
89.353786999999997
 51
89.685417999999999
  0
ARC
  5
1FA
  8
0
 62
     7
 10
65.684327999999994
 20
-711.8309690000001
 30
0.0
 40
925.59152200000005
 50
89.183258999999993
 51
89.368937999999986
  0
ARC
  5
1FB
  8
0
 62
     7
 10
66.981818999999973
 20
-650.23026399999992
 30
0.0
 40
863.97868300000005
 50
89.012137999999993
 51
89.211065000000005
  0
ARC
  5
1FC
  8
0
 62
     7
 10
67.582488999999995
 20
-651.11346400000002
 30
0.0
 40
864.85161500000004
 50
88.854221999999979
 51
89.052934999999991
  0
ARC
  5
1FD
  8
0
 62
     7
 10
59.827585999999997
 20
-1084.783999999999
 30
0.0
 40
1298.5909999999999
 50
88.762394999999998
 51
88.894742000000022
  0
ARC
  5
1FE
  8
0
 62
     7
 10
87.848061999999999
 20
210.56824999999989
 30
0.0
 40
2.9357820000000001
 50
78.59178399999999
 51
89.471853999999993
  0
ARC
  5
1FF
  8
0
 62
     7
 10
87.845228000000006
 20
210.54396099999991
 30
0.0
 40
2.960151999999999
 50
67.841414
 51
78.631005999999999
  0
ARC
  5
200
  8
0
 62
     7
 10
87.869015000000005
 20
210.62664599999999
 30
0.0
 40
2.8746169999999989
 50
56.546525000000003
 51
67.658918999999983
  0
ARC
  5
201
  8
0
 62
     7
 10
87.915303000000009
 20
210.70020999999991
 30
0.0
 40
2.7877239999999999
 50
45.044091999999992
 51
56.506791
  0
ARC
  5
202
  8
0
 62
     7
 10
87.939053999999985
 20
210.72084399999989
 30
0.0
 40
2.7563419999999992
 50
33.503360000000001
 51
45.090419999999988
  0
ARC
  5
203
  8
0
 62
     7
 10
87.972786999999997
 20
210.73021600000001
 30
0.0
 40
2.7230620000000001
 50
22.001132999999989
 51
33.730705999999998
  0
ARC
  5
204
  8
0
 62
     7
 10
87.819085000000001
 20
210.65249
 30
0.0
 40
2.8947250000000002
 50
11.260189999999991
 51
22.287839000000002
  0
ARC
  5
205
  8
0
 62
     7
 10
87.672038999999998
 20
210.6200069999999
 30
0.0
 40
3.0452849999999989
 50
0.836059
 51
11.319361000000001
  0
ARC
  5
206
  8
0
 62
     7
 10
-501.80694499999998
 20
196.73774800000001
 30
0.0
 40
592.68758899999989
 50
0.003279
 51
1.3464329999999991
  0
ARC
  5
207
  8
0
 62
     7
 10
-504.390107
 20
196.835657
 30
0.0
 40
595.27075300000001
 50
358.65648199999998
 51
359.99383999999992
  0
ARC
  5
208
  8
0
 62
     7
 10
87.685059999999993
 20
182.92158699999999
 30
0.0
 40
3.0322459999999989
 50
348.65803599999998
 51
359.18654500000002
  0
ARC
  5
209
  8
0
 62
     7
 10
87.755825000000002
 20
182.909558
 30
0.0
 40
2.960497999999999
 50
337.83502700000003
 51
348.61694399999988
  0
ARC
  5
20A
  8
0
 62
     7
 10
87.824365999999998
 20
182.89123599999999
 30
0.0
 40
2.8901229999999991
 50
326.60939200000001
 51
337.65876900000001
  0
ARC
  5
20B
  8
0
 62
     7
 10
87.883351000000005
 20
182.86772400000001
 30
0.0
 40
2.827963
 50
315.05679099999998
 51
326.34942899999999
  0
ARC
  5
20C
  8
0
 62
     7
 10
87.925798999999984
 20
182.82991200000001
 30
0.0
 40
2.7712099999999991
 50
303.45893999999993
 51
314.99017700000002
  0
ARC
  5
20D
  8
0
 62
     7
 10
87.878687999999997
 20
182.89806399999989
 30
0.0
 40
2.854042999999999
 50
292.3008989999999
 51
303.49365599999987
  0
ARC
  5
20E
  8
0
 62
     7
 10
87.861153999999985
 20
182.94614899999991
 30
0.0
 40
2.905184999999999
 50
281.26661100000001
 51
292.26096899999987
  0
ARC
  5
20F
  8
0
 62
     7
 10
87.832986000000005
 20
183.11893599999999
 30
0.0
 40
3.080152
 50
270.78384099999988
 51
281.15252099999992
  0
ARC
  5
210
  8
0
 62
     7
 10
-549.74640699999986
 20
196.74884599999999
 30
0.0
 40
644.37706100000003
 50
359.48009999999988
 51
0.002029
  0
ARC
  5
211
  8
0
 62
     7
 10
-678.42221199999994
 20
198.149001
 30
0.0
 40
773.06030799999985
 50
359.24540899999988
 51
359.46286700000002
  0
ARC
  5
212
  8
0
 62
     7
 10
-592.17482800000005
 20
197.30672200000001
 30
0.0
 40
686.80937400000005
 50
358.97612900000001
 51
359.220912
  0
ARC
  5
213
  8
0
 62
     7
 10
-2470.471
 20
233.1526069999999
 30
0.0
 40
2565.447999999999
 50
358.89254699999998
 51
358.92527699999988
  0
ARC
  5
214
  8
0
 62
     7
 10
-77.506113999999997
 20
186.81145599999999
 30
0.0
 40
172.03365700000001
 50
358.67407500000002
 51
358.92001599999998
  0
ARC
  5
215
  8
0
 62
     7
 10
75.591394999999991
 20
183.30826499999989
 30
0.0
 40
18.896121999999998
 50
357.37569999999999
 51
358.55164899999988
  0
ARC
  5
216
  8
0
 62
     7
 10
86.008015000000015
 20
182.876769
 30
0.0
 40
8.4707939999999997
 50
355.03533199999993
 51
357.065246
  0
ARC
  5
217
  8
0
 62
     7
 10
87.276026000000002
 20
182.73151100000001
 30
0.0
 40
7.1950539999999981
 50
354.509613
 51
355.3138679999999
  0
ARC
  5
218
  8
0
 62
     7
 10
81.451374000000015
 20
183.331287
 30
0.0
 40
13.050431
 50
353.427029
 51
354.33518800000002
  0
ARC
  5
219
  8
0
 62
     7
 10
85.612393999999995
 20
182.936218
 30
0.0
 40
8.8719339999999995
 50
351.508982
 51
352.88561699999991
  0
ARC
  5
21A
  8
0
 62
     7
 10
88.174086000000003
 20
182.57265000000001
 30
0.0
 40
6.2846659999999996
 50
347.433177
 51
351.33883800000001
  0
ARC
  5
21B
  8
0
 62
     7
 10
88.317633000000001
 20
182.53652699999989
 30
0.0
 40
6.1367000000000003
 50
339.48933999999991
 51
347.47075599999999
  0
ARC
  5
21C
  8
0
 62
     7
 10
88.200962000000004
 20
182.58355800000001
 30
0.0
 40
6.2624539999999991
 50
323.57359200000002
 51
339.46033699999998
  0
ARC
  5
21D
  8
0
 62
     7
 10
88.230250999999996
 20
182.552233
 30
0.0
 40
6.220292999999999
 50
315.54154099999988
 51
323.64556099999999
  0
ARC
  5
21E
  8
0
 62
     7
 10
88.219146999999978
 20
182.54452900000001
 30
0.0
 40
6.2228370000000002
 50
307.56599799999992
 51
315.66378300000002
  0
ARC
  5
21F
  8
0
 62
     7
 10
88.159610999999998
 20
182.60224099999999
 30
0.0
 40
6.3048909999999996
 50
299.76802199999997
 51
307.675095
  0
ARC
  5
220
  8
0
 62
     7
 10
88.210550999999995
 20
182.519184
 30
0.0
 40
6.2075029999999991
 50
291.80672799999991
 51
299.74050599999993
  0
ARC
  5
221
  8
0
 62
     7
 10
88.251400000000004
 20
182.41010299999991
 30
0.0
 40
6.0910539999999989
 50
283.80822999999992
 51
291.83113899999989
  0
ARC
  5
222
  8
0
 62
     7
 10
88.056324999999987
 20
183.2060679999999
 30
0.0
 40
6.9105749999999988
 50
280.26932199999999
 51
283.80376699999988
  0
ARC
  5
223
  8
0
 62
     7
 10
88.014948000000004
 20
183.5417469999999
 30
0.0
 40
7.2482779999999991
 50
278.46512999999987
 51
280.11811699999993
  0
ARC
  5
224
  8
0
 62
     7
 10
87.814167999999995
 20
185.02947199999991
 30
0.0
 40
8.7493759999999998
 50
277.01337899999999
 51
278.33146299999999
  0
ARC
  5
225
  8
0
 62
     7
 10
87.660718000000003
 20
185.74444099999999
 30
0.0
 40
9.4779549999999997
 50
275.02003300000001
 51
277.4063359999999
  0
ARC
  5
226
  8
0
 62
     7
 10
87.557505000000006
 20
186.953802
 30
0.0
 40
10.69170799999999
 50
272.88303400000001
 51
275.00392499999992
  0
ARC
  5
227
  8
0
 62
     7
 10
87.540403999999995
 20
187.598985
 30
0.0
 40
11.336945999999999
 50
270.8280759999999
 51
272.80534699999998
  0
ARC
  5
228
  8
0
 62
     7
 10
86.861480000000014
 20
234.94202699999991
 30
0.0
 40
58.684855000000013
 50
270.63817999999992
 51
270.822855
  0
ARC
  5
229
  8
0
 62
     7
 10
86.938036999999994
 20
228.06718199999989
 30
0.0
 40
51.809584000000001
 50
270.43474199999991
 51
270.63820099999998
  0
ARC
  5
22A
  8
0
 62
     7
 10
88.055914000000001
 20
80.403406000000004
 30
0.0
 40
95.858423000000016
 50
90.433200999999997
 51
90.650867000000005
  0
LINE
  5
22B
  8
0
 62
     7
 10
86.967000000000013
 20
176.25599999999989
 30
0.0
 11
86.601499999999987
 21
176.25200000000001
 31
0.0
  0
LINE
  5
22C
  8
0
 62
     7
 10
86.601499999999987
 20
176.25200000000001
 30
0.0
 11
85.868300000000005
 21
176.24299999999991
 31
0.0
  0
ARC
  5
22D
  8
0
 62
     7
 10
47.57283799999999
 20
3308.6859999999988
 30
0.0
 40
3132.6770000000001
 50
270.67364099999998
 51
270.70044100000001
  0
ARC
  5
22E
  8
0
 62
     7
 10
114.6441639999999
 20
-2298.0429999999992
 30
0.0
 40
2474.4539999999988
 50
90.700236000000018
 51
90.768095000000017
  0
LINE
  5
22F
  8
0
 62
     7
 10
81.472700000000003
 20
176.1879999999999
 30
0.0
 11
75.611199999999997
 21
176.11000000000001
 31
0.0
  0
ARC
  5
230
  8
0
 62
     7
 10
55.063391000000003
 20
1823.546
 30
0.0
 40
1647.5650000000001
 50
270.51066400000002
 51
270.71460000000002
  0
ARC
  5
231
  8
0
 62
     7
 10
63.455876000000004
 20
938.48834700000009
 30
0.0
 40
762.46708799999999
 50
270.031924
 51
270.47278299999988
  0
ARC
  5
232
  8
0
 62
     7
 10
63.857765000000001
 20
836.88209499999994
 30
0.0
 40
660.86071900000002
 50
269.49334599999992
 51
270.00198699999987
  0
ARC
  5
233
  8
0
 62
     7
 10
67.682419999999993
 20
1354.5029999999999
 30
0.0
 40
1178.49533
 50
269.24483399999991
 51
269.52994200000001
  0
ARC
  5
234
  8
0
 62
     7
 10
109.049177
 20
4660.7759999999998
 30
0.0
 40
4485.027
 50
269.198217
 51
269.27310799999992
  0
ARC
  5
235
  8
0
 62
     7
 10
-8.4998889999999996
 20
-3984.9250000000002
 30
0.0
 40
4161.4740000000011
 50
89.245640000000009
 51
89.285989000000001
  0
ARC
  5
236
  8
0
 62
     7
 10
5.0621580000000002
 20
-2956.2170000000001
 30
0.0
 40
3132.6770000000001
 50
89.299559000000016
 51
89.326358999999997
  0
LINE
  5
237
  8
0
 62
     7
 10
41.892499999999998
 20
176.24299999999991
 30
0.0
 11
41.159300000000002
 21
176.25200000000001
 31
0.0
  0
LINE
  5
238
  8
0
 62
     7
 10
41.159300000000002
 20
176.25200000000001
 30
0.0
 11
40.79379999999999
 21
176.25599999999989
 31
0.0
  0
ARC
  5
239
  8
0
 62
     7
 10
39.703145999999997
 20
80.219883999999993
 30
0.0
 40
96.041953000000007
 50
89.349321000000003
 51
89.566570999999996
  0
ARC
  5
23A
  8
0
 62
     7
 10
40.805309000000001
 20
226.3155459999999
 30
0.0
 40
50.057865999999997
 50
269.35906399999999
 51
269.57003800000001
  0
ARC
  5
23B
  8
0
 62
     7
 10
40.372211999999998
 20
193.5839299999999
 30
0.0
 40
17.323581999999998
 50
268.955938
 51
269.58040099999988
  0
ARC
  5
23C
  8
0
 62
     7
 10
40.309426999999992
 20
190.40604999999991
 30
0.0
 40
14.145087
 50
267.39095499999991
 51
268.975662
  0
ARC
  5
23D
  8
0
 62
     7
 10
40.143171999999993
 20
186.08168599999999
 30
0.0
 40
9.8176860000000001
 50
264.9016759999999
 51
267.21140400000002
  0
ARC
  5
23E
  8
0
 62
     7
 10
40.294385999999989
 20
187.540682
 30
0.0
 40
11.284366
 50
262.789244
 51
264.79524199999992
  0
ARC
  5
23F
  8
0
 62
     7
 10
39.886125
 20
184.56743399999999
 30
0.0
 40
8.2834500000000002
 50
261.619551
 51
263.00941599999999
  0
ARC
  5
240
  8
0
 62
     7
 10
40.191561
 20
186.266054
 30
0.0
 40
10.008597
 50
260.10985499999992
 51
261.306937
  0
ARC
  5
241
  8
0
 62
     7
 10
39.594374999999992
 20
182.68973199999999
 30
0.0
 40
6.382903999999999
 50
256.05010499999992
 51
259.876845
  0
ARC
  5
242
  8
0
 62
     7
 10
39.589791999999989
 20
182.66021299999991
 30
0.0
 40
6.3531510000000004
 50
248.33462700000001
 51
256.0260439999999
  0
ARC
  5
243
  8
0
 62
     7
 10
39.561858000000001
 20
182.54323600000001
 30
0.0
 40
6.2341489999999986
 50
240.27649600000001
 51
248.17631
  0
ARC
  5
244
  8
0
 62
     7
 10
39.635784000000001
 20
182.654078
 30
0.0
 40
6.3670669999999987
 50
232.36359300000001
 51
240.19332999999989
  0
ARC
  5
245
  8
0
 62
     7
 10
39.686239
 20
182.71001200000001
 30
0.0
 40
6.4421749999999989
 50
224.48807400000001
 51
232.31201200000001
  0
ARC
  5
246
  8
0
 62
     7
 10
39.547494
 20
182.56436799999989
 30
0.0
 40
6.241136
 50
216.3519379999999
 51
224.42679399999989
  0
ARC
  5
247
  8
0
 62
     7
 10
39.605153999999999
 20
182.608148
 30
0.0
 40
6.3135250000000003
 50
200.6043479999999
 51
216.361763
  0
ARC
  5
248
  8
0
 62
     7
 10
39.411864000000001
 20
182.52724399999991
 30
0.0
 40
6.1041339999999993
 50
192.50793799999991
 51
200.53200499999991
  0
ARC
  5
249
  8
0
 62
     7
 10
39.693432000000001
 20
182.59264999999991
 30
0.0
 40
6.393184999999999
 50
188.69434100000001
 51
192.533683
  0
ARC
  5
24A
  8
0
 62
     7
 10
39.001764999999999
 20
182.50503099999989
 30
0.0
 40
5.696248999999999
 50
186.730626
 51
188.8748149999999
  0
ARC
  5
24B
  8
0
 62
     7
 10
42.469258000000004
 20
182.91961099999989
 30
0.0
 40
9.1884359999999994
 50
185.47397100000001
 51
186.76385200000001
  0
ARC
  5
24C
  8
0
 62
     7
 10
50.887422999999991
 20
183.6577739999999
 30
0.0
 40
17.638759
 50
184.92424800000001
 51
185.25231099999999
  0
ARC
  5
24D
  8
0
 62
     7
 10
42.748046000000002
 20
182.94548700000001
 30
0.0
 40
9.4682890000000004
 50
183.04170999999999
 51
184.857752
  0
ARC
  5
24E
  8
0
 62
     7
 10
44.939233999999992
 20
183.0511929999999
 30
0.0
 40
11.662003
 50
181.0836139999999
 51
182.9890759999999
  0
ARC
  5
24F
  8
0
 62
     7
 10
115.4973959999999
 20
184.926422
 30
0.0
 40
82.244786000000005
 50
180.945752
 51
181.460196
  0
LINE
  5
250
  8
0
 62
     7
 10
33.263800000000003
 20
183.56899999999999
 30
0.0
 11
33.235900000000001
 21
185.03399999999999
 31
0.0
  0
ARC
  5
251
  8
0
 62
     7
 10
598.69272699999988
 20
195.398954
 30
0.0
 40
565.55180399999995
 50
180.7528669999999
 51
181.05013199999999
  0
ARC
  5
252
  8
0
 62
     7
 10
719.89114400000005
 20
197.176242
 30
0.0
 40
686.76313700000003
 50
180.5234899999999
 51
180.76827399999991
  0
ARC
  5
253
  8
0
 62
     7
 10
694.874728
 20
196.82733599999989
 30
0.0
 40
661.74458800000002
 50
180.00483999999989
 51
180.513071
  0
ARC
  5
254
  8
0
 62
     7
 10
694.61013700000001
 20
196.71683699999991
 30
0.0
 40
661.47999699999991
 50
179.48682700000001
 51
179.99523099999999
  0
ARC
  5
255
  8
0
 62
     7
 10
720.49894600000005
 20
196.35988599999999
 30
0.0
 40
687.37097599999993
 50
179.23183399999999
 51
179.47640200000001
  0
ARC
  5
256
  8
0
 62
     7
 10
652.030258
 20
197.306071
 30
0.0
 40
618.89575600000001
 50
178.96276900000001
 51
179.234444
  0
ARC
  5
257
  8
0
 62
     7
 10
1039.253999999999
 20
190.0773659999999
 30
0.0
 40
1006.187
 50
178.86692099999991
 51
178.95035100000001
  0
ARC
  5
258
  8
0
 62
     7
 10
205.26691
 20
206.73152300000001
 30
0.0
 40
172.03365700000001
 50
178.67405500000001
 51
178.919997
  0
ARC
  5
259
  8
0
 62
     7
 10
52.169401000000001
 20
210.23471499999991
 30
0.0
 40
18.896121999999998
 50
177.37568099999999
 51
178.55162899999991
  0
ARC
  5
25A
  8
0
 62
     7
 10
43.106108999999996
 20
210.57372100000001
 30
0.0
 40
9.8271090000000001
 50
175.17892900000001
 51
176.93065999999999
  0
ARC
  5
25B
  8
0
 62
     7
 10
40.154226999999999
 20
210.8389819999999
 30
0.0
 40
6.8633969999999991
 50
174.4742
 51
175.31445500000001
  0
ARC
  5
25C
  8
0
 62
     7
 10
43.301747999999989
 20
210.53412399999999
 30
0.0
 40
10.02564699999999
 50
173.290007
 51
174.47217000000001
  0
ARC
  5
25D
  8
0
 62
     7
 10
39.036369000000001
 20
211.03320699999989
 30
0.0
 40
5.7311699999999988
 50
171.13171799999989
 51
173.2628409999999
  0
ARC
  5
25E
  8
0
 62
     7
 10
39.339531999999991
 20
211.01772999999989
 30
0.0
 40
6.0331779999999986
 50
167.3585939999999
 51
171.4303449999999
  0
ARC
  5
25F
  8
0
 62
     7
 10
39.498320999999997
 20
210.98952600000001
 30
0.0
 40
6.1942940000000002
 50
159.52144199999989
 51
167.425467
  0
ARC
  5
260
  8
0
 62
     7
 10
39.559832999999998
 20
210.95942199999999
 30
0.0
 40
6.2624539999999991
 50
143.5735719999999
 51
159.460317
  0
ARC
  5
261
  8
0
 62
     7
 10
39.591104000000001
 20
210.9437769999999
 30
0.0
 40
6.2969080000000002
 50
135.62237699999989
 51
143.6279899999999
  0
ARC
  5
262
  8
0
 62
     7
 10
39.527563999999998
 20
211.01203199999989
 30
0.0
 40
6.2037579999999997
 50
127.53740000000001
 51
135.6625149999999
  0
ARC
  5
263
  8
0
 62
     7
 10
39.606386000000001
 20
210.92937599999991
 30
0.0
 40
6.3173370000000002
 50
119.757785
 51
127.64751699999999
  0
ARC
  5
264
  8
0
 62
     7
 10
39.621986
 20
210.87521699999991
 30
0.0
 40
6.3721110000000003
 50
111.9093399999999
 51
119.6378539999999
  0
ARC
  5
265
  8
0
 62
     7
 10
39.517456000000003
 20
211.10780199999991
 30
0.0
 40
6.1173289999999989
 50
103.825468
 51
111.813861
  0
ARC
  5
266
  8
0
 62
     7
 10
39.704470000000001
 20
210.3369119999999
 30
0.0
 40
6.9105749999999988
 50
100.26930299999999
 51
103.803747
  0
ARC
  5
267
  8
0
 62
     7
 10
39.832262
 20
209.473052
 30
0.0
 40
7.7834300000000001
 50
98.521939000000003
 51
100.0612679999999
  0
ARC
  5
268
  8
0
 62
     7
 10
39.835681000000001
 20
209.3493489999999
 30
0.0
 40
7.906288
 50
96.957431000000014
 51
98.413601999999997
  0
ARC
  5
269
  8
0
 62
     7
 10
40.330490999999988
 20
205.670368
 30
0.0
 40
11.61820399999999
 50
95.233581000000015
 51
97.181933000000015
  0
ARC
  5
26A
  8
0
 62
     7
 10
40.374657999999997
 20
204.10327000000001
 30
0.0
 40
13.18317
 50
93.083442999999988
 51
94.803477000000015
  0
ARC
  5
26B
  8
0
 62
     7
 10
40.220391999999997
 20
205.943995
 30
0.0
 40
11.336945999999999
 50
90.828056000000004
 51
92.805328000000003
  0
LINE
  5
26C
  8
0
 62
     7
 10
40.056600000000003
 20
217.28
 30
0.0
 11
40.2453
 21
217.28200000000001
 31
0.0
  0
LINE
  5
26D
  8
0
 62
     7
 10
40.2453
 20
217.28200000000001
 30
0.0
 11
40.42969999999999
 21
217.28399999999999
 31
0.0
  0
ARC
  5
26E
  8
0
 62
     7
 10
39.704881999999998
 20
313.13957299999993
 30
0.0
 40
95.858423000000016
 50
270.433221
 51
270.6508869999999
  0
LINE
  5
26F
  8
0
 62
     7
 10
40.79379999999999
 20
217.28700000000001
 30
0.0
 11
41.159300000000002
 21
217.29099999999991
 31
0.0
  0
LINE
  5
270
  8
0
 62
     7
 10
41.159300000000002
 20
217.29099999999991
 30
0.0
 11
41.892499999999998
 21
217.30000000000001
 31
0.0
  0
ARC
  5
271
  8
0
 62
     7
 10
30.309753999999991
 20
1244.308
 30
0.0
 40
1027.0739999999989
 50
270.64616999999998
 51
270.72791299999989
  0
ARC
  5
272
  8
0
 62
     7
 10
13.116631999999999
 20
2691.5859999999998
 30
0.0
 40
2474.4539999999988
 50
270.70025600000002
 51
270.76811499999991
  0
ARC
  5
273
  8
0
 62
     7
 10
157.5961409999999
 20
-7942.0609999999988
 30
0.0
 40
8160.1750000000002
 50
90.740390000000005
 51
90.781552000000005
  0
ARC
  5
274
  8
0
 62
     7
 10
71.186672999999999
 20
-1280.453999999999
 30
0.0
 40
1498.008
 50
90.503828999999996
 51
90.728126000000017
  0
ARC
  5
275
  8
0
 62
     7
 10
64.525454000000011
 20
-594.9402
 30
0.0
 40
812.46205899999995
 50
90.045467999999985
 51
90.459198999999984
  0
ARC
  5
276
  8
0
 62
     7
 10
63.903374999999997
 20
-443.33911499999999
 30
0.0
 40
660.86071900000002
 50
89.493325999999996
 51
90.001967000000008
  0
ARC
  5
277
  8
0
 62
     7
 10
59.035640999999998
 20
-1051.538
 30
0.0
 40
1269.079
 50
89.251623999999993
 51
89.516381000000024
  0
ARC
  5
278
  8
0
 62
     7
 10
13.126234
 20
-4707.3100000000004
 30
0.0
 40
4925.1390000000001
 50
89.204867000000007
 51
89.273061999999996
  0
ARC
  5
279
  8
0
 62
     7
 10
136.26068499999991
 20
4378.4679999999998
 30
0.0
 40
4161.4740000000011
 50
269.24565899999988
 51
269.28600899999992
  0
ARC
  5
27A
  8
0
 62
     7
 10
92.532702999999998
 20
834.15741899999989
 30
0.0
 40
616.8936799999999
 50
269.24493100000001
 51
269.38102599999991
  0
LINE
  5
27B
  8
0
 62
     7
 10
85.868300000000005
 20
217.30000000000001
 30
0.0
 11
86.601499999999987
 21
217.29099999999991
 31
0.0
  0
LINE
  5
27C
  8
0
 62
     7
 10
86.601499999999987
 20
217.29099999999991
 30
0.0
 11
86.967000000000013
 21
217.28700000000001
 31
0.0
  0
ARC
  5
27D
  8
0
 62
     7
 10
86.249067000000025
 20
122.155895
 30
0.0
 40
95.134148999999994
 50
89.348283999999978
 51
89.567607999999993
  0
LINE
  5
27E
  8
0
 62
     7
 10
87.331100000000006
 20
217.28399999999999
 30
0.0
 11
87.515100000000004
 21
217.28200000000001
 31
0.0
  0
LINE
  5
27F
  8
0
 62
     7
 10
87.515100000000004
 20
217.28200000000001
 30
0.0
 11
87.704199999999986
 21
217.28
 31
0.0
  0
ARC
  5
280
  8
0
 62
     7
 10
87.294488000000001
 20
198.19082700000001
 30
0.0
 40
19.093326000000001
 50
87.596289999999996
 51
88.770286999999996
  0
ARC
  5
281
  8
0
 62
     7
 10
87.617624000000006
 20
207.4612939999999
 30
0.0
 40
9.8176860000000001
 50
84.901656000000003
 51
87.211383999999995
  0
ARC
  5
282
  8
0
 62
     7
 10
87.472840000000005
 20
206.07278600000001
 30
0.0
 40
11.213585
 50
82.778359999999978
 51
84.795271999999997
  0
ARC
  5
283
  8
0
 62
     7
 10
88.022964000000016
 20
210.06341800000001
 30
0.0
 40
7.1855909999999996
 50
81.525103000000016
 51
83.130056000000025
  0
ARC
  5
284
  8
0
 62
     7
 10
87.558981000000017
 20
207.21425500000001
 30
0.0
 40
10.072098
 50
80.113608999999997
 51
81.303143999999989
  0
ARC
  5
285
  8
0
 62
     7
 10
88.177841999999998
 20
210.90681599999999
 30
0.0
 40
6.3281629999999991
 50
76.033528000000004
 51
79.893383
  0
ARC
  5
286
  8
0
 62
     7
 10
88.171004000000011
 20
210.882767
 30
0.0
 40
6.3531510000000004
 50
68.334606999999991
 51
76.026023999999992
  0
ARC
  5
287
  8
0
 62
     7
 10
88.256936999999994
 20
211.11986200000001
 30
0.0
 40
6.1010849999999994
 50
60.190187999999999
 51
68.262579000000002
  0
ARC
  5
288
  8
0
 62
     7
 10
88.110282999999995
 20
210.86321799999999
 30
0.0
 40
6.3966750000000001
 50
52.401468000000001
 51
60.19319200000001
  0
ARC
  5
289
  8
0
 62
     7
 10
88.167312999999993
 20
210.9404449999999
 30
0.0
 40
6.3006919999999988
 50
44.386330000000001
 51
52.383889000000011
  0
ARC
  5
28A
  8
0
 62
     7
 10
88.094252999999995
 20
210.8772779999999
 30
0.0
 40
6.3970919999999989
 50
36.450876999999991
 51
44.332920000000001
  0
ARC
  5
28B
  8
0
 62
     7
 10
88.129789000000002
 20
210.92080499999989
 30
0.0
 40
6.3426619999999998
 50
20.640749
 51
36.325321999999993
  0
ARC
  5
28C
  8
0
 62
     7
 10
88.162008999999998
 20
210.95971599999999
 30
0.0
 40
6.298843999999999
 50
12.640211000000001
 51
20.412839000000002
  0
ARC
  5
28D
  8
0
 62
     7
 10
87.781573999999992
 20
210.897952
 30
0.0
 40
6.6836139999999986
 50
8.7678339999999988
 51
12.443187
  0
ARC
  5
28E
  8
0
 62
     7
 10
88.759030999999993
 20
211.037949
 30
0.0
 40
5.696248999999999
 50
6.7306059999999999
 51
8.8747949999999989
  0
ARC
  5
28F
  8
0
 62
     7
 10
85.886837999999997
 20
210.687186
 30
0.0
 40
8.5897649999999999
 50
5.4289990000000001
 51
6.8087839999999984
  0
ARC
  5
290
  8
0
 62
     7
 10
78.744213000000002
 20
210.04715599999989
 30
0.0
 40
15.760952
 50
4.9227019999999992
 51
5.2886040000000003
  0
ARC
  5
291
  8
0
 62
     7
 10
83.464530000000025
 20
210.49164099999999
 30
0.0
 40
11.019969
 50
3.164134999999999
 51
4.7262370000000002
  0
ARC
  5
292
  8
0
 62
     7
 10
82.821562000000014
 20
210.49178699999999
 30
0.0
 40
11.662003
 50
1.0835939999999991
 51
2.9890559999999988
  0
ARC
  5
293
  8
0
 62
     7
 10
12.263400000000001
 20
208.61655799999991
 30
0.0
 40
82.244786000000005
 50
0.9457330000000001
 51
1.4601759999999999
  0
LINE
  5
294
  8
0
 62
     7
 10
94.497000000000014
 20
209.97399999999999
 30
0.0
 11
94.524900000000002
 21
208.50899999999999
 31
0.0
  0
ARC
  5
295
  8
0
 62
     7
 10
-470.59330099999988
 20
198.15057100000001
 30
0.0
 40
565.21311800000001
 50
0.7526350000000001
 51
1.050112999999999
  0
ARC
  5
296
  8
0
 62
     7
 10
-677.73457499999995
 20
195.40172999999999
 30
0.0
 40
772.37262899999996
 50
0.537036
 51
0.754688
  0
ARC
  5
297
  8
0
 62
     7
 10
-567.11467699999992
 20
196.7156379999999
 30
0.0
 40
661.74533299999996
 50
0.004851
 51
0.5130510000000002
  0
TEXT
  5
298
  8
_________2
 62
     7
 10
136.17056249999999
 20
9.1082000000000001
 30
0.0
 40
3.9357000000000002
  1
VB417760
 41
0.5
 72
     1
 11
143.55000000000001
 21
9.1082000000000001
 31
0.0
  0
TEXT
  5
299
  8
_________2
 62
     7
 10
136.17056249999999
 20
-0.8926299999999999
 30
0.0
 40
3.9357000000000002
  1
VB417760
 41
0.5
 72
     1
 11
143.55000000000001
 21
-0.8926299999999999
 31
0.0
  0
TEXT
  5
29A
  8
_________2
 62
     7
 10
24.586600000000001
 20
0.707627
 30
0.0
 40
3.9357000000000002
  1
実容量：9.3L、重量：20.5kg、オーバーフロー付
 41
0.5
  0
LINE
  5
29B
  8
_________2
 62
     7
 10
205.30099999999999
 20
127.411
 30
0.0
 11
183.55099999999999
 21
127.411
 31
0.0
  0
LINE
  5
29C
  8
_________2
 62
     7
 10
100.2999999999999
 20
-4.0910799999999998
 30
0.0
 11
100.2999999999999
 21
-21.070999999999991
 31
0.0
  0
LINE
  5
29D
  8
_________2
 62
     7
 10
100.2999999999999
 20
275.93099999999993
 30
0.0
 11
100.2999999999999
 21
258.911
 31
0.0
  0
LINE
  5
29E
  8
_________2
 62
     7
 10
17.049399999999991
 20
127.411
 30
0.0
 11
-4.7010300000000003
 21
127.411
 31
0.0
  0
LINE
  5
29F
  8
_________2
 62
     7
 10
76.740799999999993
 20
29.8047
 30
0.0
 11
74.554599999999994
 21
29.8047
 31
0.0
  0
LINE
  5
2A0
  8
_________2
 62
     7
 10
77.233500000000006
 20
29.8047
 30
0.0
 11
76.981300000000005
 21
29.8047
 31
0.0
  0
LINE
  5
2A1
  8
_________2
 62
     7
 10
77.726200000000006
 20
29.8047
 30
0.0
 11
80.6511
 21
29.8047
 31
0.0
  0
LINE
  5
2A2
  8
_________2
 62
     7
 10
77.233500000000006
 20
29.8047
 30
0.0
 11
77.485699999999994
 21
29.8047
 31
0.0
  0
LINE
  5
2A3
  8
_________2
 62
     7
 10
70.837299999999999
 20
29.8047
 30
0.0
 11
68.650300000000001
 21
29.8047
 31
0.0
  0
LINE
  5
2A4
  8
_________2
 62
     7
 10
71.329300000000003
 20
29.8047
 30
0.0
 11
71.077799999999996
 21
29.8047
 31
0.0
  0
LINE
  5
2A5
  8
_________2
 62
     7
 10
71.329300000000003
 20
30.2974
 30
0.0
 11
71.329300000000003
 21
32.484400000000001
 31
0.0
  0
LINE
  5
2A6
  8
_________2
 62
     7
 10
71.329300000000003
 20
29.8047
 30
0.0
 11
71.329300000000003
 21
30.057300000000001
 31
0.0
  0
LINE
  5
2A7
  8
_________2
 62
     7
 10
71.821899999999999
 20
29.8047
 30
0.0
 11
74.008899999999997
 21
29.8047
 31
0.0
  0
LINE
  5
2A8
  8
_________2
 62
     7
 10
71.329300000000003
 20
29.8047
 30
0.0
 11
71.581400000000002
 21
29.8047
 31
0.0
  0
LINE
  5
2A9
  8
_________2
 62
     7
 10
71.329300000000003
 20
29.312799999999999
 30
0.0
 11
71.329300000000003
 21
27.126200000000001
 31
0.0
  0
LINE
  5
2AA
  8
_________2
 62
     7
 10
71.329300000000003
 20
29.8047
 30
0.0
 11
71.329300000000003
 21
29.5532
 31
0.0
  0
LINE
  5
2AB
  8
_________2
 62
     7
 10
75.040300000000002
 20
28.5852
 30
0.0
 11
80.218299999999985
 21
27.720400000000001
 31
0.0
  0
LINE
  5
2AC
  8
_________2
 62
     7
 10
75.040300000000002
 20
31.024699999999999
 30
0.0
 11
80.218299999999985
 21
31.8901
 31
0.0
  0
LINE
  5
2AD
  8
_________2
 62
     7
 10
80.218299999999985
 20
27.720400000000001
 30
0.0
 11
80.218299999999985
 21
31.8901
 31
0.0
  0
LINE
  5
2AE
  8
_________2
 62
     7
 10
75.040300000000002
 20
28.5852
 30
0.0
 11
75.040300000000002
 21
31.024699999999999
 31
0.0
  0
ARC
  5
2AF
  8
_________2
 62
     7
 10
71.282674
 20
29.757801000000001
 30
0.0
 40
1.267714
 50
2.1220840000000001
 51
87.894083999999992
  0
ARC
  5
2B0
  8
_________2
 62
     7
 10
71.375812999999994
 20
29.758545999999999
 30
0.0
 40
1.2669680000000001
 50
92.105782999999988
 51
177.91037
  0
ARC
  5
2B1
  8
_________2
 62
     7
 10
71.376186000000004
 20
29.851671
 30
0.0
 40
1.2673680000000001
 50
182.12203600000001
 51
267.877993
  0
ARC
  5
2B2
  8
_________2
 62
     7
 10
71.282368999999989
 20
29.852347999999999
 30
0.0
 40
1.2680439999999991
 50
272.11916400000001
 51
357.84848499999993
  0
ARC
  5
2B3
  8
_________2
 62
     7
 10
71.248890000000003
 20
29.724731999999989
 30
0.0
 40
2.1668310000000002
 50
2.1161439999999989
 51
87.874379000000005
  0
ARC
  5
2B4
  8
_________2
 62
     7
 10
71.408928000000003
 20
29.726146
 30
0.0
 40
2.165392999999999
 50
92.108508999999998
 51
177.91986499999999
  0
ARC
  5
2B5
  8
_________2
 62
     7
 10
71.409267
 20
29.884751999999999
 30
0.0
 40
2.1657829999999998
 50
182.117133
 51
267.88289700000001
  0
ARC
  5
2B6
  8
_________2
 62
     7
 10
71.249286999999995
 20
29.885429999999989
 30
0.0
 40
2.1664590000000001
 50
272.11546800000002
 51
357.86560400000002
  0
TEXT
  5
2B7
  8
_________2
 62
     7
 10
104.605
 20
1.6794899999999999
 30
0.0
 40
3.0923400000000001
  1
図番
 41
0.5
  0
LINE
  5
2B8
  8
_________2
 62
     7
 10
103.55
 20
5.9087199999999989
 30
0.0
 11
183.55099999999999
 21
5.9087199999999989
 31
0.0
  0
TEXT
  5
2B9
  8
_________2
 62
     7
 10
104.605
 20
11.679299999999991
 30
0.0
 40
3.0923400000000001
  1
品番
 41
0.5
  0
TEXT
  5
2BA
  8
_________2
 62
     7
 10
104.605
 20
31.8184
 30
0.0
 40
3.0923400000000001
  1
名称
 41
0.5
  0
TEXT
  5
2BB
  8
_________2
 62
     7
 10
91.844958333333338
 20
26.822299999999998
 30
0.0
 40
3.6545800000000002
  1
mm
 41
0.5
 72
     1
 11
93.367699999999985
 21
26.822299999999998
 31
0.0
  0
TEXT
  5
2BC
  8
_________2
 62
     7
 10
85.642999999999986
 20
31.8184
 30
0.0
 40
3.0923400000000001
  1
単位
 41
0.5
  0
TEXT
  5
2BD
  8
_________2
 62
     7
 10
85.642999999999986
 20
19.410799999999991
 30
0.0
 40
3.0923400000000001
  1
尺度
 41
0.5
  0
TEXT
  5
2BE
  8
_________2
 62
     7
 10
90.091736166666678
 20
13.218199999999991
 30
0.0
 40
3.6545800000000002
  1
1 ： 10
 41
0.5
 72
     1
 11
93.959500000000006
 21
13.218199999999991
 31
0.0
  0
TEXT
  5
2BF
  8
_________2
 62
     7
 10
109.179
 20
24.226099999999999
 30
0.0
 40
3.9357000000000002
  1
アーキテクチュラ アンダーカウンター式洗面器
 41
0.5
  0
TEXT
  5
2C0
  8
_________2
 62
     7
 10
39.425100333333333
 20
13.603400000000001
 30
0.0
 40
3.6545800000000002
  1
早川
 41
0.5
 72
     1
 11
41.313299999999998
 21
13.603400000000001
 31
0.0
  0
TEXT
  5
2C1
  8
_________2
 62
     7
 10
20.851100333333331
 20
13.603400000000001
 30
0.0
 40
3.6545800000000002
  1
福田
 41
0.5
 72
     1
 11
22.7393
 21
13.603400000000001
 31
0.0
  0
TEXT
  5
2C2
  8
_________2
 62
     7
 10
67.785600000000002
 20
13.218199999999991
 30
0.0
 40
3.6545800000000002
  1
13.11.19
 41
0.5
  0
TEXT
  5
2C3
  8
_________2
 62
     7
 10
66.5929
 20
19.410799999999991
 30
0.0
 40
3.0923400000000001
  1
日付
 41
0.5
  0
TEXT
  5
2C4
  8
_________2
 62
     7
 10
29.639199999999992
 20
19.410799999999991
 30
0.0
 40
3.0923400000000001
  1
検図
 41
0.5
  0
TEXT
  5
2C5
  8
_________2
 62
     7
 10
18.020900000000001
 20
5.21143
 30
0.0
 40
3.0923400000000001
  1
備考
 41
0.5
  0
TEXT
  5
2C6
  8
_________2
 62
     7
 10
18.020900000000001
 20
19.410799999999991
 30
0.0
 40
3.0923400000000001
  1
製図
 41
0.5
  0
TEXT
  5
2C7
  8
_________2
 62
     7
 10
23.788265333333339
 20
27.936800000000002
 30
0.0
 40
4.4979399999999989
  1
セラトレーディング株式会社
 41
0.5
 72
     1
 11
41.180300000000003
 21
27.936800000000002
 31
0.0
  0
LINE
  5
2C8
  8
_________2
 62
     7
 10
183.55099999999999
 20
-4.0910799999999998
 30
0.0
 11
17.049399999999991
 21
-4.0910799999999998
 31
0.0
  0
LINE
  5
2C9
  8
_________2
 62
     7
 10
17.049399999999991
 20
-4.0910799999999998
 30
0.0
 11
17.049399999999991
 21
258.911
 31
0.0
  0
LINE
  5
2CA
  8
_________2
 62
     7
 10
17.049399999999991
 20
258.911
 30
0.0
 11
183.55099999999999
 21
258.911
 31
0.0
  0
LINE
  5
2CB
  8
_________2
 62
     7
 10
183.55099999999999
 20
258.911
 30
0.0
 11
183.55099999999999
 21
-4.0910799999999998
 31
0.0
  0
LINE
  5
2CC
  8
_________2
 62
     7
 10
65.549700000000001
 20
9.4092999999999982
 30
0.0
 11
65.549700000000001
 21
35.909100000000002
 31
0.0
  0
LINE
  5
2CD
  8
_________2
 62
     7
 10
84.549599999999984
 20
9.4092999999999982
 30
0.0
 11
84.549599999999984
 21
35.909100000000002
 31
0.0
  0
LINE
  5
2CE
  8
_________2
 62
     7
 10
103.55
 20
-4.0910799999999998
 30
0.0
 11
103.55
 21
35.909100000000002
 31
0.0
  0
LINE
  5
2CF
  8
_________2
 62
     7
 10
28.549199999999988
 20
9.4092999999999982
 30
0.0
 11
28.549199999999988
 21
23.409199999999998
 31
0.0
  0
LINE
  5
2D0
  8
_________2
 62
     7
 10
17.049399999999991
 20
9.4092999999999982
 30
0.0
 11
103.55
 21
9.4092999999999982
 31
0.0
  0
LINE
  5
2D1
  8
_________2
 62
     7
 10
17.049399999999991
 20
23.409199999999998
 30
0.0
 11
103.55
 21
23.409199999999998
 31
0.0
  0
LINE
  5
2D2
  8
_________2
 62
     7
 10
103.55
 20
15.9085
 30
0.0
 11
183.55099999999999
 21
15.9085
 31
0.0
  0
LINE
  5
2D3
  8
_________2
 62
     7
 10
17.049399999999991
 20
35.909100000000002
 30
0.0
 11
183.55099999999999
 21
35.909100000000002
 31
0.0
  0
ENDSEC
  0
EOF
