  0
SECTION
  2
HEADER
  9
$ACADVER
  1
AC1009
  9
$INSBASE
 10
0.0
 20
0.0
 30
0.0
  9
$EXTMIN
 10
0.238402
 20
0.4485540000000001
 30
0.0
  9
$EXTMAX
 10
210.24000000000001
 20
297.45099999999991
 30
0.0
  9
$LIMMIN
 10
0.0
 20
0.0
  9
$LIMMAX
 10
12.0
 20
9.0
  9
$ORTHOMODE
 70
     0
  9
$REGENMODE
 70
     1
  9
$FILLMODE
 70
     1
  9
$QTEXTMODE
 70
     0
  9
$MIRRTEXT
 70
     1
  9
$DRAGMODE
 70
     2
  9
$LTSCALE
 40
1.0
  9
$OSMODE
 70
    37
  9
$ATTMODE
 70
     1
  9
$TEXTSIZE
 40
0.0
  9
$TRACEWID
 40
0.05
  9
$TEXTSTYLE
  7
STANDARD
  9
$CLAYER
  8
0
  9
$CELTYPE
  6
CONTINUOUS
  9
$CECOLOR
 62
   256
  9
$DIMSCALE
 40
1.0
  9
$DIMASZ
 40
0.18
  9
$DIMEXO
 40
0.0625
  9
$DIMDLI
 40
0.38
  9
$DIMRND
 40
0.0
  9
$DIMDLE
 40
0.0
  9
$DIMEXE
 40
0.18
  9
$DIMTP
 40
0.0
  9
$DIMTM
 40
0.0
  9
$DIMTXT
 40
0.18
  9
$DIMCEN
 40
0.09
  9
$DIMTSZ
 40
0.0
  9
$DIMTOL
 70
     0
  9
$DIMLIM
 70
     0
  9
$DIMTIH
 70
     1
  9
$DIMTOH
 70
     1
  9
$DIMSE1
 70
     0
  9
$DIMSE2
 70
     0
  9
$DIMTAD
 70
     0
  9
$DIMZIN
 70
     0
  9
$DIMBLK
  1

  9
$DIMASO
 70
     1
  9
$DIMSHO
 70
     1
  9
$DIMPOST
  1

  9
$DIMAPOST
  1

  9
$DIMALT
 70
     0
  9
$DIMALTD
 70
     2
  9
$DIMALTF
 40
25.399999999999999
  9
$DIMLFAC
 40
1.0
  9
$DIMTOFL
 70
     0
  9
$DIMTVP
 40
0.0
  9
$DIMTIX
 70
     0
  9
$DIMSOXD
 70
     0
  9
$DIMSAH
 70
     0
  9
$DIMBLK1
  1

  9
$DIMBLK2
  1

  9
$DIMSTYLE
  2
STANDARD
  9
$DIMCLRD
 70
     0
  9
$DIMCLRE
 70
     0
  9
$DIMCLRT
 70
     0
  9
$DIMTFAC
 40
1.0
  9
$DIMGAP
 40
0.09
  9
$LUNITS
 70
     2
  9
$LUPREC
 70
     4
  9
$SKETCHINC
 40
0.1
  9
$FILLETRAD
 40
0.0
  9
$AUNITS
 70
     0
  9
$AUPREC
 70
     0
  9
$MENU
  1
.
  9
$ELEVATION
 40
0.0
  9
$PELEVATION
 40
0.0
  9
$THICKNESS
 40
0.0
  9
$LIMCHECK
 70
     0
  9
$BLIPMODE
 70
     0
  9
$CHAMFERA
 40
0.0
  9
$CHAMFERB
 40
0.0
  9
$SKPOLY
 70
     0
  9
$TDCREATE
 40
2444972.375
  9
$TDUPDATE
 40
2456723.2486698381
  9
$TDINDWG
 40
0.0000053704
  9
$TDUSRTIMER
 40
0.0000053704
  9
$USRTIMER
 70
     1
  9
$ANGBASE
 50
0.0
  9
$ANGDIR
 70
     0
  9
$PDMODE
 70
     0
  9
$PDSIZE
 40
0.0
  9
$PLINEWID
 40
0.0
  9
$COORDS
 70
     1
  9
$SPLFRAME
 70
     0
  9
$SPLINETYPE
 70
     6
  9
$SPLINESEGS
 70
     8
  9
$ATTDIA
 70
     0
  9
$ATTREQ
 70
     1
  9
$HANDLING
 70
     1
  9
$HANDSEED
  5
15A
  9
$SURFTAB1
 70
     6
  9
$SURFTAB2
 70
     6
  9
$SURFTYPE
 70
     6
  9
$SURFU
 70
     6
  9
$SURFV
 70
     6
  9
$UCSNAME
  2

  9
$UCSORG
 10
0.0
 20
0.0
 30
0.0
  9
$UCSXDIR
 10
1.0
 20
0.0
 30
0.0
  9
$UCSYDIR
 10
0.0
 20
1.0
 30
0.0
  9
$PUCSNAME
  2

  9
$PUCSORG
 10
0.0
 20
0.0
 30
0.0
  9
$PUCSXDIR
 10
1.0
 20
0.0
 30
0.0
  9
$PUCSYDIR
 10
0.0
 20
1.0
 30
0.0
  9
$USERI1
 70
     0
  9
$USERI2
 70
     0
  9
$USERI3
 70
     0
  9
$USERI4
 70
     0
  9
$USERI5
 70
     0
  9
$USERR1
 40
0.0
  9
$USERR2
 40
0.0
  9
$USERR3
 40
0.0
  9
$USERR4
 40
0.0
  9
$USERR5
 40
0.0
  9
$WORLDVIEW
 70
     1
  9
$SHADEDGE
 70
     3
  9
$SHADEDIF
 70
    70
  9
$TILEMODE
 70
     1
  9
$MAXACTVP
 70
    48
  9
$PLIMCHECK
 70
     0
  9
$PEXTMIN
 10
1.0000000000000000E+020
 20
1.0000000000000000E+020
 30
1.0000000000000000E+020
  9
$PEXTMAX
 10
-1.0000000000000000E+020
 20
-1.0000000000000000E+020
 30
-1.0000000000000000E+020
  9
$PLIMMIN
 10
0.0
 20
0.0
  9
$PLIMMAX
 10
12.0
 20
9.0
  9
$UNITMODE
 70
     0
  9
$VISRETAIN
 70
     1
  9
$PLINEGEN
 70
     0
  9
$PSLTSCALE
 70
     1
  0
ENDSEC
  0
SECTION
  2
TABLES
  0
TABLE
  2
VPORT
 70
     2
  0
VPORT
  2
*ACTIVE
 70
     0
 10
0.0
 20
0.0
 11
1.0
 21
1.0
 12
206.98016390466589
 22
148.7254999999999
 13
0.0
 23
0.0
 14
1.0
 24
1.0
 15
0.0
 25
0.0
 16
0.0
 26
0.0
 36
1.0
 17
0.0
 27
0.0
 37
0.0
 40
299.90589133425021
 41
2.2894736842105261
 42
50.0
 43
0.0
 44
0.0
 50
0.0
 51
0.0
 71
     0
 72
   100
 73
     1
 74
     1
 75
     0
 76
     0
 77
     0
 78
     0
  0
ENDTAB
  0
TABLE
  2
LTYPE
 70
     3
  0
LTYPE
  2
CONTINUOUS
 70
     0
  3
Solid line
 72
    65
 73
     0
 40
0.0
  0
LTYPE
  2
AIGENLINE001
 70
     0
  3
generate AI->DXF Converter
 72
    65
 73
     4
 40
5.8561449999999988
 49
3.5278
 49
-0.776115
 49
0.776115
 49
-0.776115
  0
LTYPE
  2
AIGENLINE002
 70
     0
  3
generate AI->DXF Converter
 72
    65
 73
     2
 40
1.5522299999999991
 49
0.776115
 49
-0.776115
  0
ENDTAB
  0
TABLE
  2
LAYER
 70
     2
  0
LAYER
  2
0
 70
     0
 62
     7
  6
CONTINUOUS
  0
LAYER
  2
_________2
 70
     0
 62
     7
  6
CONTINUOUS
  0
ENDTAB
  0
TABLE
  2
STYLE
 70
     1
  0
STYLE
  2
STANDARD
 70
     0
 40
0.0
 41
0.0
 50
0.0
 71
     0
 42
0.0
  3
TXT
  4
EXTFONT.SHX
  0
ENDTAB
  0
TABLE
  2
VIEW
 70
     0
  0
ENDTAB
  0
TABLE
  2
UCS
 70
     0
  0
ENDTAB
  0
TABLE
  2
APPID
 70
     1
  0
APPID
  2
ACAD
 70
     0
  0
ENDTAB
  0
TABLE
  2
DIMSTYLE
 70
     1
  0
DIMSTYLE
  2
STANDARD
 70
     0
  3

  4

  5

  6

  7

 40
1.0
 41
0.18
 42
0.0625
 43
0.38
 44
0.18
 45
0.0
 46
0.0
 47
0.0
 48
0.0
140
0.18
141
0.09
142
0.0
143
25.399999999999999
144
1.0
145
0.0
146
1.0
147
0.09
 71
     0
 72
     0
 73
     1
 74
     1
 75
     0
 76
     0
 77
     0
 78
     0
170
     0
171
     2
172
     0
173
     0
174
     0
175
     0
176
     0
177
     0
178
     0
  0
ENDTAB
  0
ENDSEC
  0
SECTION
  2
BLOCKS
  0
BLOCK
  8
0
  2
$MODEL_SPACE
 70
     0
 10
0.0
 20
0.0
 30
0.0
  3
$MODEL_SPACE
  1

  0
ENDBLK
  5
1A
  8
0
  0
BLOCK
 67
     1
  8
0
  2
$PAPER_SPACE
 70
     0
 10
0.0
 20
0.0
 30
0.0
  3
$PAPER_SPACE
  1

  0
ENDBLK
  5
17
 67
     1
  8
0
  0
ENDSEC
  0
SECTION
  2
ENTITIES
  0
TEXT
  5
23
  8
0
 62
     7
 10
29.700199999999992
 20
67.051299999999998
 30
0.0
 40
4.2168199999999993
  1
※排水栓を閉めた状態で毎分10L以上吐水させないでください。
 41
0.5
  0
TEXT
  5
24
  8
0
 62
     7
 10
29.700199999999992
 20
61.78029999999999
 30
0.0
 40
4.2168199999999993
  1
※壁取付部には厚さ30mm以上の補強材を入れてください。
 41
0.5
  0
TEXT
  5
25
  8
0
 62
     7
 10
81.104280000000003
 20
200.03599999999989
 30
0.0
 40
3.0923400000000001
  1
%%c46
 41
0.5
 72
     2
 11
85.227400000000003
 21
200.03599999999989
 31
0.0
  0
TEXT
  5
26
  8
0
 62
     7
 10
94.684899999999999
 20
131.77774500000001
 30
0.0
 40
3.0923400000000001
  1
50
 50
90.0
 41
0.5
 72
     2
 11
94.684899999999999
 21
134.09700000000001
 31
0.0
  0
TEXT
  5
27
  8
0
 62
     7
 10
112.535
 20
119.4489824999999
 30
0.0
 40
3.0923400000000001
  1
140
 50
90.0
 41
0.5
 72
     1
 11
112.535
 21
121.1239999999999
 31
0.0
  0
TEXT
  5
28
  8
0
 62
     7
 10
147.578
 20
122.0855249999999
 30
0.0
 40
3.0923400000000001
  1
95
 50
90.0
 41
0.5
 72
     1
 11
147.578
 21
123.374
 31
0.0
  0
TEXT
  5
29
  8
0
 62
     7
 10
120.85299999999989
 20
204.12928749999989
 30
0.0
 40
3.0923400000000001
  1
420
 50
90.0
 41
0.5
 72
     1
 11
120.85299999999989
 21
206.06200000000001
 31
0.0
  0
TEXT
  5
2A
  8
0
 62
     7
 10
112.41
 20
218.00813500000001
 30
0.0
 40
3.0923400000000001
  1
145
 50
90.0
 41
0.5
 72
     1
 11
112.41
 21
219.81200000000001
 31
0.0
  0
TEXT
  5
2B
  8
0
 62
     7
 10
112.41
 20
197.62828749999991
 30
0.0
 40
3.0923400000000001
  1
260
 50
90.0
 41
0.5
 72
     1
 11
112.41
 21
199.56099999999989
 31
0.0
  0
TEXT
  5
2C
  8
0
 62
     7
 10
158.63328749999999
 20
106.30800000000001
 30
0.0
 40
3.0923400000000001
  1
220
 41
0.5
 72
     1
 11
160.566
 21
106.30800000000001
 31
0.0
  0
TEXT
  5
2D
  8
0
 62
     7
 10
71.6218875
 20
136.78
 30
0.0
 40
3.0923400000000001
  1
280
 41
0.5
 72
     1
 11
73.554599999999994
 21
136.78
 31
0.0
  0
TEXT
  5
2E
  8
0
 62
     7
 10
71.750734999999992
 20
168.917
 30
0.0
 40
3.0923400000000001
  1
600
 41
0.5
 72
     1
 11
73.554599999999994
 21
168.917
 31
0.0
  0
TEXT
  5
2F
  8
0
 62
     7
 10
71.493039999999993
 20
176.40899999999999
 30
0.0
 40
3.0923400000000001
  1
565
 41
0.5
 72
     1
 11
73.554599999999994
 21
176.40899999999999
 31
0.0
  0
ARC
  5
30
  8
0
 62
     7
 10
131.03300799999991
 20
114.628743
 30
0.0
 40
0.504416
 50
230.15418099999991
 51
269.72158699999989
  0
ARC
  5
31
  8
0
 62
     7
 10
131.03713400000001
 20
114.6272189999999
 30
0.0
 40
0.5059070000000001
 50
182.48644400000001
 51
229.68478899999999
  0
LINE
  5
32
  8
0
 62
     7
 10
169.3549999999999
 20
105.02200000000001
 30
0.0
 11
171.56700000000001
 21
105.6149999999999
 31
0.0
  0
LINE
  5
33
  8
0
 62
     7
 10
171.56700000000001
 20
105.6149999999999
 30
0.0
 11
169.3549999999999
 21
106.20699999999999
 31
0.0
  0
LINE
  5
34
  8
0
 62
     7
 10
169.3549999999999
 20
106.20699999999999
 30
0.0
 11
169.3549999999999
 21
105.02200000000001
 31
0.0
  0
LINE
  5
35
  8
0
 62
     7
 10
151.77600000000001
 20
106.193
 30
0.0
 11
149.56499999999991
 21
105.59999999999999
 31
0.0
  0
LINE
  5
36
  8
0
 62
     7
 10
149.56499999999991
 20
105.59999999999999
 30
0.0
 11
151.77600000000001
 21
105.0079999999999
 31
0.0
  0
LINE
  5
37
  8
0
 62
     7
 10
151.77600000000001
 20
105.0079999999999
 30
0.0
 11
151.77600000000001
 21
106.193
 31
0.0
  0
LINE
  5
38
  8
0
 62
     7
 10
171.56599999999989
 20
105.6079999999999
 30
0.0
 11
149.56599999999989
 21
105.6079999999999
 31
0.0
  0
LINE
  5
39
  8
0
 62
     7
 10
171.56599999999989
 20
104.9079999999999
 30
0.0
 11
171.56599999999989
 21
113.40600000000001
 31
0.0
  0
LINE
  5
3A
  8
0
 62
     7
 10
149.56599999999989
 20
104.9079999999999
 30
0.0
 11
149.56599999999989
 21
111.7939999999999
 31
0.0
  0
LINE
  5
3B
  8
0
 62
     7
 10
148.863
 20
125.914
 30
0.0
 11
148.27000000000001
 21
128.125
 31
0.0
  0
LINE
  5
3C
  8
0
 62
     7
 10
148.27000000000001
 20
128.125
 30
0.0
 11
147.67799999999991
 21
125.914
 31
0.0
  0
LINE
  5
3D
  8
0
 62
     7
 10
147.67799999999991
 20
125.914
 30
0.0
 11
148.863
 21
125.914
 31
0.0
  0
LINE
  5
3E
  8
0
 62
     7
 10
147.69199999999989
 20
120.83499999999999
 30
0.0
 11
148.285
 21
118.6239999999999
 31
0.0
  0
LINE
  5
3F
  8
0
 62
     7
 10
148.285
 20
118.6239999999999
 30
0.0
 11
148.87700000000001
 21
120.83499999999999
 31
0.0
  0
LINE
  5
40
  8
0
 62
     7
 10
148.87700000000001
 20
120.83499999999999
 30
0.0
 11
147.69199999999989
 21
120.83499999999999
 31
0.0
  0
LINE
  5
41
  8
0
 62
     7
 10
148.27799999999991
 20
128.125
 30
0.0
 11
148.27799999999991
 21
118.6239999999999
 31
0.0
  0
LINE
  5
42
  8
0
  6
AIGENLINE001
 62
     7
 10
155.32299999999989
 20
124.1249999999999
 30
0.0
 11
158.238
 21
124.1249999999999
 31
0.0
  0
LINE
  5
43
  8
0
  6
AIGENLINE002
 62
     7
 10
157.01599999999999
 20
127.17700000000001
 30
0.0
 11
156.66599999999991
 21
120.523
 31
0.0
  0
LINE
  5
44
  8
0
  6
AIGENLINE002
 62
     7
 10
153.459
 20
118.6309999999999
 30
0.0
 11
154.66399999999999
 21
118.6279999999999
 31
0.0
  0
ARC
  5
45
  8
0
  6
AIGENLINE002
 62
     7
 10
154.59846099999999
 20
120.702763
 30
0.0
 40
2.0753319999999991
 50
271.82091099999991
 51
355.03900299999992
  0
LINE
  5
46
  8
0
 62
     7
 10
130.566
 20
128.125
 30
0.0
 11
171.56599999999989
 21
128.125
 31
0.0
  0
ARC
  5
47
  8
0
  6
AIGENLINE002
 62
     7
 10
158.04913199999999
 20
127.08827099999991
 30
0.0
 40
1.0369090000000001
 50
91.917446999999996
 51
175.08045699999991
  0
LINE
  5
48
  8
0
 62
     7
 10
171.56599999999989
 20
128.125
 30
0.0
 11
171.56599999999989
 21
114.6249999999999
 31
0.0
  0
LINE
  5
49
  8
0
 62
     7
 10
131.03100000000001
 20
114.124
 30
0.0
 11
171.06599999999989
 21
114.124
 31
0.0
  0
ARC
  5
4A
  8
0
 62
     7
 10
171.06592000000001
 20
114.62456399999991
 30
0.0
 40
0.5002310000000002
 50
270.00002000000001
 51
359.99998999999991
  0
LINE
  5
4B
  8
0
  6
AIGENLINE002
 62
     7
 10
139.30299999999991
 20
119.46299999999989
 30
0.0
 11
145.673
 21
118.6309999999999
 31
0.0
  0
LINE
  5
4C
  8
0
  6
AIGENLINE002
 62
     7
 10
137.30799999999991
 20
120.616
 30
0.0
 11
131.86600000000001
 21
127.732
 31
0.0
  0
ARC
  5
4D
  8
0
  6
AIGENLINE002
 62
     7
 10
139.71052700000001
 20
122.47095299999999
 30
0.0
 40
3.0355959999999991
 50
217.67570799999999
 51
262.277692
  0
ARC
  5
4E
  8
0
  6
AIGENLINE002
 62
     7
 10
131.06303199999999
 20
127.1074889999999
 30
0.0
 40
1.017147
 50
37.867854999999999
 51
89.519998000000015
  0
LINE
  5
4F
  8
0
  6
AIGENLINE002
 62
     7
 10
151.86600000000001
 20
117.625
 30
0.0
 11
153.19799999999989
 21
118.54299999999991
 31
0.0
  0
LINE
  5
50
  8
0
  6
AIGENLINE002
 62
     7
 10
153.459
 20
118.6309999999999
 30
0.0
 11
153.315
 21
118.6239999999999
 31
0.0
  0
ARC
  5
51
  8
0
  6
AIGENLINE002
 62
     7
 10
153.48016299999989
 20
118.138929
 30
0.0
 40
0.4927770000000001
 50
92.506291000000019
 51
124.90838699999991
  0
LINE
  5
52
  8
0
  6
AIGENLINE002
 62
     7
 10
155.36600000000001
 20
114.6249999999999
 30
0.0
 11
153.86600000000001
 21
114.6249999999999
 31
0.0
  0
ARC
  5
53
  8
0
  6
AIGENLINE002
 62
     7
 10
153.86582699999991
 20
114.124332
 30
0.0
 40
0.5002310000000002
 50
90.0
 51
179.99996999999991
  0
LINE
  5
54
  8
0
  6
AIGENLINE002
 62
     7
 10
151.86600000000001
 20
114.124
 30
0.0
 11
151.86600000000001
 21
117.625
 31
0.0
  0
LINE
  5
55
  8
0
  6
AIGENLINE002
 62
     7
 10
147.26599999999991
 20
117.625
 30
0.0
 11
145.93299999999999
 21
118.54299999999991
 31
0.0
  0
LINE
  5
56
  8
0
  6
AIGENLINE002
 62
     7
 10
145.673
 20
118.6309999999999
 30
0.0
 11
145.815
 21
118.6239999999999
 31
0.0
  0
ARC
  5
57
  8
0
  6
AIGENLINE002
 62
     7
 10
145.64773799999989
 20
118.12899899999999
 30
0.0
 40
0.502853
 50
55.424878999999997
 51
87.160403000000017
  0
LINE
  5
58
  8
0
  6
AIGENLINE002
 62
     7
 10
143.7649999999999
 20
116.125
 30
0.0
 11
145.26499999999999
 21
116.125
 31
0.0
  0
ARC
  5
59
  8
0
  6
AIGENLINE002
 62
     7
 10
145.26543599999999
 20
115.624337
 30
0.0
 40
0.5002310000000002
 50
0.00001
 51
89.999980000000008
  0
LINE
  5
5A
  8
0
  6
AIGENLINE002
 62
     7
 10
153.315
 20
118.6239999999999
 30
0.0
 11
145.815
 21
118.6239999999999
 31
0.0
  0
LINE
  5
5B
  8
0
  6
AIGENLINE002
 62
     7
 10
151.86600000000001
 20
117.625
 30
0.0
 11
147.26599999999991
 21
117.625
 31
0.0
  0
LINE
  5
5C
  8
0
  6
AIGENLINE002
 62
     7
 10
145.76599999999991
 20
114.124
 30
0.0
 11
145.76599999999991
 21
115.6239999999999
 31
0.0
  0
LINE
  5
5D
  8
0
  6
AIGENLINE002
 62
     7
 10
147.26599999999991
 20
114.124
 30
0.0
 11
147.26599999999991
 21
117.625
 31
0.0
  0
LINE
  5
5E
  8
0
  6
AIGENLINE001
 62
     7
 10
149.56599999999989
 20
120.09
 30
0.0
 11
149.56599999999989
 21
112.494
 31
0.0
  0
LINE
  5
5F
  8
0
  6
AIGENLINE002
 62
     7
 10
99.226299999999995
 20
121.52799999999991
 30
0.0
 11
101.31999999999989
 21
127.458
 31
0.0
  0
ARC
  5
60
  8
0
  6
AIGENLINE002
 62
     7
 10
102.2814579999999
 20
127.09772099999989
 30
0.0
 40
1.027061
 50
91.079699999999988
 51
159.48690099999999
  0
LINE
  5
61
  8
0
  6
AIGENLINE002
 62
     7
 10
75.854600000000005
 20
117.625
 30
0.0
 11
77.187200000000004
 21
118.54299999999991
 31
0.0
  0
LINE
  5
62
  8
0
  6
AIGENLINE002
 62
     7
 10
77.446899999999999
 20
118.6309999999999
 30
0.0
 11
77.304299999999998
 21
118.6239999999999
 31
0.0
  0
LINE
  5
63
  8
0
  6
AIGENLINE002
 62
     7
 10
96.538399999999996
 20
119.53
 30
0.0
 11
77.446899999999999
 21
118.6309999999999
 31
0.0
  0
ARC
  5
64
  8
0
  6
AIGENLINE002
 62
     7
 10
77.46855699999999
 20
118.140885
 30
0.0
 40
0.4908270000000001
 50
92.525951000000006
 51
124.9810419999999
  0
LINE
  5
65
  8
0
  6
AIGENLINE002
 62
     7
 10
77.354600000000005
 20
114.124
 30
0.0
 11
77.354600000000005
 21
115.6239999999999
 31
0.0
  0
LINE
  5
66
  8
0
  6
AIGENLINE002
 62
     7
 10
79.354799999999997
 20
116.125
 30
0.0
 11
77.854799999999983
 21
116.125
 31
0.0
  0
ARC
  5
67
  8
0
  6
AIGENLINE002
 62
     7
 10
77.854827
 20
115.624337
 30
0.0
 40
0.5002310000000002
 50
90.0
 51
179.99996999999991
  0
ARC
  5
68
  8
0
  6
AIGENLINE002
 62
     7
 10
96.343772999999999
 20
122.598427
 30
0.0
 40
3.0748700000000002
 50
273.62879399999991
 51
339.62537900000001
  0
LINE
  5
69
  8
0
  6
AIGENLINE002
 62
     7
 10
75.854600000000005
 20
114.124
 30
0.0
 11
75.854600000000005
 21
117.625
 31
0.0
  0
LINE
  5
6A
  8
0
  6
AIGENLINE002
 62
     7
 10
47.882300000000001
 20
121.52799999999991
 30
0.0
 11
45.789700000000003
 21
127.458
 31
0.0
  0
ARC
  5
6B
  8
0
  6
AIGENLINE002
 62
     7
 10
44.827835999999998
 20
127.0977449999999
 30
0.0
 40
1.027023999999999
 50
20.512439000000001
 51
88.960397999999998
  0
LINE
  5
6C
  8
0
  6
AIGENLINE002
 62
     7
 10
71.254699999999985
 20
117.625
 30
0.0
 11
69.9221
 21
118.54299999999991
 31
0.0
  0
LINE
  5
6D
  8
0
  6
AIGENLINE002
 62
     7
 10
69.661600000000007
 20
118.6309999999999
 30
0.0
 11
69.804299999999998
 21
118.6239999999999
 31
0.0
  0
LINE
  5
6E
  8
0
  6
AIGENLINE002
 62
     7
 10
50.570900000000002
 20
119.53
 30
0.0
 11
69.661600000000007
 21
118.6309999999999
 31
0.0
  0
ARC
  5
6F
  8
0
  6
AIGENLINE002
 62
     7
 10
69.635103000000001
 20
118.12416999999991
 30
0.0
 40
0.507759
 50
55.582188000000009
 51
87.003094000000004
  0
LINE
  5
70
  8
0
  6
AIGENLINE002
 62
     7
 10
69.7547
 20
114.124
 30
0.0
 11
69.7547
 21
115.6239999999999
 31
0.0
  0
LINE
  5
71
  8
0
  6
AIGENLINE002
 62
     7
 10
67.754400000000004
 20
116.125
 30
0.0
 11
69.254400000000004
 21
116.125
 31
0.0
  0
ARC
  5
72
  8
0
  6
AIGENLINE002
 62
     7
 10
69.254435999999998
 20
115.624337
 30
0.0
 40
0.5002310000000002
 50
0.00001
 51
89.999980000000008
  0
ARC
  5
73
  8
0
  6
AIGENLINE002
 62
     7
 10
50.765896000000012
 20
122.59996699999991
 30
0.0
 40
3.0764330000000002
 50
200.39442899999989
 51
266.36550099999988
  0
LINE
  5
74
  8
0
  6
AIGENLINE002
 62
     7
 10
77.304299999999998
 20
118.6239999999999
 30
0.0
 11
69.804299999999998
 21
118.6239999999999
 31
0.0
  0
LINE
  5
75
  8
0
  6
AIGENLINE002
 62
     7
 10
75.854600000000005
 20
117.625
 30
0.0
 11
71.254699999999985
 21
117.625
 31
0.0
  0
LINE
  5
76
  8
0
  6
AIGENLINE002
 62
     7
 10
71.254699999999985
 20
114.124
 30
0.0
 11
71.254699999999985
 21
117.625
 31
0.0
  0
LINE
  5
77
  8
0
 62
     7
 10
95.977500000000006
 20
120.913
 30
0.0
 11
95.385000000000005
 21
123.1239999999999
 31
0.0
  0
LINE
  5
78
  8
0
 62
     7
 10
95.385000000000005
 20
123.1239999999999
 30
0.0
 11
94.792400000000001
 21
120.913
 31
0.0
  0
LINE
  5
79
  8
0
 62
     7
 10
94.792400000000001
 20
120.913
 30
0.0
 11
95.977500000000006
 21
120.913
 31
0.0
  0
LINE
  5
7A
  8
0
 62
     7
 10
94.792400000000001
 20
130.33600000000001
 30
0.0
 11
95.385000000000005
 21
128.125
 31
0.0
  0
LINE
  5
7B
  8
0
 62
     7
 10
95.385000000000005
 20
128.125
 30
0.0
 11
95.977500000000006
 21
130.33600000000001
 31
0.0
  0
LINE
  5
7C
  8
0
 62
     7
 10
95.977500000000006
 20
130.33600000000001
 30
0.0
 11
94.792400000000001
 21
130.33600000000001
 31
0.0
  0
LINE
  5
7D
  8
0
 62
     7
 10
113.8209999999999
 20
125.914
 30
0.0
 11
113.229
 21
128.125
 31
0.0
  0
LINE
  5
7E
  8
0
 62
     7
 10
113.229
 20
128.125
 30
0.0
 11
112.636
 21
125.914
 31
0.0
  0
LINE
  5
7F
  8
0
 62
     7
 10
112.636
 20
125.914
 30
0.0
 11
113.8209999999999
 21
125.914
 31
0.0
  0
LINE
  5
80
  8
0
 62
     7
 10
112.651
 20
116.33499999999989
 30
0.0
 11
113.24299999999999
 21
114.124
 31
0.0
  0
LINE
  5
81
  8
0
 62
     7
 10
113.24299999999999
 20
114.124
 30
0.0
 11
113.836
 21
116.33499999999989
 31
0.0
  0
LINE
  5
82
  8
0
 62
     7
 10
113.836
 20
116.33499999999989
 30
0.0
 11
112.651
 21
116.33499999999989
 31
0.0
  0
LINE
  5
83
  8
0
 62
     7
 10
113.2349999999999
 20
128.125
 30
0.0
 11
113.2349999999999
 21
114.124
 31
0.0
  0
LINE
  5
84
  8
0
 62
     7
 10
103.7549999999999
 20
114.124
 30
0.0
 11
113.93600000000001
 21
114.124
 31
0.0
  0
LINE
  5
85
  8
0
 62
     7
 10
104.41799999999991
 20
128.125
 30
0.0
 11
113.93600000000001
 21
128.125
 31
0.0
  0
LINE
  5
86
  8
0
 62
     7
 10
90.779499999999985
 20
123.1239999999999
 30
0.0
 11
96.084999999999994
 21
123.1239999999999
 31
0.0
  0
LINE
  5
87
  8
0
 62
     7
 10
95.385000000000005
 20
134.09700000000001
 30
0.0
 11
95.385000000000005
 21
119.9049999999999
 31
0.0
  0
LINE
  5
88
  8
0
  6
AIGENLINE001
 62
     7
 10
76.253399999999999
 20
124.1249999999999
 30
0.0
 11
70.753200000000007
 21
124.1249999999999
 31
0.0
  0
ARC
  5
89
  8
0
  6
AIGENLINE002
 62
     7
 10
73.507604999999984
 20
124.077607
 30
0.0
 40
1.2976270000000001
 50
2.1155209999999989
 51
87.900272999999999
  0
ARC
  5
8A
  8
0
  6
AIGENLINE002
 62
     7
 10
73.603323000000003
 20
124.075185
 30
0.0
 40
1.3000709999999991
 50
92.123593999999983
 51
177.78162
  0
ARC
  5
8B
  8
0
  6
AIGENLINE002
 62
     7
 10
73.603076000000001
 20
124.173436
 30
0.0
 40
1.2997339999999991
 50
182.11329699999999
 51
267.88673299999999
  0
ARC
  5
8C
  8
0
  6
AIGENLINE002
 62
     7
 10
73.506782999999999
 20
124.172085
 30
0.0
 40
1.298400999999999
 50
272.13476600000001
 51
357.94419599999998
  0
LINE
  5
8D
  8
0
 62
     7
 10
85.343800000000002
 20
135.494
 30
0.0
 11
87.555599999999998
 21
136.08699999999999
 31
0.0
  0
LINE
  5
8E
  8
0
 62
     7
 10
87.555599999999998
 20
136.08699999999999
 30
0.0
 11
85.343800000000002
 21
136.68000000000001
 31
0.0
  0
LINE
  5
8F
  8
0
 62
     7
 10
85.343800000000002
 20
136.68000000000001
 30
0.0
 11
85.343800000000002
 21
135.494
 31
0.0
  0
LINE
  5
90
  8
0
 62
     7
 10
61.7654
 20
136.66499999999991
 30
0.0
 11
59.553699999999999
 21
136.072
 31
0.0
  0
LINE
  5
91
  8
0
 62
     7
 10
59.553699999999999
 20
136.072
 30
0.0
 11
61.7654
 21
135.47999999999999
 31
0.0
  0
LINE
  5
92
  8
0
 62
     7
 10
61.7654
 20
135.47999999999999
 30
0.0
 11
61.7654
 21
136.66499999999991
 31
0.0
  0
LINE
  5
93
  8
0
 62
     7
 10
87.554899999999989
 20
136.08000000000001
 30
0.0
 11
59.554400000000001
 21
136.08000000000001
 31
0.0
  0
LINE
  5
94
  8
0
 62
     7
 10
87.554899999999989
 20
136.78
 30
0.0
 11
87.554899999999989
 21
125.51600000000001
 31
0.0
  0
LINE
  5
95
  8
0
  6
AIGENLINE001
 62
     7
 10
87.554899999999989
 20
121.3659999999999
 30
0.0
 11
87.554899999999989
 21
124.816
 31
0.0
  0
LINE
  5
96
  8
0
  6
AIGENLINE002
 62
     7
 10
88.054400000000001
 20
124.1249999999999
 30
0.0
 11
87.054699999999997
 21
124.1249999999999
 31
0.0
  0
LINE
  5
97
  8
0
  6
AIGENLINE002
 62
     7
 10
88.054400000000001
 20
122.1249999999999
 30
0.0
 11
87.054699999999997
 21
122.1249999999999
 31
0.0
  0
ARC
  5
98
  8
0
  6
AIGENLINE002
 62
     7
 10
87.093335999999994
 20
123.0864039999999
 30
0.0
 40
1.039134
 50
92.132551000000007
 51
177.906893
  0
ARC
  5
99
  8
0
  6
AIGENLINE002
 62
     7
 10
87.092904999999988
 20
123.162594
 30
0.0
 40
1.038713999999999
 50
182.10967400000001
 51
267.890356
  0
LINE
  5
9A
  8
0
  6
AIGENLINE001
 62
     7
 10
173.988
 20
123.1239999999999
 30
0.0
 11
168.96299999999999
 21
123.1239999999999
 31
0.0
  0
LINE
  5
9B
  8
0
  6
AIGENLINE001
 62
     7
 10
90.079499999999996
 20
123.1239999999999
 30
0.0
 11
85.054400000000001
 21
123.1239999999999
 31
0.0
  0
ARC
  5
9C
  8
0
  6
AIGENLINE002
 62
     7
 10
88.015839999999997
 20
123.163674
 30
0.0
 40
1.039806999999999
 50
272.12753900000001
 51
357.83299799999992
  0
ARC
  5
9D
  8
0
  6
AIGENLINE002
 62
     7
 10
88.054440999999997
 20
123.1243569999999
 30
0.0
 40
1.000462
 50
0.00001
 51
89.999980000000008
  0
LINE
  5
9E
  8
0
 62
     7
 10
59.554400000000001
 20
136.78
 30
0.0
 11
59.554400000000001
 21
125.51600000000001
 31
0.0
  0
LINE
  5
9F
  8
0
  6
AIGENLINE001
 62
     7
 10
59.554400000000001
 20
121.3659999999999
 30
0.0
 11
59.554400000000001
 21
124.816
 31
0.0
  0
LINE
  5
A0
  8
0
  6
AIGENLINE002
 62
     7
 10
60.054600000000001
 20
124.1249999999999
 30
0.0
 11
59.054099999999991
 21
124.1249999999999
 31
0.0
  0
LINE
  5
A1
  8
0
  6
AIGENLINE002
 62
     7
 10
60.054600000000001
 20
122.1249999999999
 30
0.0
 11
59.054099999999991
 21
122.1249999999999
 31
0.0
  0
ARC
  5
A2
  8
0
  6
AIGENLINE002
 62
     7
 10
59.092815999999999
 20
123.0863889999999
 30
0.0
 40
1.03915
 50
92.133369999999999
 51
177.90607299999991
  0
ARC
  5
A3
  8
0
  6
AIGENLINE002
 62
     7
 10
59.092370000000003
 20
123.162594
 30
0.0
 40
1.038713999999999
 50
182.10967400000001
 51
267.890356
  0
LINE
  5
A4
  8
0
  6
AIGENLINE001
 62
     7
 10
62.07889999999999
 20
123.1239999999999
 30
0.0
 11
57.054600000000001
 21
123.1239999999999
 31
0.0
  0
ARC
  5
A5
  8
0
  6
AIGENLINE002
 62
     7
 10
60.01596
 20
123.1629919999999
 30
0.0
 40
1.0391259999999991
 50
272.13077099999998
 51
357.86923899999999
  0
ARC
  5
A6
  8
0
  6
AIGENLINE002
 62
     7
 10
60.015669999999993
 20
123.086147
 30
0.0
 40
1.039401
 50
2.1067269999999998
 51
87.853789000000035
  0
LINE
  5
A7
  8
0
  6
AIGENLINE001
 62
     7
 10
73.554599999999994
 20
130.2359999999999
 30
0.0
 11
73.554599999999994
 21
112.03700000000001
 31
0.0
  0
LINE
  5
A8
  8
0
 62
     7
 10
102.55500000000001
 20
128.125
 30
0.0
 11
44.554299999999991
 21
128.125
 31
0.0
  0
LINE
  5
A9
  8
0
 62
     7
 10
103.054
 20
114.124
 30
0.0
 11
103.554
 21
127.089
 31
0.0
  0
ARC
  5
AA
  8
0
 62
     7
 10
103.0617979999999
 20
127.11638499999999
 30
0.0
 40
0.4929870000000001
 50
356.81538399999988
 51
0.9812039999999999
  0
ARC
  5
AB
  8
0
 62
     7
 10
102.51631
 20
127.086197
 30
0.0
 40
1.0391209999999991
 50
2.130487
 51
87.869502999999995
  0
LINE
  5
AC
  8
0
 62
     7
 10
130.53200000000001
 20
114.605
 30
0.0
 11
129.63800000000001
 21
127.089
 31
0.0
  0
ARC
  5
AD
  8
0
 62
     7
 10
130.6757439999999
 20
127.086208
 30
0.0
 40
1.0391099999999991
 50
92.129931000000013
 51
177.87003899999999
  0
ARC
  5
AE
  8
0
 62
     7
 10
130.4791469999999
 20
127.1230939999999
 30
0.0
 40
0.8417980000000001
 50
179.882036
 51
182.32137599999999
  0
LINE
  5
AF
  8
0
 62
     7
 10
44.054099999999991
 20
114.124
 30
0.0
 11
43.555199999999999
 21
127.089
 31
0.0
  0
ARC
  5
B0
  8
0
 62
     7
 10
44.592942999999991
 20
127.086208
 30
0.0
 40
1.0391099999999991
 50
92.129931000000013
 51
177.87003899999999
  0
ARC
  5
B1
  8
0
 62
     7
 10
44.396346999999999
 20
127.1230939999999
 30
0.0
 40
0.8417980000000001
 50
179.882036
 51
182.32137599999999
  0
LINE
  5
B2
  8
0
 62
     7
 10
44.054099999999991
 20
114.124
 30
0.0
 11
103.054
 21
114.124
 31
0.0
  0
LINE
  5
B3
  8
0
 62
     7
 10
85.227400000000003
 20
199.3359999999999
 30
0.0
 11
79.279700000000005
 21
199.3359999999999
 31
0.0
  0
LINE
  5
B4
  8
0
 62
     7
 10
77.163700000000006
 20
202.28999999999991
 30
0.0
 11
75.180700000000002
 21
203.43499999999989
 31
0.0
  0
LINE
  5
B5
  8
0
 62
     7
 10
75.180700000000002
 20
203.43499999999989
 30
0.0
 11
76.325500000000005
 21
201.452
 31
0.0
  0
LINE
  5
B6
  8
0
 62
     7
 10
76.325500000000005
 20
201.452
 30
0.0
 11
77.163700000000006
 21
202.28999999999991
 31
0.0
  0
LINE
  5
B7
  8
0
 62
     7
 10
69.945499999999996
 20
207.833
 30
0.0
 11
71.928200000000004
 21
206.6879999999999
 31
0.0
  0
LINE
  5
B8
  8
0
 62
     7
 10
71.928200000000004
 20
206.6879999999999
 30
0.0
 11
70.7834
 21
208.67099999999999
 31
0.0
  0
LINE
  5
B9
  8
0
 62
     7
 10
70.7834
 20
208.67099999999999
 30
0.0
 11
69.945499999999996
 21
207.833
 31
0.0
  0
LINE
  5
BA
  8
0
 62
     7
 10
69.176599999999993
 20
209.43899999999999
 30
0.0
 11
79.279700000000005
 21
199.3359999999999
 31
0.0
  0
LINE
  5
BB
  8
0
  6
AIGENLINE001
 62
     7
 10
59.554400000000001
 20
230.33699999999999
 30
0.0
 11
59.554400000000001
 21
224.00999999999991
 31
0.0
  0
LINE
  5
BC
  8
0
  6
AIGENLINE001
 62
     7
 10
87.554899999999989
 20
230.33699999999999
 30
0.0
 11
87.554899999999989
 21
224.00999999999991
 31
0.0
  0
ARC
  5
BD
  8
0
 62
     7
 10
73.554458999999994
 20
205.06164699999999
 30
0.0
 40
3.7498390000000001
 50
359.99737799999991
 51
89.997348000000002
  0
ARC
  5
BE
  8
0
 62
     7
 10
73.554459999999992
 20
205.06130300000001
 30
0.0
 40
3.7501829999999998
 50
89.997367999999994
 51
179.9973379999999
  0
ARC
  5
BF
  8
0
 62
     7
 10
73.554458999999994
 20
205.06164699999999
 30
0.0
 40
3.7501820000000001
 50
180.0026419999999
 51
270.00265200000001
  0
ARC
  5
C0
  8
0
 62
     7
 10
73.554458999999994
 20
205.06130399999989
 30
0.0
 40
3.7498390000000001
 50
270.00265200000001
 51
0.002622
  0
ARC
  5
C1
  8
0
 62
     7
 10
73.466487999999998
 20
204.973332
 30
0.0
 40
2.3897300000000001
 50
2.113801
 51
87.886189000000016
  0
ARC
  5
C2
  8
0
 62
     7
 10
73.643167000000005
 20
204.97293999999991
 30
0.0
 40
2.390136
 50
92.122834999999995
 51
177.87713600000001
  0
ARC
  5
C3
  8
0
 62
     7
 10
73.642949000000002
 20
205.1496139999999
 30
0.0
 40
2.389902999999999
 50
182.113541
 51
267.88219800000002
  0
ARC
  5
C4
  8
0
 62
     7
 10
73.466068000000007
 20
205.14985999999999
 30
0.0
 40
2.390158
 50
272.123493
 51
357.88080799999989
  0
LINE
  5
C5
  8
0
  6
AIGENLINE001
 62
     7
 10
67.318299999999994
 20
205.06099999999989
 30
0.0
 11
79.658699999999996
 21
205.06099999999989
 31
0.0
  0
LINE
  5
C6
  8
0
 62
     7
 10
101.7979999999999
 20
175.041
 30
0.0
 11
101.7979999999999
 21
185.8609999999999
 31
0.0
  0
LINE
  5
C7
  8
0
 62
     7
 10
45.303999999999988
 20
175.00899999999999
 30
0.0
 11
45.303999999999988
 21
185.82900000000001
 31
0.0
  0
LINE
  5
C8
  8
0
 62
     7
 10
103.55500000000001
 20
167.517
 30
0.0
 11
103.55500000000001
 21
183.929
 31
0.0
  0
LINE
  5
C9
  8
0
 62
     7
 10
43.554599999999994
 20
167.517
 30
0.0
 11
43.554599999999994
 21
183.929
 31
0.0
  0
LINE
  5
CA
  8
0
 62
     7
 10
45.76489999999999
 20
168.80199999999999
 30
0.0
 11
43.5535
 21
168.209
 31
0.0
  0
LINE
  5
CB
  8
0
 62
     7
 10
43.5535
 20
168.209
 30
0.0
 11
45.76489999999999
 21
167.6159999999999
 31
0.0
  0
LINE
  5
CC
  8
0
 62
     7
 10
45.76489999999999
 20
167.6159999999999
 30
0.0
 11
45.76489999999999
 21
168.80199999999999
 31
0.0
  0
LINE
  5
CD
  8
0
 62
     7
 10
101.34399999999989
 20
167.63099999999989
 30
0.0
 11
103.556
 21
168.22399999999999
 31
0.0
  0
LINE
  5
CE
  8
0
 62
     7
 10
103.556
 20
168.22399999999999
 30
0.0
 11
101.34399999999989
 21
168.81599999999989
 31
0.0
  0
LINE
  5
CF
  8
0
 62
     7
 10
101.34399999999989
 20
168.81599999999989
 30
0.0
 11
101.34399999999989
 21
167.63099999999989
 31
0.0
  0
LINE
  5
D0
  8
0
 62
     7
 10
43.554599999999994
 20
168.21700000000001
 30
0.0
 11
103.55500000000001
 21
168.21700000000001
 31
0.0
  0
LINE
  5
D1
  8
0
 62
     7
 10
47.51509999999999
 20
176.29400000000001
 30
0.0
 11
45.3033
 21
175.70199999999991
 31
0.0
  0
LINE
  5
D2
  8
0
 62
     7
 10
45.3033
 20
175.70199999999991
 30
0.0
 11
47.51509999999999
 21
175.10900000000001
 31
0.0
  0
LINE
  5
D3
  8
0
 62
     7
 10
47.51509999999999
 20
175.10900000000001
 30
0.0
 11
47.51509999999999
 21
176.29400000000001
 31
0.0
  0
LINE
  5
D4
  8
0
 62
     7
 10
99.594200000000015
 20
175.124
 30
0.0
 11
101.8059999999999
 21
175.71599999999989
 31
0.0
  0
LINE
  5
D5
  8
0
 62
     7
 10
101.8059999999999
 20
175.71599999999989
 30
0.0
 11
99.594200000000015
 21
176.309
 31
0.0
  0
LINE
  5
D6
  8
0
 62
     7
 10
99.594200000000015
 20
176.309
 30
0.0
 11
99.594200000000015
 21
175.124
 31
0.0
  0
LINE
  5
D7
  8
0
 62
     7
 10
45.303999999999988
 20
175.70899999999989
 30
0.0
 11
101.80500000000001
 21
175.70899999999989
 31
0.0
  0
LINE
  5
D8
  8
0
 62
     7
 10
113.6959999999999
 20
224.851
 30
0.0
 11
113.10299999999989
 21
227.06200000000001
 31
0.0
  0
LINE
  5
D9
  8
0
 62
     7
 10
113.10299999999989
 20
227.06200000000001
 30
0.0
 11
112.511
 21
224.851
 31
0.0
  0
LINE
  5
DA
  8
0
 62
     7
 10
112.511
 20
224.851
 30
0.0
 11
113.6959999999999
 21
224.851
 31
0.0
  0
LINE
  5
DB
  8
0
 62
     7
 10
112.52500000000001
 20
188.77199999999999
 30
0.0
 11
113.11799999999999
 21
186.56099999999989
 31
0.0
  0
LINE
  5
DC
  8
0
 62
     7
 10
113.11799999999999
 20
186.56099999999989
 30
0.0
 11
113.70999999999989
 21
188.77199999999999
 31
0.0
  0
LINE
  5
DD
  8
0
 62
     7
 10
113.70999999999989
 20
188.77199999999999
 30
0.0
 11
112.52500000000001
 21
188.77199999999999
 31
0.0
  0
LINE
  5
DE
  8
0
 62
     7
 10
113.1099999999999
 20
227.06100000000001
 30
0.0
 11
113.1099999999999
 21
186.56099999999989
 31
0.0
  0
LINE
  5
DF
  8
0
 62
     7
 10
120.9679999999999
 20
187.27199999999999
 30
0.0
 11
121.56
 21
185.06099999999989
 31
0.0
  0
LINE
  5
E0
  8
0
 62
     7
 10
121.56
 20
185.06099999999989
 30
0.0
 11
122.15300000000001
 21
187.27199999999999
 31
0.0
  0
LINE
  5
E1
  8
0
 62
     7
 10
122.15300000000001
 20
187.27199999999999
 30
0.0
 11
120.9679999999999
 21
187.27199999999999
 31
0.0
  0
LINE
  5
E2
  8
0
 62
     7
 10
122.13799999999991
 20
224.851
 30
0.0
 11
121.54599999999991
 21
227.06299999999999
 31
0.0
  0
LINE
  5
E3
  8
0
 62
     7
 10
121.54599999999991
 20
227.06299999999999
 30
0.0
 11
120.9529999999999
 21
224.851
 31
0.0
  0
LINE
  5
E4
  8
0
 62
     7
 10
120.9529999999999
 20
224.851
 30
0.0
 11
122.13799999999991
 21
224.851
 31
0.0
  0
LINE
  5
E5
  8
0
 62
     7
 10
121.5529999999999
 20
185.06099999999989
 30
0.0
 11
121.5529999999999
 21
227.06200000000001
 31
0.0
  0
LINE
  5
E6
  8
0
 62
     7
 10
122.2529999999999
 20
185.06099999999989
 30
0.0
 11
104.2059999999999
 21
185.06099999999989
 31
0.0
  0
LINE
  5
E7
  8
0
 62
     7
 10
113.81
 20
186.56099999999989
 30
0.0
 11
102.498
 21
186.56099999999989
 31
0.0
  0
LINE
  5
E8
  8
0
 62
     7
 10
113.81
 20
212.56099999999989
 30
0.0
 11
102.113
 21
212.56099999999989
 31
0.0
  0
LINE
  5
E9
  8
0
 62
     7
 10
122.2529999999999
 20
227.06200000000001
 30
0.0
 11
104.2059999999999
 21
227.06200000000001
 31
0.0
  0
LINE
  5
EA
  8
0
 62
     7
 10
113.7029999999999
 20
210.34999999999991
 30
0.0
 11
113.1099999999999
 21
212.56099999999989
 31
0.0
  0
LINE
  5
EB
  8
0
 62
     7
 10
113.1099999999999
 20
212.56099999999989
 30
0.0
 11
112.5179999999999
 21
210.34999999999991
 31
0.0
  0
LINE
  5
EC
  8
0
 62
     7
 10
112.5179999999999
 20
210.34999999999991
 30
0.0
 11
113.7029999999999
 21
210.34999999999991
 31
0.0
  0
LINE
  5
ED
  8
0
 62
     7
 10
112.5179999999999
 20
214.773
 30
0.0
 11
113.1099999999999
 21
212.56099999999989
 31
0.0
  0
LINE
  5
EE
  8
0
 62
     7
 10
113.1099999999999
 20
212.56099999999989
 30
0.0
 11
113.7029999999999
 21
214.773
 31
0.0
  0
LINE
  5
EF
  8
0
 62
     7
 10
113.7029999999999
 20
214.773
 30
0.0
 11
112.5179999999999
 21
214.773
 31
0.0
  0
LINE
  5
F0
  8
0
 62
     7
 10
100.581
 20
187.90899999999999
 30
0.0
 11
97.219100000000012
 21
193.12599999999989
 31
0.0
  0
LINE
  5
F1
  8
0
 62
     7
 10
46.528399999999998
 20
187.90899999999999
 30
0.0
 11
49.889400000000002
 21
193.12599999999989
 31
0.0
  0
LINE
  5
F2
  8
0
 62
     7
 10
52.054299999999991
 20
193.56099999999989
 30
0.0
 11
95.054899999999989
 21
193.56099999999989
 31
0.0
  0
LINE
  5
F3
  8
0
 62
     7
 10
50.054099999999998
 20
210.56099999999989
 30
0.0
 11
50.054099999999998
 21
195.56099999999989
 31
0.0
  0
ARC
  5
F4
  8
0
 62
     7
 10
52.054257
 20
195.56147799999991
 30
0.0
 40
2.0001489999999991
 50
180.002477
 51
270.00248699999997
  0
LINE
  5
F5
  8
0
 62
     7
 10
97.054500000000004
 20
210.56099999999989
 30
0.0
 11
97.054500000000004
 21
195.56099999999989
 31
0.0
  0
ARC
  5
F6
  8
0
 62
     7
 10
94.977633999999995
 20
195.6381419999999
 30
0.0
 40
2.0782500000000002
 50
272.131213
 51
357.88360299999999
  0
ARC
  5
F7
  8
0
 62
     7
 10
94.977920999999995
 20
210.484972
 30
0.0
 40
2.0779509999999992
 50
2.108765
 51
87.876418999999999
  0
ARC
  5
F8
  8
0
 62
     7
 10
52.054257999999997
 20
210.56134700000001
 30
0.0
 40
2.0001489999999991
 50
89.997533000000004
 51
179.99750299999991
  0
LINE
  5
F9
  8
0
 62
     7
 10
46.304400000000001
 20
186.56099999999989
 30
0.0
 11
100.80500000000001
 21
186.56099999999989
 31
0.0
  0
LINE
  5
FA
  8
0
 62
     7
 10
45.303999999999988
 20
210.56099999999989
 30
0.0
 11
45.303999999999988
 21
187.56099999999989
 31
0.0
  0
ARC
  5
FB
  8
0
 62
     7
 10
46.304184999999997
 20
187.5615719999999
 30
0.0
 40
1.0002040000000001
 50
180.01481100000001
 51
270.01482099999998
  0
LINE
  5
FC
  8
0
 62
     7
 10
101.80500000000001
 20
210.56099999999989
 30
0.0
 11
101.80500000000001
 21
187.56099999999989
 31
0.0
  0
ARC
  5
FD
  8
0
 62
     7
 10
100.766178
 20
187.5997769999999
 30
0.0
 40
1.0391269999999999
 50
272.13115699999992
 51
357.87872399999998
  0
LINE
  5
FE
  8
0
 62
     7
 10
47.304200000000002
 20
212.56099999999989
 30
0.0
 11
99.805000000000007
 21
212.56099999999989
 31
0.0
  0
ARC
  5
FF
  8
0
 62
     7
 10
99.728048999999984
 20
210.484972
 30
0.0
 40
2.0779509999999992
 50
2.108765
 51
87.876418999999999
  0
ARC
  5
100
  8
0
 62
     7
 10
47.304130000000001
 20
210.56134700000001
 30
0.0
 40
2.0001489999999991
 50
89.997533000000004
 51
179.99750299999991
  0
LINE
  5
101
  8
0
  6
AIGENLINE001
 62
     7
 10
73.554599999999994
 20
230.53200000000001
 30
0.0
 11
73.554599999999994
 21
182.16399999999999
 31
0.0
  0
LINE
  5
102
  8
0
 62
     7
 10
103.55500000000001
 20
226.56200000000001
 30
0.0
 11
103.55500000000001
 21
186.06099999999989
 31
0.0
  0
LINE
  5
103
  8
0
 62
     7
 10
44.054099999999991
 20
227.06200000000001
 30
0.0
 11
103.054
 21
227.06200000000001
 31
0.0
  0
ARC
  5
104
  8
0
 62
     7
 10
103.054568
 20
226.56150500000001
 30
0.0
 40
0.500145
 50
0.009877
 51
90.009846999999993
  0
LINE
  5
105
  8
0
 62
     7
 10
43.554599999999994
 20
226.56200000000001
 30
0.0
 11
43.554599999999994
 21
186.06099999999989
 31
0.0
  0
ARC
  5
106
  8
0
 62
     7
 10
44.073438999999993
 20
226.5427819999999
 30
0.0
 40
0.5192290000000001
 50
92.135289999999983
 51
177.92392100000001
  0
LINE
  5
107
  8
0
 62
     7
 10
44.554299999999991
 20
185.06099999999989
 30
0.0
 11
102.55500000000001
 21
185.06099999999989
 31
0.0
  0
ARC
  5
108
  8
0
 62
     7
 10
102.51629799999991
 20
186.099772
 30
0.0
 40
1.0391269999999999
 50
272.13115699999992
 51
357.87872399999998
  0
ARC
  5
109
  8
0
 62
     7
 10
44.592734999999998
 20
186.0995419999999
 30
0.0
 40
1.0388879999999989
 50
182.10907
 51
267.88108899999997
  0
TEXT
  5
10A
  8
_________2
 62
     7
 10
29.525700000000001
 20
22.2272
 30
0.0
 40
3.9357000000000002
  1
実容量：4.0L、重量20.0kg、オーバーフロー付
 41
0.5
  0
LINE
  5
10B
  8
_________2
 62
     7
 10
105.2389999999999
 20
17.428499999999989
 30
0.0
 11
105.2389999999999
 21
0.4485540000000001
 31
0.0
  0
LINE
  5
10C
  8
_________2
 62
     7
 10
81.679900000000004
 20
51.324300000000001
 30
0.0
 11
79.493700000000004
 21
51.324300000000001
 31
0.0
  0
LINE
  5
10D
  8
_________2
 62
     7
 10
82.172600000000017
 20
51.324300000000001
 30
0.0
 11
81.920400000000001
 21
51.324300000000001
 31
0.0
  0
LINE
  5
10E
  8
_________2
 62
     7
 10
82.665199999999984
 20
51.324300000000001
 30
0.0
 11
85.590100000000007
 21
51.324300000000001
 31
0.0
  0
LINE
  5
10F
  8
_________2
 62
     7
 10
82.172600000000017
 20
51.324300000000001
 30
0.0
 11
82.424800000000005
 21
51.324300000000001
 31
0.0
  0
LINE
  5
110
  8
_________2
 62
     7
 10
75.776399999999995
 20
51.324300000000001
 30
0.0
 11
73.589399999999998
 21
51.324300000000001
 31
0.0
  0
LINE
  5
111
  8
_________2
 62
     7
 10
76.2684
 20
51.324300000000001
 30
0.0
 11
76.016900000000007
 21
51.324300000000001
 31
0.0
  0
LINE
  5
112
  8
_________2
 62
     7
 10
76.2684
 20
51.817
 30
0.0
 11
76.2684
 21
54.003900000000002
 31
0.0
  0
LINE
  5
113
  8
_________2
 62
     7
 10
76.2684
 20
51.324300000000001
 30
0.0
 11
76.2684
 21
51.576900000000002
 31
0.0
  0
LINE
  5
114
  8
_________2
 62
     7
 10
76.76100000000001
 20
51.324300000000001
 30
0.0
 11
78.947999999999993
 21
51.324300000000001
 31
0.0
  0
LINE
  5
115
  8
_________2
 62
     7
 10
76.2684
 20
51.324300000000001
 30
0.0
 11
76.520499999999998
 21
51.324300000000001
 31
0.0
  0
LINE
  5
116
  8
_________2
 62
     7
 10
76.2684
 20
50.832399999999993
 30
0.0
 11
76.2684
 21
48.645699999999998
 31
0.0
  0
LINE
  5
117
  8
_________2
 62
     7
 10
76.2684
 20
51.324300000000001
 30
0.0
 11
76.2684
 21
51.072800000000001
 31
0.0
  0
LINE
  5
118
  8
_________2
 62
     7
 10
79.979399999999984
 20
50.104799999999997
 30
0.0
 11
85.157399999999996
 21
49.240000000000002
 31
0.0
  0
LINE
  5
119
  8
_________2
 62
     7
 10
79.979399999999984
 20
52.544199999999989
 30
0.0
 11
85.157399999999996
 21
53.409700000000001
 31
0.0
  0
LINE
  5
11A
  8
_________2
 62
     7
 10
85.157399999999996
 20
49.240000000000002
 30
0.0
 11
85.157399999999996
 21
53.409700000000001
 31
0.0
  0
LINE
  5
11B
  8
_________2
 62
     7
 10
79.979399999999984
 20
50.104799999999997
 30
0.0
 11
79.979399999999984
 21
52.544199999999989
 31
0.0
  0
ARC
  5
11C
  8
_________2
 62
     7
 10
76.221766000000002
 20
51.277380999999998
 30
0.0
 40
1.267714
 50
2.1220840000000001
 51
87.894083999999992
  0
ARC
  5
11D
  8
_________2
 62
     7
 10
76.315297000000001
 20
51.277734999999993
 30
0.0
 40
1.267374999999999
 50
92.122849999999985
 51
177.893304
  0
ARC
  5
11E
  8
_________2
 62
     7
 10
76.315273000000005
 20
51.371245999999992
 30
0.0
 40
1.267363
 50
182.12181499999991
 51
267.87821400000001
  0
ARC
  5
11F
  8
_________2
 62
     7
 10
76.221461000000005
 20
51.371928999999987
 30
0.0
 40
1.2680439999999991
 50
272.11916400000001
 51
357.84848499999993
  0
ARC
  5
120
  8
_________2
 62
     7
 10
76.187981999999991
 20
51.244312999999998
 30
0.0
 40
2.1668310000000002
 50
2.1161439999999989
 51
87.874379000000005
  0
ARC
  5
121
  8
_________2
 62
     7
 10
76.348411999999996
 20
51.245334999999997
 30
0.0
 40
2.1657980000000001
 50
92.118487999999999
 51
177.90988599999989
  0
ARC
  5
122
  8
_________2
 62
     7
 10
76.348354
 20
51.404327000000002
 30
0.0
 40
2.1657779999999991
 50
182.11700400000001
 51
267.88302499999992
  0
ARC
  5
123
  8
_________2
 62
     7
 10
76.188378999999983
 20
51.405009999999997
 30
0.0
 40
2.1664590000000001
 50
272.11546800000002
 51
357.86560400000002
  0
TEXT
  5
124
  8
_________2
 62
     7
 10
109.5439999999999
 20
23.199100000000001
 30
0.0
 40
3.0923400000000001
  1
図番
 41
0.5
  0
LINE
  5
125
  8
_________2
 62
     7
 10
108.4889999999999
 20
27.4283
 30
0.0
 11
188.49000000000001
 21
27.4283
 31
0.0
  0
TEXT
  5
126
  8
_________2
 62
     7
 10
109.5439999999999
 20
33.198900000000002
 30
0.0
 40
3.0923400000000001
  1
品番
 41
0.5
  0
TEXT
  5
127
  8
_________2
 62
     7
 10
109.5439999999999
 20
53.338000000000001
 30
0.0
 40
3.0923400000000001
  1
名称
 41
0.5
  0
TEXT
  5
128
  8
_________2
 62
     7
 10
96.784058333333334
 20
48.341900000000003
 30
0.0
 40
3.6545800000000002
  1
mm
 41
0.5
 72
     1
 11
98.306799999999996
 21
48.341900000000003
 31
0.0
  0
TEXT
  5
129
  8
_________2
 62
     7
 10
90.582099999999997
 20
53.338000000000001
 30
0.0
 40
3.0923400000000001
  1
単位
 41
0.5
  0
TEXT
  5
12A
  8
_________2
 62
     7
 10
90.582099999999997
 20
40.930399999999999
 30
0.0
 40
3.0923400000000001
  1
尺度
 41
0.5
  0
TEXT
  5
12B
  8
_________2
 62
     7
 10
95.030836166666674
 20
34.7378
 30
0.0
 40
3.6545800000000002
  1
1 ： 10
 41
0.5
 72
     1
 11
98.898600000000002
 21
34.7378
 31
0.0
  0
TEXT
  5
12C
  8
_________2
 62
     7
 10
140.94557499999999
 20
30.627800000000001
 30
0.0
 40
3.9357000000000002
  1
VB513362
 41
0.5
 72
     1
 11
148.489
 21
30.627800000000001
 31
0.0
  0
TEXT
  5
12D
  8
_________2
 62
     7
 10
140.94557499999999
 20
20.626999999999988
 30
0.0
 40
3.9357000000000002
  1
VB513362
 41
0.5
 72
     1
 11
148.489
 21
20.626999999999988
 31
0.0
  0
TEXT
  5
12E
  8
_________2
 62
     7
 10
114.11799999999999
 20
45.745600000000003
 30
0.0
 40
3.9357000000000002
  1
メメント 洗面器
 41
0.5
  0
TEXT
  5
12F
  8
_________2
 62
     7
 10
44.364200333333329
 20
35.122999999999998
 30
0.0
 40
3.6545800000000002
  1
早川
 41
0.5
 72
     1
 11
46.252400000000002
 21
35.122999999999998
 31
0.0
  0
TEXT
  5
130
  8
_________2
 62
     7
 10
25.72929066666666
 20
35.122999999999998
 30
0.0
 40
3.6545800000000002
  1
石原
 41
0.5
 72
     1
 11
27.6784
 21
35.122999999999998
 31
0.0
  0
TEXT
  5
131
  8
_________2
 62
     7
 10
72.724699999999999
 20
34.7378
 30
0.0
 40
3.6545800000000002
  1
13.12.10
 41
0.5
  0
TEXT
  5
132
  8
_________2
 62
     7
 10
71.531999999999996
 20
40.930399999999999
 30
0.0
 40
3.0923400000000001
  1
日付
 41
0.5
  0
TEXT
  5
133
  8
_________2
 62
     7
 10
34.578299999999992
 20
40.930399999999999
 30
0.0
 40
3.0923400000000001
  1
検図
 41
0.5
  0
TEXT
  5
134
  8
_________2
 62
     7
 10
22.96019999999999
 20
26.730999999999991
 30
0.0
 40
3.0923400000000001
  1
備考
 41
0.5
  0
TEXT
  5
135
  8
_________2
 62
     7
 10
22.96019999999999
 20
40.930399999999999
 30
0.0
 40
3.0923400000000001
  1
製図
 41
0.5
  0
TEXT
  5
136
  8
_________2
 62
     7
 10
28.727365333333339
 20
49.456400000000002
 30
0.0
 40
4.4979399999999989
  1
セラトレーディング株式会社
 41
0.5
 72
     1
 11
46.119399999999992
 21
49.456400000000002
 31
0.0
  0
LINE
  5
137
  8
_________2
 62
     7
 10
188.49000000000001
 20
17.428499999999989
 30
0.0
 11
21.988499999999991
 21
17.428499999999989
 31
0.0
  0
LINE
  5
138
  8
_________2
 62
     7
 10
21.988499999999991
 20
17.428499999999989
 30
0.0
 11
21.988499999999991
 21
280.42999999999989
 31
0.0
  0
LINE
  5
139
  8
_________2
 62
     7
 10
21.988499999999991
 20
280.42999999999989
 30
0.0
 11
188.49000000000001
 21
280.42999999999989
 31
0.0
  0
LINE
  5
13A
  8
_________2
 62
     7
 10
188.49000000000001
 20
280.42999999999989
 30
0.0
 11
188.49000000000001
 21
17.428499999999989
 31
0.0
  0
LINE
  5
13B
  8
_________2
 62
     7
 10
70.488799999999998
 20
30.928899999999999
 30
0.0
 11
70.488799999999998
 21
57.428699999999992
 31
0.0
  0
LINE
  5
13C
  8
_________2
 62
     7
 10
89.488600000000005
 20
30.928899999999999
 30
0.0
 11
89.488600000000005
 21
57.428699999999992
 31
0.0
  0
LINE
  5
13D
  8
_________2
 62
     7
 10
108.4889999999999
 20
17.428499999999989
 30
0.0
 11
108.4889999999999
 21
57.428699999999992
 31
0.0
  0
LINE
  5
13E
  8
_________2
 62
     7
 10
33.488300000000002
 20
30.928899999999999
 30
0.0
 11
33.488300000000002
 21
44.928800000000003
 31
0.0
  0
LINE
  5
13F
  8
_________2
 62
     7
 10
21.988499999999991
 20
30.928899999999999
 30
0.0
 11
108.4889999999999
 21
30.928899999999999
 31
0.0
  0
LINE
  5
140
  8
_________2
 62
     7
 10
21.988499999999991
 20
44.928800000000003
 30
0.0
 11
108.4889999999999
 21
44.928800000000003
 31
0.0
  0
LINE
  5
141
  8
_________2
 62
     7
 10
108.4889999999999
 20
37.428100000000001
 30
0.0
 11
188.49000000000001
 21
37.428100000000001
 31
0.0
  0
LINE
  5
142
  8
_________2
 62
     7
 10
21.988499999999991
 20
57.428699999999992
 30
0.0
 11
188.49000000000001
 21
57.428699999999992
 31
0.0
  0
LINE
  5
143
  8
_________2
 62
     7
 10
210.24000000000001
 20
148.93100000000001
 30
0.0
 11
188.489
 21
148.93100000000001
 31
0.0
  0
LINE
  5
144
  8
_________2
 62
     7
 10
105.2389999999999
 20
297.45099999999991
 30
0.0
 11
105.2389999999999
 21
280.42999999999989
 31
0.0
  0
LINE
  5
145
  8
_________2
 62
     7
 10
21.988499999999991
 20
148.93100000000001
 30
0.0
 11
0.238402
 21
148.93100000000001
 31
0.0
  0
ENDSEC
  0
EOF
