  0
SECTION
  2
HEADER
  9
$ACADVER
  1
AC1009
  9
$INSBASE
 10
0.0
 20
0.0
 30
0.0
  9
$EXTMIN
 10
0.238402
 20
0.4485540000000001
 30
0.0
  9
$EXTMAX
 10
210.24000000000001
 20
297.45099999999991
 30
0.0
  9
$LIMMIN
 10
0.0
 20
0.0
  9
$LIMMAX
 10
12.0
 20
9.0
  9
$ORTHOMODE
 70
     0
  9
$REGENMODE
 70
     1
  9
$FILLMODE
 70
     1
  9
$QTEXTMODE
 70
     0
  9
$MIRRTEXT
 70
     1
  9
$DRAGMODE
 70
     2
  9
$LTSCALE
 40
1.0
  9
$OSMODE
 70
    37
  9
$ATTMODE
 70
     1
  9
$TEXTSIZE
 40
0.0
  9
$TRACEWID
 40
0.05
  9
$TEXTSTYLE
  7
STANDARD
  9
$CLAYER
  8
0
  9
$CELTYPE
  6
CONTINUOUS
  9
$CECOLOR
 62
   256
  9
$DIMSCALE
 40
1.0
  9
$DIMASZ
 40
0.18
  9
$DIMEXO
 40
0.0625
  9
$DIMDLI
 40
0.38
  9
$DIMRND
 40
0.0
  9
$DIMDLE
 40
0.0
  9
$DIMEXE
 40
0.18
  9
$DIMTP
 40
0.0
  9
$DIMTM
 40
0.0
  9
$DIMTXT
 40
0.18
  9
$DIMCEN
 40
0.09
  9
$DIMTSZ
 40
0.0
  9
$DIMTOL
 70
     0
  9
$DIMLIM
 70
     0
  9
$DIMTIH
 70
     1
  9
$DIMTOH
 70
     1
  9
$DIMSE1
 70
     0
  9
$DIMSE2
 70
     0
  9
$DIMTAD
 70
     0
  9
$DIMZIN
 70
     0
  9
$DIMBLK
  1

  9
$DIMASO
 70
     1
  9
$DIMSHO
 70
     1
  9
$DIMPOST
  1

  9
$DIMAPOST
  1

  9
$DIMALT
 70
     0
  9
$DIMALTD
 70
     2
  9
$DIMALTF
 40
25.399999999999999
  9
$DIMLFAC
 40
1.0
  9
$DIMTOFL
 70
     0
  9
$DIMTVP
 40
0.0
  9
$DIMTIX
 70
     0
  9
$DIMSOXD
 70
     0
  9
$DIMSAH
 70
     0
  9
$DIMBLK1
  1

  9
$DIMBLK2
  1

  9
$DIMSTYLE
  2
STANDARD
  9
$DIMCLRD
 70
     0
  9
$DIMCLRE
 70
     0
  9
$DIMCLRT
 70
     0
  9
$DIMTFAC
 40
1.0
  9
$DIMGAP
 40
0.09
  9
$LUNITS
 70
     2
  9
$LUPREC
 70
     4
  9
$SKETCHINC
 40
0.1
  9
$FILLETRAD
 40
0.0
  9
$AUNITS
 70
     0
  9
$AUPREC
 70
     0
  9
$MENU
  1
.
  9
$ELEVATION
 40
0.0
  9
$PELEVATION
 40
0.0
  9
$THICKNESS
 40
0.0
  9
$LIMCHECK
 70
     0
  9
$BLIPMODE
 70
     0
  9
$CHAMFERA
 40
0.0
  9
$CHAMFERB
 40
0.0
  9
$SKPOLY
 70
     0
  9
$TDCREATE
 40
2444972.375
  9
$TDUPDATE
 40
2456571.2485789
  9
$TDINDWG
 40
0.0000060648
  9
$TDUSRTIMER
 40
0.0000060648
  9
$USRTIMER
 70
     1
  9
$ANGBASE
 50
0.0
  9
$ANGDIR
 70
     0
  9
$PDMODE
 70
     0
  9
$PDSIZE
 40
0.0
  9
$PLINEWID
 40
0.0
  9
$COORDS
 70
     1
  9
$SPLFRAME
 70
     0
  9
$SPLINETYPE
 70
     6
  9
$SPLINESEGS
 70
     8
  9
$ATTDIA
 70
     0
  9
$ATTREQ
 70
     1
  9
$HANDLING
 70
     1
  9
$HANDSEED
  5
1D8
  9
$SURFTAB1
 70
     6
  9
$SURFTAB2
 70
     6
  9
$SURFTYPE
 70
     6
  9
$SURFU
 70
     6
  9
$SURFV
 70
     6
  9
$UCSNAME
  2

  9
$UCSORG
 10
0.0
 20
0.0
 30
0.0
  9
$UCSXDIR
 10
1.0
 20
0.0
 30
0.0
  9
$UCSYDIR
 10
0.0
 20
1.0
 30
0.0
  9
$PUCSNAME
  2

  9
$PUCSORG
 10
0.0
 20
0.0
 30
0.0
  9
$PUCSXDIR
 10
1.0
 20
0.0
 30
0.0
  9
$PUCSYDIR
 10
0.0
 20
1.0
 30
0.0
  9
$USERI1
 70
     0
  9
$USERI2
 70
     0
  9
$USERI3
 70
     0
  9
$USERI4
 70
     0
  9
$USERI5
 70
     0
  9
$USERR1
 40
0.0
  9
$USERR2
 40
0.0
  9
$USERR3
 40
0.0
  9
$USERR4
 40
0.0
  9
$USERR5
 40
0.0
  9
$WORLDVIEW
 70
     1
  9
$SHADEDGE
 70
     3
  9
$SHADEDIF
 70
    70
  9
$TILEMODE
 70
     1
  9
$MAXACTVP
 70
    48
  9
$PLIMCHECK
 70
     0
  9
$PEXTMIN
 10
1.0000000000000000E+020
 20
1.0000000000000000E+020
 30
1.0000000000000000E+020
  9
$PEXTMAX
 10
-1.0000000000000000E+020
 20
-1.0000000000000000E+020
 30
-1.0000000000000000E+020
  9
$PLIMMIN
 10
0.0
 20
0.0
  9
$PLIMMAX
 10
12.0
 20
9.0
  9
$UNITMODE
 70
     0
  9
$VISRETAIN
 70
     1
  9
$PLINEGEN
 70
     0
  9
$PSLTSCALE
 70
     1
  0
ENDSEC
  0
SECTION
  2
TABLES
  0
TABLE
  2
VPORT
 70
     2
  0
VPORT
  2
*ACTIVE
 70
     0
 10
0.0
 20
0.0
 11
1.0
 21
1.0
 12
214.6779983880206
 22
148.72550000000001
 13
0.0
 23
0.0
 14
1.0
 24
1.0
 15
0.0
 25
0.0
 16
0.0
 26
0.0
 36
1.0
 17
0.0
 27
0.0
 37
0.0
 40
299.82743941411439
 41
2.2894736842105261
 42
50.0
 43
0.0
 44
0.0
 50
0.0
 51
0.0
 71
     0
 72
   100
 73
     1
 74
     1
 75
     0
 76
     0
 77
     0
 78
     0
  0
ENDTAB
  0
TABLE
  2
LTYPE
 70
     4
  0
LTYPE
  2
CONTINUOUS
 70
     0
  3
Solid line
 72
    65
 73
     0
 40
0.0
  0
LTYPE
  2
AIGENLINE001
 70
     0
  3
generate AI->DXF Converter
 72
    65
 73
     4
 40
5.8561449999999988
 49
3.5278
 49
-0.776115
 49
0.776115
 49
-0.776115
  0
LTYPE
  2
AIGENLINE002
 70
     0
  3
generate AI->DXF Converter
 72
    65
 73
     2
 40
1.5522299999999991
 49
0.776115
 49
-0.776115
  0
LTYPE
  2
AIGENLINE003
 70
     0
  3
generate AI->DXF Converter
 72
    65
 73
     6
 40
7.4083750000000004
 49
3.5278
 49
-0.776115
 49
0.776115
 49
-0.776115
 49
0.776115
 49
-0.776115
  0
ENDTAB
  0
TABLE
  2
LAYER
 70
     2
  0
LAYER
  2
0
 70
     0
 62
     7
  6
CONTINUOUS
  0
LAYER
  2
_________2
 70
     0
 62
     7
  6
CONTINUOUS
  0
ENDTAB
  0
TABLE
  2
STYLE
 70
     1
  0
STYLE
  2
STANDARD
 70
     0
 40
0.0
 41
0.0
 50
0.0
 71
     0
 42
0.0
  3
TXT
  4
EXTFONT.SHX
  0
ENDTAB
  0
TABLE
  2
VIEW
 70
     0
  0
ENDTAB
  0
TABLE
  2
UCS
 70
     0
  0
ENDTAB
  0
TABLE
  2
APPID
 70
     1
  0
APPID
  2
ACAD
 70
     0
  0
ENDTAB
  0
TABLE
  2
DIMSTYLE
 70
     1
  0
DIMSTYLE
  2
STANDARD
 70
     0
  3

  4

  5

  6

  7

 40
1.0
 41
0.18
 42
0.0625
 43
0.38
 44
0.18
 45
0.0
 46
0.0
 47
0.0
 48
0.0
140
0.18
141
0.09
142
0.0
143
25.399999999999999
144
1.0
145
0.0
146
1.0
147
0.09
 71
     0
 72
     0
 73
     1
 74
     1
 75
     0
 76
     0
 77
     0
 78
     0
170
     0
171
     2
172
     0
173
     0
174
     0
175
     0
176
     0
177
     0
178
     0
  0
ENDTAB
  0
ENDSEC
  0
SECTION
  2
BLOCKS
  0
BLOCK
  8
0
  2
$MODEL_SPACE
 70
     0
 10
0.0
 20
0.0
 30
0.0
  3
$MODEL_SPACE
  1

  0
ENDBLK
  5
1A
  8
0
  0
BLOCK
 67
     1
  8
0
  2
$PAPER_SPACE
 70
     0
 10
0.0
 20
0.0
 30
0.0
  3
$PAPER_SPACE
  1

  0
ENDBLK
  5
17
 67
     1
  8
0
  0
ENDSEC
  0
SECTION
  2
ENTITIES
  0
TEXT
  5
24
  8
0
 62
     7
 10
40.971699999999998
 20
246.45745400000001
 30
0.0
 40
3.0923400000000001
  1
壁
 50
90.0
 41
0.5
 72
     1
 11
40.971699999999998
 21
247.17899999999989
 31
0.0
  0
TEXT
  5
25
  8
0
 62
     7
 10
29.700199999999992
 20
60.554099999999998
 30
0.0
 40
4.2168199999999993
  1
※壁取付部には30mm以上の補強材を入れてください。
 41
0.5
  0
TEXT
  5
26
  8
0
 62
     7
 10
112.48399999999999
 20
203.88800000000001
 30
0.0
 40
3.0923400000000001
  1
※カウンターを設ける場合も
 50
90.0
 41
0.5
  0
TEXT
  5
27
  8
0
 62
     7
 10
116.34999999999989
 20
203.88800000000001
 30
0.0
 40
3.0923400000000001
  1
　壁固定が必要です。
 50
90.0
 41
0.5
  0
TEXT
  5
28
  8
0
 62
     7
 10
104.09999999999989
 20
218.72475999999989
 30
0.0
 40
3.0923400000000001
  1
カウンター切込寸法
 50
90.0
 41
0.5
 72
     1
 11
104.09999999999989
 21
226.97099999999989
 31
0.0
  0
TEXT
  5
29
  8
0
 62
     7
 10
51.124299999999991
 20
219.78699999999989
 30
0.0
 40
3.0923400000000001
  1
排水口
 41
0.5
  0
TEXT
  5
2A
  8
0
 62
     7
 10
67.23899999999999
 20
197.65199999999999
 30
0.0
 40
3.0923400000000001
  1
R10
 41
0.5
  0
TEXT
  5
2B
  8
0
 62
     7
 10
90.036600000000007
 20
225.03828749999991
 30
0.0
 40
3.0923400000000001
  1
720
 50
90.0
 41
0.5
 72
     1
 11
90.036600000000007
 21
226.97099999999989
 31
0.0
  0
TEXT
  5
2C
  8
0
 62
     7
 10
60.381687499999998
 20
254.624
 30
0.0
 40
3.0923400000000001
  1
350
 41
0.5
 72
     1
 11
62.314399999999999
 21
254.624
 31
0.0
  0
TEXT
  5
2D
  8
0
 62
     7
 10
54.881887499999991
 20
242.654
 30
0.0
 40
3.0923400000000001
  1
240
 41
0.5
 72
     1
 11
56.814599999999999
 21
242.654
 31
0.0
  0
TEXT
  5
2E
  8
0
 62
     7
 10
76.107079999999996
 20
132.149
 30
0.0
 40
3.0923400000000001
  1
%%c46
 41
0.5
 72
     2
 11
80.230199999999996
 21
132.149
 31
0.0
  0
TEXT
  5
2F
  8
0
 62
     7
 10
29.800599999999989
 20
110.9829999999999
 30
0.0
 40
3.0923400000000001
  1
%%c35
 41
0.5
  0
TEXT
  5
30
  8
0
 62
     7
 10
32.992699999999992
 20
118.75483
 30
0.0
 40
3.0923400000000001
  1
100
 50
90.0
 41
0.5
 72
     1
 11
32.992699999999992
 21
120.301
 31
0.0
  0
TEXT
  5
31
  8
0
 62
     7
 10
143.26900000000001
 20
123.3672875
 30
0.0
 40
3.0923400000000001
  1
280
 50
90.0
 41
0.5
 72
     1
 11
143.26900000000001
 21
125.2999999999999
 31
0.0
  0
TEXT
  5
32
  8
0
 62
     7
 10
112.441
 20
123.496135
 30
0.0
 40
3.0923400000000001
  1
800
 50
90.0
 41
0.5
 72
     1
 11
112.441
 21
125.2999999999999
 31
0.0
  0
TEXT
  5
33
  8
0
 62
     7
 10
102.441
 20
123.2384399999999
 30
0.0
 40
3.0923400000000001
  1
765
 50
90.0
 41
0.5
 72
     1
 11
102.441
 21
125.2999999999999
 31
0.0
  0
TEXT
  5
34
  8
0
 62
     7
 10
32.992699999999992
 20
128.75483
 30
0.0
 40
3.0923400000000001
  1
100
 50
90.0
 41
0.5
 72
     1
 11
32.992699999999992
 21
130.30099999999999
 31
0.0
  0
TEXT
  5
35
  8
0
 62
     7
 10
160.52952499999989
 20
225.83699999999999
 30
0.0
 40
3.0923400000000001
  1
95
 41
0.5
 72
     1
 11
161.8179999999999
 21
225.83699999999999
 31
0.0
  0
TEXT
  5
36
  8
0
 62
     7
 10
162.39198250000001
 20
188.13800000000001
 30
0.0
 40
3.0923400000000001
  1
140
 41
0.5
 72
     1
 11
164.06700000000001
 21
188.13800000000001
 31
0.0
  0
TEXT
  5
37
  8
0
 62
     7
 10
161.89198250000001
 20
180.37599999999989
 30
0.0
 40
3.0923400000000001
  1
130
 41
0.5
 72
     1
 11
163.56700000000001
 21
180.37599999999989
 31
0.0
  0
TEXT
  5
38
  8
0
 62
     7
 10
54.882287499999997
 20
78.539000000000001
 30
0.0
 40
3.0923400000000001
  1
240
 41
0.5
 72
     1
 11
56.814999999999991
 21
78.539000000000001
 31
0.0
  0
TEXT
  5
39
  8
0
 62
     7
 10
66.382087500000011
 20
179.685
 30
0.0
 40
3.0923400000000001
  1
470
 41
0.5
 72
     1
 11
68.314800000000005
 21
179.685
 31
0.0
  0
TEXT
  5
3A
  8
0
 62
     7
 10
54.776024999999997
 20
146.9489999999999
 30
0.0
 40
3.0923400000000001
  1
68
 41
0.5
 72
     1
 11
56.064500000000002
 21
146.9489999999999
 31
0.0
  0
TEXT
  5
3B
  8
0
 62
     7
 10
47.526125
 20
146.9489999999999
 30
0.0
 40
3.0923400000000001
  1
77
 41
0.5
 72
     1
 11
48.814599999999999
 21
146.9489999999999
 31
0.0
  0
TEXT
  5
3C
  8
0
 62
     7
 10
50.261035
 20
172.893
 30
0.0
 40
3.0923400000000001
  1
145
 41
0.5
 72
     1
 11
52.064900000000002
 21
172.893
 31
0.0
  0
TEXT
  5
3D
  8
0
 62
     7
 10
72.757087500000011
 20
172.893
 30
0.0
 40
3.0923400000000001
  1
305
 41
0.5
 72
     1
 11
74.689800000000005
 21
172.893
 31
0.0
  0
TEXT
  5
3E
  8
0
 62
     7
 10
158.42852500000001
 20
173.1329999999999
 30
0.0
 40
3.0923400000000001
  1
53
 41
0.5
 72
     1
 11
159.71700000000001
 21
173.1329999999999
 31
0.0
  0
TEXT
  5
3F
  8
0
 62
     7
 10
179.75
 20
237.03728749999999
 30
0.0
 40
3.0923400000000001
  1
240
 50
90.0
 41
0.5
 72
     1
 11
179.75
 21
238.96999999999991
 31
0.0
  0
LINE
  5
40
  8
0
 62
     7
 10
41.811799999999998
 20
248.91200000000001
 30
0.0
 11
44.814599999999999
 21
247.17899999999989
 31
0.0
  0
LINE
  5
41
  8
0
 62
     7
 10
44.814599999999999
 20
247.17899999999989
 30
0.0
 11
41.811799999999998
 21
245.44499999999999
 31
0.0
  0
LINE
  5
42
  8
0
 62
     7
 10
41.811799999999998
 20
245.44499999999999
 30
0.0
 11
41.811799999999998
 21
248.91200000000001
 31
0.0
  0
LINE
  5
43
  8
0
 62
     7
 10
68.814700000000002
 20
242.7939999999999
 30
0.0
 11
68.814700000000002
 21
235.19900000000001
 31
0.0
  0
LINE
  5
44
  8
0
 62
     7
 10
47.037199999999991
 20
242.53700000000001
 30
0.0
 11
44.813600000000001
 21
241.94499999999991
 31
0.0
  0
LINE
  5
45
  8
0
 62
     7
 10
44.813600000000001
 20
241.94499999999991
 30
0.0
 11
47.037199999999991
 21
241.35299999999989
 31
0.0
  0
LINE
  5
46
  8
0
 62
     7
 10
47.037199999999991
 20
241.35299999999989
 30
0.0
 11
47.037199999999991
 21
242.53700000000001
 31
0.0
  0
LINE
  5
47
  8
0
 62
     7
 10
66.591499999999996
 20
241.36999999999989
 30
0.0
 11
68.815700000000007
 21
241.96199999999999
 31
0.0
  0
LINE
  5
48
  8
0
 62
     7
 10
68.815700000000007
 20
241.96199999999999
 30
0.0
 11
66.591499999999996
 21
242.55500000000001
 31
0.0
  0
LINE
  5
49
  8
0
 62
     7
 10
66.591499999999996
 20
242.55500000000001
 30
0.0
 11
66.591499999999996
 21
241.36999999999989
 31
0.0
  0
LINE
  5
4A
  8
0
 62
     7
 10
44.814599999999999
 20
241.95400000000001
 30
0.0
 11
68.814700000000002
 21
241.95400000000001
 31
0.0
  0
LINE
  5
4B
  8
0
 62
     7
 10
91.463899999999995
 20
260.76099999999991
 30
0.0
 11
90.868099999999984
 21
262.97199999999992
 31
0.0
  0
LINE
  5
4C
  8
0
 62
     7
 10
90.868099999999984
 20
262.97199999999992
 30
0.0
 11
90.272199999999984
 21
260.76099999999991
 31
0.0
  0
LINE
  5
4D
  8
0
 62
     7
 10
90.272199999999984
 20
260.76099999999991
 30
0.0
 11
91.463899999999995
 21
260.76099999999991
 31
0.0
  0
LINE
  5
4E
  8
0
 62
     7
 10
90.289599999999993
 20
193.18000000000001
 30
0.0
 11
90.885499999999993
 21
190.96899999999999
 31
0.0
  0
LINE
  5
4F
  8
0
 62
     7
 10
90.885499999999993
 20
190.96899999999999
 30
0.0
 11
91.481300000000005
 21
193.18000000000001
 31
0.0
  0
LINE
  5
50
  8
0
 62
     7
 10
91.481300000000005
 20
193.18000000000001
 30
0.0
 11
90.289599999999993
 21
193.18000000000001
 31
0.0
  0
LINE
  5
51
  8
0
 62
     7
 10
90.876700000000014
 20
262.971
 30
0.0
 11
90.876700000000014
 21
190.97099999999989
 31
0.0
  0
LINE
  5
52
  8
0
 62
     7
 10
80.758499999999998
 20
262.971
 30
0.0
 11
91.716800000000006
 21
262.971
 31
0.0
  0
LINE
  5
53
  8
0
 62
     7
 10
80.758499999999998
 20
190.97099999999989
 30
0.0
 11
91.716800000000006
 21
190.97099999999989
 31
0.0
  0
LINE
  5
54
  8
0
 62
     7
 10
60.792200000000001
 20
218.947
 30
0.0
 11
51.124299999999991
 21
218.947
 31
0.0
  0
LINE
  5
55
  8
0
 62
     7
 10
73.973600000000005
 20
196.81099999999989
 30
0.0
 11
67.23899999999999
 21
196.81099999999989
 31
0.0
  0
LINE
  5
56
  8
0
 62
     7
 10
65.1892
 20
222.51400000000001
 30
0.0
 11
66.340199999999996
 21
224.4959999999999
 31
0.0
  0
LINE
  5
57
  8
0
 62
     7
 10
66.340199999999996
 20
224.4959999999999
 30
0.0
 11
64.346199999999996
 21
223.35099999999991
 31
0.0
  0
LINE
  5
58
  8
0
 62
     7
 10
64.346199999999996
 20
223.35099999999991
 30
0.0
 11
65.1892
 21
222.51400000000001
 31
0.0
  0
LINE
  5
59
  8
0
 62
     7
 10
66.340199999999996
 20
224.4959999999999
 30
0.0
 11
60.792200000000001
 21
218.947
 31
0.0
  0
LINE
  5
5A
  8
0
 62
     7
 10
77.528099999999995
 20
192.40799999999999
 30
0.0
 11
79.522099999999995
 21
191.26300000000001
 31
0.0
  0
LINE
  5
5B
  8
0
 62
     7
 10
79.522099999999995
 20
191.26300000000001
 30
0.0
 11
78.370400000000004
 21
193.2459999999999
 31
0.0
  0
LINE
  5
5C
  8
0
 62
     7
 10
78.370400000000004
 20
193.2459999999999
 30
0.0
 11
77.528099999999995
 21
192.40799999999999
 31
0.0
  0
LINE
  5
5D
  8
0
 62
     7
 10
79.522099999999995
 20
191.26300000000001
 30
0.0
 11
73.973600000000005
 21
196.81099999999989
 31
0.0
  0
LINE
  5
5E
  8
0
 62
     7
 10
47.037199999999991
 20
254.50800000000001
 30
0.0
 11
44.813600000000001
 21
253.91499999999991
 31
0.0
  0
LINE
  5
5F
  8
0
 62
     7
 10
44.813600000000001
 20
253.91499999999991
 30
0.0
 11
47.037199999999991
 21
253.32299999999989
 31
0.0
  0
LINE
  5
60
  8
0
 62
     7
 10
47.037199999999991
 20
253.32299999999989
 30
0.0
 11
47.037199999999991
 21
254.50800000000001
 31
0.0
  0
LINE
  5
61
  8
0
 62
     7
 10
77.591999999999985
 20
253.33999999999989
 30
0.0
 11
79.816000000000003
 21
253.93299999999999
 31
0.0
  0
LINE
  5
62
  8
0
 62
     7
 10
79.816000000000003
 20
253.93299999999999
 30
0.0
 11
77.591999999999985
 21
254.52500000000001
 31
0.0
  0
LINE
  5
63
  8
0
 62
     7
 10
77.591999999999985
 20
254.52500000000001
 30
0.0
 11
77.591999999999985
 21
253.33999999999989
 31
0.0
  0
LINE
  5
64
  8
0
 62
     7
 10
44.814599999999999
 20
253.92399999999989
 30
0.0
 11
79.814800000000005
 21
253.92399999999989
 31
0.0
  0
LINE
  5
65
  8
0
 62
     7
 10
44.814599999999999
 20
185.72999999999999
 30
0.0
 11
44.814599999999999
 21
190.97099999999989
 31
0.0
  0
LINE
  5
66
  8
0
 62
     7
 10
44.814599999999999
 20
262.971
 30
0.0
 11
44.814599999999999
 21
268.21100000000001
 31
0.0
  0
LINE
  5
67
  8
0
 62
     7
 10
44.814599999999999
 20
262.971
 30
0.0
 11
78.815200000000004
 21
262.971
 31
0.0
  0
ARC
  5
68
  8
0
 62
     7
 10
78.814894999999993
 20
261.97093699999988
 30
0.0
 40
0.9998590000000001
 50
359.98520400000001
 51
89.985174000000001
  0
LINE
  5
69
  8
0
 62
     7
 10
79.814800000000005
 20
191.96999999999991
 30
0.0
 11
79.814800000000005
 21
261.97099999999989
 31
0.0
  0
LINE
  5
6A
  8
0
 62
     7
 10
44.814599999999999
 20
190.97099999999989
 30
0.0
 11
78.815200000000004
 21
190.97099999999989
 31
0.0
  0
ARC
  5
6B
  8
0
 62
     7
 10
78.776518999999993
 20
192.00882999999999
 30
0.0
 40
1.038946999999999
 50
272.13110099999989
 51
357.878782
  0
LINE
  5
6C
  8
0
  6
AIGENLINE001
 62
     7
 10
68.814700000000002
 20
219.48699999999991
 30
0.0
 11
68.814700000000002
 21
234.35900000000001
 31
0.0
  0
ARC
  5
6D
  8
0
  6
AIGENLINE002
 62
     7
 10
68.814494999999994
 20
226.97052599999989
 30
0.0
 40
3.4997229999999999
 50
89.997179999999986
 51
179.99715
  0
ARC
  5
6E
  8
0
  6
AIGENLINE002
 62
     7
 10
68.814666000000003
 20
226.970698
 30
0.0
 40
3.4998939999999998
 50
179.99996999999991
 51
270.00002000000001
  0
ARC
  5
6F
  8
0
  6
AIGENLINE002
 62
     7
 10
68.814839000000006
 20
226.97087200000001
 30
0.0
 40
3.500067
 50
269.99720000000002
 51
359.99716999999998
  0
ARC
  5
70
  8
0
  6
AIGENLINE002
 62
     7
 10
68.815010999999998
 20
226.97035399999999
 30
0.0
 40
3.4998949999999991
 50
0.00565
 51
90.005619999999993
  0
LINE
  5
71
  8
0
  6
AIGENLINE001
 62
     7
 10
41.936199999999999
 20
226.97099999999989
 30
0.0
 11
82.657700000000006
 21
226.97099999999989
 31
0.0
  0
LINE
  5
72
  8
0
  6
AIGENLINE003
 62
     7
 10
44.814599999999999
 20
190.97099999999989
 30
0.0
 11
44.814599999999999
 21
262.971
 31
0.0
  0
LINE
  5
73
  8
0
  6
AIGENLINE001
 62
     7
 10
154.26400000000001
 20
243.27000000000001
 30
0.0
 11
159.30199999999999
 21
243.27000000000001
 31
0.0
  0
LINE
  5
74
  8
0
 62
     7
 10
159.28999999999999
 20
225.72099999999989
 30
0.0
 11
157.066
 21
225.12899999999999
 31
0.0
  0
LINE
  5
75
  8
0
 62
     7
 10
157.066
 20
225.12899999999999
 30
0.0
 11
159.28999999999999
 21
224.53599999999989
 31
0.0
  0
LINE
  5
76
  8
0
 62
     7
 10
159.28999999999999
 20
224.53599999999989
 30
0.0
 11
159.28999999999999
 21
225.72099999999989
 31
0.0
  0
LINE
  5
77
  8
0
 62
     7
 10
164.34399999999999
 20
224.553
 30
0.0
 11
166.56899999999999
 21
225.14500000000001
 31
0.0
  0
LINE
  5
78
  8
0
 62
     7
 10
166.56899999999999
 20
225.14500000000001
 30
0.0
 11
164.34399999999999
 21
225.73799999999989
 31
0.0
  0
LINE
  5
79
  8
0
 62
     7
 10
164.34399999999999
 20
225.73799999999989
 30
0.0
 11
164.34399999999999
 21
224.553
 31
0.0
  0
LINE
  5
7A
  8
0
 62
     7
 10
157.06699999999989
 20
225.137
 30
0.0
 11
166.56700000000001
 21
225.137
 31
0.0
  0
LINE
  5
7B
  8
0
  6
AIGENLINE001
 62
     7
 10
160.56700000000001
 20
238.40700000000001
 30
0.0
 11
160.56700000000001
 21
234.40700000000001
 31
0.0
  0
LINE
  5
7C
  8
0
 62
     7
 10
157.06699999999989
 20
204.47
 30
0.0
 11
157.06699999999989
 21
250.97
 31
0.0
  0
LINE
  5
7D
  8
0
  6
AIGENLINE002
 62
     7
 10
157.56800000000001
 20
236.47
 30
0.0
 11
165.69900000000001
 21
236.47
 31
0.0
  0
ARC
  5
7E
  8
0
  6
AIGENLINE002
 62
     7
 10
157.586603
 20
236.98985099999999
 30
0.0
 40
0.519933
 50
182.133365
 51
267.90611200000001
  0
LINE
  5
7F
  8
0
  6
AIGENLINE002
 62
     7
 10
166.56700000000001
 20
230.46999999999991
 30
0.0
 11
166.19799999999989
 21
236.00299999999999
 31
0.0
  0
ARC
  5
80
  8
0
  6
AIGENLINE002
 62
     7
 10
165.68177800000001
 20
235.95178399999989
 30
0.0
 40
0.518771
 50
5.7159159999999991
 51
88.084682999999984
  0
LINE
  5
81
  8
0
  6
AIGENLINE002
 62
     7
 10
166.21799999999999
 20
215.64399999999989
 30
0.0
 11
166.56700000000001
 21
223.47
 31
0.0
  0
LINE
  5
82
  8
0
  6
AIGENLINE002
 62
     7
 10
165.33199999999991
 20
213.64399999999989
 30
0.0
 11
157.363
 21
205.76400000000001
 31
0.0
  0
ARC
  5
83
  8
0
  6
AIGENLINE002
 62
     7
 10
163.19159999999991
 20
215.78933900000001
 30
0.0
 40
3.030173
 50
314.92692999999991
 51
357.25435299999992
  0
ARC
  5
84
  8
0
  6
AIGENLINE002
 62
     7
 10
158.084982
 20
205.0459819999999
 30
0.0
 40
1.017973
 50
135.17543599999999
 51
179.632114
  0
LINE
  5
85
  8
0
 62
     7
 10
180.00399999999999
 20
229.18000000000001
 30
0.0
 11
180.59999999999999
 21
226.96899999999999
 31
0.0
  0
LINE
  5
86
  8
0
 62
     7
 10
180.59999999999999
 20
226.96899999999999
 30
0.0
 11
181.196
 21
229.18000000000001
 31
0.0
  0
LINE
  5
87
  8
0
 62
     7
 10
181.196
 20
229.18000000000001
 30
0.0
 11
180.00399999999999
 21
229.18000000000001
 31
0.0
  0
LINE
  5
88
  8
0
 62
     7
 10
181.17799999999991
 20
248.761
 30
0.0
 11
180.58199999999991
 21
250.97099999999989
 31
0.0
  0
LINE
  5
89
  8
0
 62
     7
 10
180.58199999999991
 20
250.97099999999989
 30
0.0
 11
179.9859999999999
 21
248.761
 31
0.0
  0
LINE
  5
8A
  8
0
 62
     7
 10
179.9859999999999
 20
248.761
 30
0.0
 11
181.17799999999991
 21
248.761
 31
0.0
  0
LINE
  5
8B
  8
0
 62
     7
 10
180.59
 20
226.97099999999989
 30
0.0
 11
180.59
 21
250.97
 31
0.0
  0
LINE
  5
8C
  8
0
 62
     7
 10
181.43199999999999
 20
226.97099999999989
 30
0.0
 11
174.13399999999999
 21
226.97099999999989
 31
0.0
  0
LINE
  5
8D
  8
0
 62
     7
 10
181.43199999999999
 20
250.97
 30
0.0
 11
170.90599999999989
 21
250.97
 31
0.0
  0
LINE
  5
8E
  8
0
 62
     7
 10
170.06800000000001
 20
204.93000000000001
 30
0.0
 11
157.6039999999999
 21
203.97199999999989
 31
0.0
  0
ARC
  5
8F
  8
0
 62
     7
 10
157.586603
 20
204.4896479999999
 30
0.0
 40
0.519933
 50
182.133365
 51
267.90611200000001
  0
LINE
  5
90
  8
0
 62
     7
 10
157.56800000000001
 20
203.96999999999991
 30
0.0
 11
157.6039999999999
 21
203.97199999999989
 31
0.0
  0
LINE
  5
91
  8
0
 62
     7
 10
157.06699999999989
 20
250.97
 30
0.0
 11
170.06800000000001
 21
250.97
 31
0.0
  0
LINE
  5
92
  8
0
  6
AIGENLINE001
 62
     7
 10
164.34399999999999
 20
226.97099999999989
 30
0.0
 11
173.29400000000001
 21
226.97099999999989
 31
0.0
  0
LINE
  5
93
  8
0
  6
AIGENLINE002
 62
     7
 10
171.06700000000001
 20
229.2699999999999
 30
0.0
 11
168.06700000000001
 21
229.2699999999999
 31
0.0
  0
LINE
  5
94
  8
0
  6
AIGENLINE002
 62
     7
 10
171.06700000000001
 20
224.66999999999999
 30
0.0
 11
168.06700000000001
 21
224.66999999999999
 31
0.0
  0
LINE
  5
95
  8
0
  6
AIGENLINE001
 62
     7
 10
162.36699999999999
 20
248.10799999999989
 30
0.0
 11
162.36699999999999
 21
253.47200000000001
 31
0.0
  0
LINE
  5
96
  8
0
 62
     7
 10
170.06800000000001
 20
204.93000000000001
 30
0.0
 11
170.06800000000001
 21
250.97
 31
0.0
  0
LINE
  5
97
  8
0
  6
AIGENLINE002
 62
     7
 10
166.56700000000001
 20
230.46999999999991
 30
0.0
 11
168.06700000000001
 21
229.2699999999999
 31
0.0
  0
LINE
  5
98
  8
0
  6
AIGENLINE002
 62
     7
 10
168.06700000000001
 20
224.66999999999999
 30
0.0
 11
166.56700000000001
 21
223.47
 31
0.0
  0
LINE
  5
99
  8
0
  6
AIGENLINE002
 62
     7
 10
168.06700000000001
 20
224.66999999999999
 30
0.0
 11
168.06700000000001
 21
229.2699999999999
 31
0.0
  0
LINE
  5
9A
  8
0
  6
AIGENLINE002
 62
     7
 10
166.56700000000001
 20
223.47
 30
0.0
 11
166.56700000000001
 21
230.46999999999991
 31
0.0
  0
LINE
  5
9B
  8
0
 62
     7
 10
170.06800000000001
 20
230.49799999999999
 30
0.0
 11
171.06700000000001
 21
230.49799999999999
 31
0.0
  0
LINE
  5
9C
  8
0
 62
     7
 10
171.06700000000001
 20
223.49799999999991
 30
0.0
 11
170.06800000000001
 21
223.49799999999991
 31
0.0
  0
LINE
  5
9D
  8
0
 62
     7
 10
171.06700000000001
 20
223.49799999999991
 30
0.0
 11
171.06700000000001
 21
230.49799999999999
 31
0.0
  0
LINE
  5
9E
  8
0
  6
AIGENLINE002
 62
     7
 10
171.06700000000001
 20
127.59999999999999
 30
0.0
 11
168.06700000000001
 21
127.59999999999999
 31
0.0
  0
LINE
  5
9F
  8
0
  6
AIGENLINE002
 62
     7
 10
171.06700000000001
 20
123.0
 30
0.0
 11
168.06700000000001
 21
123.0
 31
0.0
  0
LINE
  5
A0
  8
0
 62
     7
 10
154.8429999999999
 20
171.84099999999989
 30
0.0
 11
157.06699999999989
 21
172.43299999999991
 31
0.0
  0
LINE
  5
A1
  8
0
 62
     7
 10
157.06699999999989
 20
172.43299999999991
 30
0.0
 11
154.8429999999999
 21
173.0259999999999
 31
0.0
  0
LINE
  5
A2
  8
0
 62
     7
 10
154.8429999999999
 20
173.0259999999999
 30
0.0
 11
154.8429999999999
 21
171.84099999999989
 31
0.0
  0
LINE
  5
A3
  8
0
 62
     7
 10
164.59099999999989
 20
173.0259999999999
 30
0.0
 11
162.36699999999999
 21
172.43299999999991
 31
0.0
  0
LINE
  5
A4
  8
0
 62
     7
 10
162.36699999999999
 20
172.43299999999991
 30
0.0
 11
164.59099999999989
 21
171.84099999999989
 31
0.0
  0
LINE
  5
A5
  8
0
 62
     7
 10
164.59099999999989
 20
171.84099999999989
 30
0.0
 11
164.59099999999989
 21
173.0259999999999
 31
0.0
  0
LINE
  5
A6
  8
0
 62
     7
 10
166.64799999999991
 20
172.43299999999991
 30
0.0
 11
152.37200000000001
 21
172.43299999999991
 31
0.0
  0
LINE
  5
A7
  8
0
 62
     7
 10
157.06699999999989
 20
166.2409999999999
 30
0.0
 11
157.06699999999989
 21
188.2699999999999
 31
0.0
  0
LINE
  5
A8
  8
0
 62
     7
 10
171.06700000000001
 20
129.6689999999999
 30
0.0
 11
171.06700000000001
 21
188.28700000000001
 31
0.0
  0
LINE
  5
A9
  8
0
 62
     7
 10
162.36699999999999
 20
142.4199999999999
 30
0.0
 11
162.36699999999999
 21
173.273
 31
0.0
  0
LINE
  5
AA
  8
0
 62
     7
 10
170.06800000000001
 20
85.744799999999984
 30
0.0
 11
170.06800000000001
 21
164.85599999999991
 31
0.0
  0
LINE
  5
AB
  8
0
  6
AIGENLINE002
 62
     7
 10
165.16799999999989
 20
156.679
 30
0.0
 11
157.40600000000001
 21
163.50200000000001
 31
0.0
  0
ARC
  5
AC
  8
0
  6
AIGENLINE002
 62
     7
 10
158.08201099999999
 20
164.2320959999999
 30
0.0
 40
1.0149989999999991
 50
180.3450489999999
 51
228.24154799999999
  0
LINE
  5
AD
  8
0
  6
AIGENLINE002
 62
     7
 10
166.56700000000001
 20
128.80099999999999
 30
0.0
 11
166.18700000000001
 21
154.471
 31
0.0
  0
ARC
  5
AE
  8
0
  6
AIGENLINE002
 62
     7
 10
163.15257199999991
 20
154.410135
 30
0.0
 40
3.034978999999999
 50
1.14514
 51
48.383594000000009
  0
LINE
  5
AF
  8
0
 62
     7
 10
170.06800000000001
 20
164.85599999999991
 30
0.0
 11
157.584
 21
165.3009999999999
 31
0.0
  0
ARC
  5
B0
  8
0
 62
     7
 10
157.586896
 20
164.78115299999999
 30
0.0
 40
0.520237
 50
92.125019999999978
 51
177.83550399999999
  0
LINE
  5
B1
  8
0
  6
AIGENLINE001
 62
     7
 10
162.36699999999999
 20
141.57900000000001
 30
0.0
 11
162.36699999999999
 21
137.04099999999991
 31
0.0
  0
LINE
  5
B2
  8
0
  6
AIGENLINE001
 62
     7
 10
42.488100000000003
 20
139.30099999999999
 30
0.0
 11
47.983099999999993
 21
139.30099999999999
 31
0.0
  0
LINE
  5
B3
  8
0
  6
AIGENLINE001
 62
     7
 10
42.488100000000003
 20
111.301
 30
0.0
 11
47.983099999999993
 21
111.301
 31
0.0
  0
LINE
  5
B4
  8
0
  6
AIGENLINE001
 62
     7
 10
160.607
 20
139.30099999999999
 30
0.0
 11
164.03399999999999
 21
139.30099999999999
 31
0.0
  0
LINE
  5
B5
  8
0
  6
AIGENLINE002
 62
     7
 10
163.36699999999999
 20
138.80099999999999
 30
0.0
 11
163.36699999999999
 21
139.80099999999999
 31
0.0
  0
LINE
  5
B6
  8
0
  6
AIGENLINE002
 62
     7
 10
161.36699999999999
 20
138.80099999999999
 30
0.0
 11
161.36699999999999
 21
139.80099999999999
 31
0.0
  0
ARC
  5
B7
  8
0
  6
AIGENLINE002
 62
     7
 10
162.329036
 20
139.762113
 30
0.0
 40
1.0391449999999991
 50
2.133124
 51
87.906339000000017
  0
ARC
  5
B8
  8
0
  6
AIGENLINE002
 62
     7
 10
162.40561099999999
 20
139.76146399999999
 30
0.0
 40
1.0398179999999999
 50
92.128064999999992
 51
177.83243200000001
  0
ARC
  5
B9
  8
0
  6
AIGENLINE002
 62
     7
 10
162.40564900000001
 20
138.8396689999999
 30
0.0
 40
1.0398309999999991
 50
182.13018299999999
 51
267.869846
  0
ARC
  5
BA
  8
0
  6
AIGENLINE002
 62
     7
 10
162.328338
 20
138.8396789999999
 30
0.0
 40
1.039841999999999
 50
272.13072
 51
357.86928999999998
  0
LINE
  5
BB
  8
0
 62
     7
 10
143.52199999999999
 20
113.50999999999991
 30
0.0
 11
144.11799999999991
 21
111.29899999999989
 31
0.0
  0
LINE
  5
BC
  8
0
 62
     7
 10
144.11799999999991
 20
111.29899999999989
 30
0.0
 11
144.714
 21
113.50999999999991
 31
0.0
  0
LINE
  5
BD
  8
0
 62
     7
 10
144.714
 20
113.50999999999991
 30
0.0
 11
143.52199999999999
 21
113.50999999999991
 31
0.0
  0
LINE
  5
BE
  8
0
 62
     7
 10
144.697
 20
137.09100000000001
 30
0.0
 11
144.101
 21
139.30199999999999
 31
0.0
  0
LINE
  5
BF
  8
0
 62
     7
 10
144.101
 20
139.30199999999999
 30
0.0
 11
143.50499999999991
 21
137.09100000000001
 31
0.0
  0
LINE
  5
C0
  8
0
 62
     7
 10
143.50499999999991
 20
137.09100000000001
 30
0.0
 11
144.697
 21
137.09100000000001
 31
0.0
  0
LINE
  5
C1
  8
0
 62
     7
 10
144.10900000000001
 20
111.301
 30
0.0
 11
144.10900000000001
 21
139.30099999999999
 31
0.0
  0
LINE
  5
C2
  8
0
 62
     7
 10
159.76699999999991
 20
139.30099999999999
 30
0.0
 11
143.27000000000001
 21
139.30099999999999
 31
0.0
  0
LINE
  5
C3
  8
0
 62
     7
 10
159.76699999999991
 20
111.301
 30
0.0
 11
143.27000000000001
 21
111.301
 31
0.0
  0
LINE
  5
C4
  8
0
 62
     7
 10
168.8429999999999
 20
186.85400000000001
 30
0.0
 11
171.06700000000001
 21
187.447
 31
0.0
  0
LINE
  5
C5
  8
0
 62
     7
 10
171.06700000000001
 20
187.447
 30
0.0
 11
168.8429999999999
 21
188.03899999999999
 31
0.0
  0
LINE
  5
C6
  8
0
 62
     7
 10
168.8429999999999
 20
188.03899999999999
 30
0.0
 11
168.8429999999999
 21
186.85400000000001
 31
0.0
  0
LINE
  5
C7
  8
0
 62
     7
 10
159.2889999999999
 20
188.02199999999999
 30
0.0
 11
157.065
 21
187.429
 31
0.0
  0
LINE
  5
C8
  8
0
 62
     7
 10
157.065
 20
187.429
 30
0.0
 11
159.2889999999999
 21
186.83699999999999
 31
0.0
  0
LINE
  5
C9
  8
0
 62
     7
 10
159.2889999999999
 20
186.83699999999999
 30
0.0
 11
159.2889999999999
 21
188.02199999999999
 31
0.0
  0
LINE
  5
CA
  8
0
 62
     7
 10
171.06599999999989
 20
187.43799999999999
 30
0.0
 11
157.06699999999989
 21
187.43799999999999
 31
0.0
  0
LINE
  5
CB
  8
0
 62
     7
 10
167.84399999999999
 20
179.09200000000001
 30
0.0
 11
170.06800000000001
 21
179.685
 31
0.0
  0
LINE
  5
CC
  8
0
 62
     7
 10
170.06800000000001
 20
179.685
 30
0.0
 11
167.84399999999999
 21
180.27699999999999
 31
0.0
  0
LINE
  5
CD
  8
0
 62
     7
 10
167.84399999999999
 20
180.27699999999999
 30
0.0
 11
167.84399999999999
 21
179.09200000000001
 31
0.0
  0
LINE
  5
CE
  8
0
 62
     7
 10
159.2889999999999
 20
180.25999999999991
 30
0.0
 11
157.065
 21
179.66800000000001
 31
0.0
  0
LINE
  5
CF
  8
0
 62
     7
 10
157.065
 20
179.66800000000001
 30
0.0
 11
159.2889999999999
 21
179.0749999999999
 31
0.0
  0
LINE
  5
D0
  8
0
 62
     7
 10
159.2889999999999
 20
179.0749999999999
 30
0.0
 11
159.2889999999999
 21
180.25999999999991
 31
0.0
  0
LINE
  5
D1
  8
0
 62
     7
 10
170.06800000000001
 20
179.6759999999999
 30
0.0
 11
157.06699999999989
 21
179.6759999999999
 31
0.0
  0
LINE
  5
D2
  8
0
 62
     7
 10
170.06800000000001
 20
180.52500000000001
 30
0.0
 11
170.06800000000001
 21
165.69599999999991
 31
0.0
  0
ARC
  5
D3
  8
0
  6
AIGENLINE002
 62
     7
 10
160.62120200000001
 20
125.24636
 30
0.0
 40
1.4550289999999999
 50
92.124238000000005
 51
177.87573199999991
  0
ARC
  5
D4
  8
0
  6
AIGENLINE002
 62
     7
 10
160.6205149999999
 20
125.3542539999999
 30
0.0
 40
1.4543429999999991
 50
182.12638000000001
 51
267.9018529999999
  0
ARC
  5
D5
  8
0
  6
AIGENLINE002
 62
     7
 10
160.51335700000001
 20
125.35420499999999
 30
0.0
 40
1.4543189999999999
 50
272.12448599999999
 51
357.87552399999998
  0
ARC
  5
D6
  8
0
  6
AIGENLINE002
 62
     7
 10
160.51267999999999
 20
125.2464189999999
 30
0.0
 40
1.4549939999999999
 50
2.1219790000000001
 51
87.849807999999996
  0
LINE
  5
D7
  8
0
  6
AIGENLINE001
 62
     7
 10
160.56700000000001
 20
122.967
 30
0.0
 11
160.56700000000001
 21
127.5239999999999
 31
0.0
  0
LINE
  5
D8
  8
0
 62
     7
 10
157.06699999999989
 20
85.799999999999997
 30
0.0
 11
157.06699999999989
 21
164.80099999999999
 31
0.0
  0
LINE
  5
D9
  8
0
  6
AIGENLINE002
 62
     7
 10
165.16799999999989
 20
93.922200000000004
 30
0.0
 11
157.40600000000001
 21
87.099500000000006
 31
0.0
  0
ARC
  5
DA
  8
0
  6
AIGENLINE002
 62
     7
 10
158.08285499999991
 20
86.368791999999999
 30
0.0
 40
1.015849999999999
 50
131.77941699999991
 51
179.59453500000001
  0
LINE
  5
DB
  8
0
  6
AIGENLINE001
 62
     7
 10
162.36699999999999
 20
113.57899999999989
 30
0.0
 11
162.36699999999999
 21
109.041
 31
0.0
  0
LINE
  5
DC
  8
0
  6
AIGENLINE001
 62
     7
 10
160.607
 20
111.301
 30
0.0
 11
164.03399999999999
 21
111.301
 31
0.0
  0
LINE
  5
DD
  8
0
  6
AIGENLINE002
 62
     7
 10
163.36699999999999
 20
110.8
 30
0.0
 11
163.36699999999999
 21
111.8009999999999
 31
0.0
  0
LINE
  5
DE
  8
0
  6
AIGENLINE002
 62
     7
 10
161.36699999999999
 20
110.8
 30
0.0
 11
161.36699999999999
 21
111.8009999999999
 31
0.0
  0
ARC
  5
DF
  8
0
  6
AIGENLINE002
 62
     7
 10
162.329036
 20
111.76226699999999
 30
0.0
 40
1.0391449999999991
 50
2.133124
 51
87.906339000000017
  0
ARC
  5
E0
  8
0
  6
AIGENLINE002
 62
     7
 10
162.40561099999999
 20
111.7616179999999
 30
0.0
 40
1.0398179999999999
 50
92.128064999999992
 51
177.83243200000001
  0
ARC
  5
E1
  8
0
  6
AIGENLINE002
 62
     7
 10
162.40495100000001
 20
110.839152
 30
0.0
 40
1.0391349999999999
 50
182.132598
 51
267.90690499999988
  0
ARC
  5
E2
  8
0
  6
AIGENLINE002
 62
     7
 10
162.32838699999999
 20
110.839811
 30
0.0
 40
1.0398179999999999
 50
272.12808499999988
 51
357.83245099999988
  0
LINE
  5
E3
  8
0
  6
AIGENLINE002
 62
     7
 10
166.56700000000001
 20
121.801
 30
0.0
 11
166.18700000000001
 21
96.130500000000012
 31
0.0
  0
ARC
  5
E4
  8
0
  6
AIGENLINE002
 62
     7
 10
163.14087399999991
 20
96.196535999999995
 30
0.0
 40
3.0467869999999988
 50
311.71347300000002
 51
358.75779299999999
  0
LINE
  5
E5
  8
0
  6
AIGENLINE002
 62
     7
 10
166.56700000000001
 20
128.80099999999999
 30
0.0
 11
168.06700000000001
 21
127.59999999999999
 31
0.0
  0
LINE
  5
E6
  8
0
  6
AIGENLINE002
 62
     7
 10
168.06700000000001
 20
123.0
 30
0.0
 11
166.56700000000001
 21
121.801
 31
0.0
  0
LINE
  5
E7
  8
0
  6
AIGENLINE002
 62
     7
 10
168.06700000000001
 20
123.0
 30
0.0
 11
168.06700000000001
 21
127.59999999999999
 31
0.0
  0
LINE
  5
E8
  8
0
  6
AIGENLINE002
 62
     7
 10
166.56700000000001
 20
121.801
 30
0.0
 11
166.56700000000001
 21
128.80099999999999
 31
0.0
  0
LINE
  5
E9
  8
0
 62
     7
 10
170.06800000000001
 20
128.828
 30
0.0
 11
171.06700000000001
 21
128.828
 31
0.0
  0
LINE
  5
EA
  8
0
 62
     7
 10
171.06700000000001
 20
121.8279999999999
 30
0.0
 11
170.06800000000001
 21
121.8279999999999
 31
0.0
  0
LINE
  5
EB
  8
0
 62
     7
 10
171.06700000000001
 20
121.8279999999999
 30
0.0
 11
171.06700000000001
 21
128.828
 31
0.0
  0
LINE
  5
EC
  8
0
 62
     7
 10
170.06800000000001
 20
85.744799999999984
 30
0.0
 11
157.584
 21
85.301100000000005
 31
0.0
  0
ARC
  5
ED
  8
0
 62
     7
 10
157.585916
 20
85.819339000000014
 30
0.0
 40
0.519248
 50
182.139296
 51
267.97915399999999
  0
LINE
  5
EE
  8
0
 62
     7
 10
157.56800000000001
 20
85.300399999999996
 30
0.0
 11
157.584
 21
85.301100000000005
 31
0.0
  0
LINE
  5
EF
  8
0
  6
AIGENLINE001
 62
     7
 10
173.53499999999991
 20
125.2999999999999
 30
0.0
 11
153.86199999999991
 21
125.2999999999999
 31
0.0
  0
LINE
  5
F0
  8
0
 62
     7
 10
91.814800000000005
 20
86.300200000000004
 30
0.0
 11
91.814800000000005
 21
164.3009999999999
 31
0.0
  0
LINE
  5
F1
  8
0
 62
     7
 10
45.114499999999992
 20
85.300399999999996
 30
0.0
 11
90.814800000000005
 21
85.300399999999996
 31
0.0
  0
ARC
  5
F2
  8
0
 62
     7
 10
90.776617999999985
 20
86.338588999999985
 30
0.0
 40
1.0388779999999991
 50
272.10854799999993
 51
357.88159100000001
  0
LINE
  5
F3
  8
0
 62
     7
 10
45.114499999999992
 20
165.3009999999999
 30
0.0
 11
90.814800000000005
 21
165.3009999999999
 31
0.0
  0
ARC
  5
F4
  8
0
 62
     7
 10
90.776204000000007
 20
164.26227800000001
 30
0.0
 40
1.039301
 50
2.130542999999999
 51
87.869446999999994
  0
LINE
  5
F5
  8
0
 62
     7
 10
36.668100000000003
 20
109.444
 30
0.0
 11
29.800599999999989
 21
109.444
 31
0.0
  0
LINE
  5
F6
  8
0
 62
     7
 10
54.903500000000001
 20
128.51099999999991
 30
0.0
 11
53.752099999999999
 21
126.53
 31
0.0
  0
LINE
  5
F7
  8
0
 62
     7
 10
53.752099999999999
 20
126.53
 30
0.0
 11
55.746299999999991
 21
127.6729999999999
 31
0.0
  0
LINE
  5
F8
  8
0
 62
     7
 10
55.746299999999991
 20
127.6729999999999
 30
0.0
 11
54.903500000000001
 21
128.51099999999991
 31
0.0
  0
LINE
  5
F9
  8
0
 62
     7
 10
50.125799999999991
 20
122.072
 30
0.0
 11
51.277099999999997
 21
124.05500000000001
 31
0.0
  0
LINE
  5
FA
  8
0
 62
     7
 10
51.277099999999997
 20
124.05500000000001
 30
0.0
 11
49.28309999999999
 21
122.91
 31
0.0
  0
LINE
  5
FB
  8
0
 62
     7
 10
49.28309999999999
 20
122.91
 30
0.0
 11
50.125799999999991
 21
122.072
 31
0.0
  0
LINE
  5
FC
  8
0
 62
     7
 10
36.668100000000003
 20
109.444
 30
0.0
 11
56.966900000000003
 21
129.74399999999989
 31
0.0
  0
LINE
  5
FD
  8
0
 62
     7
 10
80.230199999999996
 20
130.6109999999999
 30
0.0
 11
74.124600000000001
 21
130.6109999999999
 31
0.0
  0
LINE
  5
FE
  8
0
 62
     7
 10
71.592600000000004
 20
128.90899999999991
 30
0.0
 11
70.441299999999998
 21
126.926
 31
0.0
  0
LINE
  5
FF
  8
0
 62
     7
 10
70.441299999999998
 20
126.926
 30
0.0
 11
72.435500000000005
 21
128.071
 31
0.0
  0
LINE
  5
100
  8
0
 62
     7
 10
72.435500000000005
 20
128.071
 30
0.0
 11
71.592600000000004
 21
128.90899999999991
 31
0.0
  0
LINE
  5
101
  8
0
 62
     7
 10
66.036900000000003
 20
121.69199999999999
 30
0.0
 11
67.188599999999994
 21
123.67399999999989
 31
0.0
  0
LINE
  5
102
  8
0
 62
     7
 10
67.188599999999994
 20
123.67399999999989
 30
0.0
 11
65.194500000000005
 21
122.53
 31
0.0
  0
LINE
  5
103
  8
0
 62
     7
 10
65.194500000000005
 20
122.53
 30
0.0
 11
66.036900000000003
 21
121.69199999999999
 31
0.0
  0
LINE
  5
104
  8
0
 62
     7
 10
62.936999999999998
 20
119.422
 30
0.0
 11
74.124600000000001
 21
130.6109999999999
 31
0.0
  0
LINE
  5
105
  8
0
 62
     7
 10
33.362900000000003
 20
127.511
 30
0.0
 11
33.9587
 21
125.2999999999999
 31
0.0
  0
LINE
  5
106
  8
0
 62
     7
 10
33.9587
 20
125.2999999999999
 30
0.0
 11
34.55449999999999
 21
127.511
 31
0.0
  0
LINE
  5
107
  8
0
 62
     7
 10
34.55449999999999
 20
127.511
 30
0.0
 11
33.362900000000003
 21
127.511
 31
0.0
  0
LINE
  5
108
  8
0
 62
     7
 10
33.371299999999998
 20
117.51000000000001
 30
0.0
 11
33.967100000000002
 21
115.29899999999989
 31
0.0
  0
LINE
  5
109
  8
0
 62
     7
 10
33.967100000000002
 20
115.29899999999989
 30
0.0
 11
34.563000000000002
 21
117.51000000000001
 31
0.0
  0
LINE
  5
10A
  8
0
 62
     7
 10
34.563000000000002
 20
117.51000000000001
 30
0.0
 11
33.371299999999998
 21
117.51000000000001
 31
0.0
  0
LINE
  5
10B
  8
0
 62
     7
 10
34.55449999999999
 20
123.09
 30
0.0
 11
33.9587
 21
125.2999999999999
 31
0.0
  0
LINE
  5
10C
  8
0
 62
     7
 10
33.9587
 20
125.2999999999999
 30
0.0
 11
33.362900000000003
 21
123.09
 31
0.0
  0
LINE
  5
10D
  8
0
 62
     7
 10
33.362900000000003
 20
123.09
 30
0.0
 11
34.55449999999999
 21
123.09
 31
0.0
  0
LINE
  5
10E
  8
0
 62
     7
 10
34.5456
 20
133.09100000000001
 30
0.0
 11
33.9497
 21
135.30199999999999
 31
0.0
  0
LINE
  5
10F
  8
0
 62
     7
 10
33.9497
 20
135.30199999999999
 30
0.0
 11
33.353900000000003
 21
133.09100000000001
 31
0.0
  0
LINE
  5
110
  8
0
 62
     7
 10
33.353900000000003
 20
133.09100000000001
 30
0.0
 11
34.5456
 21
133.09100000000001
 31
0.0
  0
LINE
  5
111
  8
0
 62
     7
 10
33.9587
 20
115.3
 30
0.0
 11
33.9587
 21
135.30099999999999
 31
0.0
  0
LINE
  5
112
  8
0
 62
     7
 10
33.118299999999998
 20
115.3
 30
0.0
 11
48.755299999999998
 21
115.3
 31
0.0
  0
LINE
  5
113
  8
0
 62
     7
 10
33.118299999999998
 20
125.2999999999999
 30
0.0
 11
41.332099999999997
 21
125.2999999999999
 31
0.0
  0
LINE
  5
114
  8
0
 62
     7
 10
33.118299999999998
 20
135.30099999999999
 30
0.0
 11
48.755299999999998
 21
135.30099999999999
 31
0.0
  0
LINE
  5
115
  8
0
 62
     7
 10
50.589700000000001
 20
145.4859999999999
 30
0.0
 11
52.813600000000001
 21
146.07799999999989
 31
0.0
  0
LINE
  5
116
  8
0
 62
     7
 10
52.813600000000001
 20
146.07799999999989
 30
0.0
 11
50.589700000000001
 21
146.67099999999991
 31
0.0
  0
LINE
  5
117
  8
0
 62
     7
 10
50.589700000000001
 20
146.67099999999991
 30
0.0
 11
50.589700000000001
 21
145.4859999999999
 31
0.0
  0
LINE
  5
118
  8
0
 62
     7
 10
47.038800000000002
 20
146.679
 30
0.0
 11
44.814899999999987
 21
146.08699999999999
 31
0.0
  0
LINE
  5
119
  8
0
 62
     7
 10
44.814899999999987
 20
146.08699999999999
 30
0.0
 11
47.038800000000002
 21
145.495
 31
0.0
  0
LINE
  5
11A
  8
0
 62
     7
 10
47.038800000000002
 20
145.495
 30
0.0
 11
47.038800000000002
 21
146.679
 31
0.0
  0
LINE
  5
11B
  8
0
 62
     7
 10
57.091799999999992
 20
145.5029999999999
 30
0.0
 11
59.315399999999997
 21
146.096
 31
0.0
  0
LINE
  5
11C
  8
0
 62
     7
 10
59.315399999999997
 20
146.096
 30
0.0
 11
57.091799999999992
 21
146.6879999999999
 31
0.0
  0
LINE
  5
11D
  8
0
 62
     7
 10
57.091799999999992
 20
146.6879999999999
 30
0.0
 11
57.091799999999992
 21
145.5029999999999
 31
0.0
  0
LINE
  5
11E
  8
0
 62
     7
 10
55.037500000000001
 20
146.67099999999991
 30
0.0
 11
52.813600000000001
 21
146.07799999999989
 31
0.0
  0
LINE
  5
11F
  8
0
 62
     7
 10
52.813600000000001
 20
146.07799999999989
 30
0.0
 11
55.037500000000001
 21
145.4859999999999
 31
0.0
  0
LINE
  5
120
  8
0
 62
     7
 10
55.037500000000001
 20
145.4859999999999
 30
0.0
 11
55.037500000000001
 21
146.67099999999991
 31
0.0
  0
LINE
  5
121
  8
0
 62
     7
 10
59.314399999999999
 20
146.08699999999999
 30
0.0
 11
52.814700000000002
 21
146.08699999999999
 31
0.0
  0
LINE
  5
122
  8
0
  6
AIGENLINE001
 62
     7
 10
52.514600000000002
 20
118.491
 30
0.0
 11
52.514600000000002
 21
111.88
 31
0.0
  0
LINE
  5
123
  8
0
  6
AIGENLINE001
 62
     7
 10
52.514600000000002
 20
129.0689999999999
 30
0.0
 11
52.514600000000002
 21
121.577
 31
0.0
  0
LINE
  5
124
  8
0
  6
AIGENLINE001
 62
     7
 10
52.514600000000002
 20
138.7649999999999
 30
0.0
 11
52.514600000000002
 21
132.04299999999989
 31
0.0
  0
LINE
  5
125
  8
0
 62
     7
 10
52.514600000000002
 20
139.6039999999999
 30
0.0
 11
52.514600000000002
 21
146.92699999999999
 31
0.0
  0
LINE
  5
126
  8
0
 62
     7
 10
44.814899999999987
 20
146.08699999999999
 30
0.0
 11
52.814700000000002
 21
146.08699999999999
 31
0.0
  0
LINE
  5
127
  8
0
 62
     7
 10
44.814899999999987
 20
166.21199999999999
 30
0.0
 11
44.814899999999987
 21
179.82400000000001
 31
0.0
  0
LINE
  5
128
  8
0
 62
     7
 10
113.8679999999999
 20
163.09100000000001
 30
0.0
 11
113.27200000000001
 21
165.30199999999999
 31
0.0
  0
LINE
  5
129
  8
0
 62
     7
 10
113.27200000000001
 20
165.30199999999999
 30
0.0
 11
112.6759999999999
 21
163.09100000000001
 31
0.0
  0
LINE
  5
12A
  8
0
 62
     7
 10
112.6759999999999
 20
163.09100000000001
 30
0.0
 11
113.8679999999999
 21
163.09100000000001
 31
0.0
  0
LINE
  5
12B
  8
0
 62
     7
 10
112.694
 20
87.509799999999998
 30
0.0
 11
113.29000000000001
 21
85.298999999999992
 31
0.0
  0
LINE
  5
12C
  8
0
 62
     7
 10
113.29000000000001
 20
85.298999999999992
 30
0.0
 11
113.886
 21
87.509799999999998
 31
0.0
  0
LINE
  5
12D
  8
0
 62
     7
 10
113.886
 20
87.509799999999998
 30
0.0
 11
112.694
 21
87.509799999999998
 31
0.0
  0
LINE
  5
12E
  8
0
 62
     7
 10
113.28100000000001
 20
165.3009999999999
 30
0.0
 11
113.28100000000001
 21
85.300399999999996
 31
0.0
  0
LINE
  5
12F
  8
0
 62
     7
 10
92.675899999999999
 20
165.3009999999999
 30
0.0
 11
114.121
 21
165.3009999999999
 31
0.0
  0
LINE
  5
130
  8
0
 62
     7
 10
92.671899999999994
 20
85.300399999999996
 30
0.0
 11
114.121
 21
85.300399999999996
 31
0.0
  0
LINE
  5
131
  8
0
 62
     7
 10
103.86799999999999
 20
161.34100000000001
 30
0.0
 11
103.27200000000001
 21
163.55199999999999
 31
0.0
  0
LINE
  5
132
  8
0
 62
     7
 10
103.27200000000001
 20
163.55199999999999
 30
0.0
 11
102.676
 21
161.34100000000001
 31
0.0
  0
LINE
  5
133
  8
0
 62
     7
 10
102.676
 20
161.34100000000001
 30
0.0
 11
103.86799999999999
 21
161.34100000000001
 31
0.0
  0
LINE
  5
134
  8
0
 62
     7
 10
102.6939999999999
 20
89.260199999999983
 30
0.0
 11
103.29000000000001
 21
87.049800000000005
 31
0.0
  0
LINE
  5
135
  8
0
 62
     7
 10
103.29000000000001
 20
87.049800000000005
 30
0.0
 11
103.88500000000001
 21
89.260199999999983
 31
0.0
  0
LINE
  5
136
  8
0
 62
     7
 10
103.88500000000001
 20
89.260199999999983
 30
0.0
 11
102.6939999999999
 21
89.260199999999983
 31
0.0
  0
LINE
  5
137
  8
0
 62
     7
 10
103.28100000000001
 20
163.55099999999999
 30
0.0
 11
103.28100000000001
 21
87.050499999999985
 31
0.0
  0
LINE
  5
138
  8
0
 62
     7
 10
91.171199999999985
 20
163.55099999999999
 30
0.0
 11
104.121
 21
163.55099999999999
 31
0.0
  0
LINE
  5
139
  8
0
 62
     7
 10
91.198800000000006
 20
87.050499999999985
 30
0.0
 11
104.121
 21
87.050499999999985
 31
0.0
  0
LINE
  5
13A
  8
0
 62
     7
 10
44.814899999999987
 20
84.548699999999997
 30
0.0
 11
44.814899999999987
 21
76.999099999999999
 31
0.0
  0
LINE
  5
13B
  8
0
  6
AIGENLINE001
 62
     7
 10
68.814700000000002
 20
130.95500000000001
 30
0.0
 11
68.814700000000002
 21
118.83499999999999
 31
0.0
  0
LINE
  5
13C
  8
0
  6
AIGENLINE001
 62
     7
 10
49.595700000000001
 20
135.30099999999999
 30
0.0
 11
55.820500000000003
 21
135.30099999999999
 31
0.0
  0
LINE
  5
13D
  8
0
  6
AIGENLINE001
 62
     7
 10
93.846400000000003
 20
125.2999999999999
 30
0.0
 11
42.171900000000001
 21
125.2999999999999
 31
0.0
  0
LINE
  5
13E
  8
0
  6
AIGENLINE001
 62
     7
 10
49.595700000000001
 20
115.3
 30
0.0
 11
55.820500000000003
 21
115.3
 31
0.0
  0
ARC
  5
13F
  8
0
  6
AIGENLINE002
 62
     7
 10
52.571785999999989
 20
135.24378300000001
 30
0.0
 40
1.558049
 50
92.103008000000003
 51
177.9035419999999
  0
ARC
  5
140
  8
0
  6
AIGENLINE002
 62
     7
 10
52.572344999999999
 20
135.35833400000001
 30
0.0
 40
1.5586289999999989
 50
182.11624699999999
 51
267.87720299999989
  0
ARC
  5
141
  8
0
  6
AIGENLINE002
 62
     7
 10
52.457455000000003
 20
135.35811399999989
 30
0.0
 40
1.558387999999999
 50
272.10189100000002
 51
357.89153999999991
  0
ARC
  5
142
  8
0
  6
AIGENLINE002
 62
     7
 10
52.457209999999989
 20
135.243199
 30
0.0
 40
1.5586409999999991
 50
2.117122999999999
 51
87.889445999999978
  0
LINE
  5
143
  8
0
 62
     7
 10
89.436800000000005
 20
163.04599999999999
 30
0.0
 11
81.519199999999998
 21
157.52699999999999
 31
0.0
  0
LINE
  5
144
  8
0
 62
     7
 10
90.065200000000004
 20
87.800899999999984
 30
0.0
 11
90.065200000000004
 21
162.80099999999999
 31
0.0
  0
ARC
  5
145
  8
0
 62
     7
 10
89.286406999999997
 20
87.829304000000008
 30
0.0
 40
0.779295
 50
272.10342200000002
 51
357.90974299999999
  0
LINE
  5
146
  8
0
 62
     7
 10
61.564399999999992
 20
87.050499999999985
 30
0.0
 11
89.314999999999984
 21
87.050499999999985
 31
0.0
  0
ARC
  5
147
  8
0
 62
     7
 10
61.650218999999993
 20
89.386353999999997
 30
0.0
 40
2.337396
 50
182.11247999999989
 51
267.89632399999999
  0
LINE
  5
148
  8
0
 62
     7
 10
59.314399999999999
 20
161.30099999999999
 30
0.0
 11
59.314399999999999
 21
89.300200000000004
 31
0.0
  0
ARC
  5
149
  8
0
 62
     7
 10
61.650568000000007
 20
161.21475699999999
 30
0.0
 40
2.3377439999999989
 50
92.111913000000015
 51
177.888057
  0
LINE
  5
14A
  8
0
 62
     7
 10
89.314999999999984
 20
163.55099999999999
 30
0.0
 11
61.564399999999992
 21
163.55099999999999
 31
0.0
  0
ARC
  5
14B
  8
0
 62
     7
 10
89.286762999999993
 20
162.772479
 30
0.0
 40
0.7789470000000001
 50
2.1044930000000002
 51
87.921816000000007
  0
ARC
  5
14C
  8
0
 62
     7
 10
45.125772999999988
 20
164.98968899999991
 30
0.0
 40
0.311375
 50
92.074918999999994
 51
177.92505099999991
  0
ARC
  5
14D
  8
0
 62
     7
 10
79.643356999999995
 20
155.72548599999999
 30
0.0
 40
2.0776110000000001
 50
2.1100939999999988
 51
87.899766000000014
  0
ARC
  5
14E
  8
0
 62
     7
 10
79.717957999999996
 20
155.81514300000001
 30
0.0
 40
1.9865589999999991
 50
89.955617000000004
 51
91.848805000000013
  0
LINE
  5
14F
  8
0
 62
     7
 10
61.249200000000002
 20
157.80099999999999
 30
0.0
 11
79.653899999999993
 21
157.80099999999999
 31
0.0
  0
ARC
  5
150
  8
0
 62
     7
 10
61.389743000000003
 20
155.72880900000001
 30
0.0
 40
2.0766209999999989
 50
93.880949999999984
 51
177.98062400000001
  0
ARC
  5
151
  8
0
 62
     7
 10
45.125996000000001
 20
85.611815000000007
 30
0.0
 40
0.311613
 50
182.14729199999999
 51
267.88565699999992
  0
ARC
  5
152
  8
0
 62
     7
 10
68.814840000000004
 20
125.3004649999999
 30
0.0
 40
3.500067
 50
90.002820000000014
 51
180.00282999999999
  0
ARC
  5
153
  8
0
 62
     7
 10
68.814493999999996
 20
125.3004649999999
 30
0.0
 40
3.4997220000000002
 50
180.00282999999999
 51
270.00283999999988
  0
ARC
  5
154
  8
0
 62
     7
 10
68.815010999999998
 20
125.30063799999991
 30
0.0
 40
3.4998949999999991
 50
269.99437999999992
 51
359.99435
  0
ARC
  5
155
  8
0
 62
     7
 10
68.814666000000003
 20
125.3002919999999
 30
0.0
 40
3.5002399999999998
 50
0.00001
 51
89.999980000000008
  0
ARC
  5
156
  8
0
 62
     7
 10
79.645698999999993
 20
94.877903000000003
 30
0.0
 40
2.0774840000000001
 50
270.2252969999999
 51
356.02348699999988
  0
ARC
  5
157
  8
0
 62
     7
 10
80.423189000000008
 20
94.793841
 30
0.0
 40
1.296381999999999
 50
357.34698199999991
 51
0.240921
  0
LINE
  5
158
  8
0
 62
     7
 10
61.249200000000002
 20
92.800399999999996
 30
0.0
 11
79.653899999999993
 21
92.800399999999996
 31
0.0
  0
ARC
  5
159
  8
0
 62
     7
 10
61.388832999999991
 20
94.871406999999991
 30
0.0
 40
2.075674999999999
 50
181.99103799999989
 51
266.14245199999999
  0
LINE
  5
15A
  8
0
 62
     7
 10
81.7196
 20
155.80199999999999
 30
0.0
 11
81.7196
 21
94.799300000000017
 31
0.0
  0
LINE
  5
15B
  8
0
 62
     7
 10
44.814599999999999
 20
85.600099999999998
 30
0.0
 11
44.814599999999999
 21
165.00099999999989
 31
0.0
  0
LINE
  5
15C
  8
0
 62
     7
 10
89.436800000000005
 20
87.554899999999989
 30
0.0
 11
81.519199999999998
 21
93.074700000000007
 31
0.0
  0
LINE
  5
15D
  8
0
 62
     7
 10
57.090200000000003
 20
171.60099999999991
 30
0.0
 11
59.314399999999999
 21
172.1929999999999
 31
0.0
  0
LINE
  5
15E
  8
0
 62
     7
 10
59.314399999999999
 20
172.1929999999999
 30
0.0
 11
57.090200000000003
 21
172.78599999999989
 31
0.0
  0
LINE
  5
15F
  8
0
 62
     7
 10
57.090200000000003
 20
172.78599999999989
 30
0.0
 11
57.090200000000003
 21
171.60099999999991
 31
0.0
  0
LINE
  5
160
  8
0
 62
     7
 10
89.591800000000006
 20
178.4009999999999
 30
0.0
 11
91.816000000000017
 21
178.99299999999999
 31
0.0
  0
LINE
  5
161
  8
0
 62
     7
 10
91.816000000000017
 20
178.99299999999999
 30
0.0
 11
89.591800000000006
 21
179.5859999999999
 31
0.0
  0
LINE
  5
162
  8
0
 62
     7
 10
89.591800000000006
 20
179.5859999999999
 30
0.0
 11
89.591800000000006
 21
178.4009999999999
 31
0.0
  0
LINE
  5
163
  8
0
 62
     7
 10
47.037700000000001
 20
179.5679999999999
 30
0.0
 11
44.813699999999997
 21
178.976
 31
0.0
  0
LINE
  5
164
  8
0
 62
     7
 10
44.813699999999997
 20
178.976
 30
0.0
 11
47.037700000000001
 21
178.38399999999999
 31
0.0
  0
LINE
  5
165
  8
0
 62
     7
 10
47.037700000000001
 20
178.38399999999999
 30
0.0
 11
47.037700000000001
 21
179.5679999999999
 31
0.0
  0
LINE
  5
166
  8
0
 62
     7
 10
91.814800000000005
 20
178.98500000000001
 30
0.0
 11
44.814899999999987
 21
178.98500000000001
 31
0.0
  0
LINE
  5
167
  8
0
 62
     7
 10
91.814800000000005
 20
166.548
 30
0.0
 11
91.814800000000005
 21
179.82400000000001
 31
0.0
  0
LINE
  5
168
  8
0
 62
     7
 10
47.037700000000001
 20
78.422899999999998
 30
0.0
 11
44.813699999999997
 21
77.830699999999993
 31
0.0
  0
LINE
  5
169
  8
0
 62
     7
 10
44.813699999999997
 20
77.830699999999993
 30
0.0
 11
47.037700000000001
 21
77.238500000000002
 31
0.0
  0
LINE
  5
16A
  8
0
 62
     7
 10
47.037700000000001
 20
77.238500000000002
 30
0.0
 11
47.037700000000001
 21
78.422899999999998
 31
0.0
  0
LINE
  5
16B
  8
0
 62
     7
 10
66.591999999999999
 20
77.255700000000004
 30
0.0
 11
68.815700000000007
 21
77.847899999999996
 31
0.0
  0
LINE
  5
16C
  8
0
 62
     7
 10
68.815700000000007
 20
77.847899999999996
 30
0.0
 11
66.591999999999999
 21
78.440200000000004
 31
0.0
  0
LINE
  5
16D
  8
0
 62
     7
 10
66.591999999999999
 20
78.440200000000004
 30
0.0
 11
66.591999999999999
 21
77.255700000000004
 31
0.0
  0
LINE
  5
16E
  8
0
 62
     7
 10
44.814899999999987
 20
77.838999999999999
 30
0.0
 11
68.814700000000002
 21
77.838999999999999
 31
0.0
  0
LINE
  5
16F
  8
0
 62
     7
 10
68.814700000000002
 20
117.995
 30
0.0
 11
68.814700000000002
 21
76.999099999999999
 31
0.0
  0
LINE
  5
170
  8
0
 62
     7
 10
87.841899999999995
 20
171.61000000000001
 30
0.0
 11
90.066000000000003
 21
172.202
 31
0.0
  0
LINE
  5
171
  8
0
 62
     7
 10
90.066000000000003
 20
172.202
 30
0.0
 11
87.841899999999995
 21
172.79400000000001
 31
0.0
  0
LINE
  5
172
  8
0
 62
     7
 10
87.841899999999995
 20
172.79400000000001
 30
0.0
 11
87.841899999999995
 21
171.61000000000001
 31
0.0
  0
LINE
  5
173
  8
0
 62
     7
 10
47.038800000000002
 20
172.78599999999989
 30
0.0
 11
44.814899999999987
 21
172.1929999999999
 31
0.0
  0
LINE
  5
174
  8
0
 62
     7
 10
44.814899999999987
 20
172.1929999999999
 30
0.0
 11
47.038800000000002
 21
171.60099999999991
 31
0.0
  0
LINE
  5
175
  8
0
 62
     7
 10
47.038800000000002
 20
171.60099999999991
 30
0.0
 11
47.038800000000002
 21
172.78599999999989
 31
0.0
  0
LINE
  5
176
  8
0
 62
     7
 10
61.538600000000002
 20
172.78599999999989
 30
0.0
 11
59.314399999999999
 21
172.1929999999999
 31
0.0
  0
LINE
  5
177
  8
0
 62
     7
 10
59.314399999999999
 20
172.1929999999999
 30
0.0
 11
61.538600000000002
 21
171.60099999999991
 31
0.0
  0
LINE
  5
178
  8
0
 62
     7
 10
61.538600000000002
 20
171.60099999999991
 30
0.0
 11
61.538600000000002
 21
172.78599999999989
 31
0.0
  0
LINE
  5
179
  8
0
 62
     7
 10
90.065200000000004
 20
172.1929999999999
 30
0.0
 11
44.814899999999987
 21
172.1929999999999
 31
0.0
  0
LINE
  5
17A
  8
0
 62
     7
 10
90.065200000000004
 20
164.7109999999999
 30
0.0
 11
90.065200000000004
 21
173.0329999999999
 31
0.0
  0
LINE
  5
17B
  8
0
 62
     7
 10
59.314399999999999
 20
164.18799999999999
 30
0.0
 11
59.314399999999999
 21
173.0329999999999
 31
0.0
  0
ARC
  5
17C
  8
0
 62
     7
 10
68.815011999999996
 20
125.30063699999999
 30
0.0
 40
2.3003049999999989
 50
90.008581000000007
 51
180.00859099999991
  0
ARC
  5
17D
  8
0
 62
     7
 10
68.814322000000004
 20
125.30063699999999
 30
0.0
 40
2.2996150000000002
 50
180.0085939999999
 51
270.00860299999999
  0
ARC
  5
17E
  8
0
 62
     7
 10
68.726963999999995
 20
125.388712
 30
0.0
 40
2.3892999999999991
 50
272.10361999999998
 51
357.87922300000002
  0
ARC
  5
17F
  8
0
 62
     7
 10
68.725825999999998
 20
125.21216699999989
 30
0.0
 40
2.390426999999999
 50
2.1127509999999989
 51
87.870076999999995
  0
ARC
  5
180
  8
0
  6
AIGENLINE002
 62
     7
 10
52.571785999999989
 20
115.2435
 30
0.0
 40
1.558049
 50
92.103008000000003
 51
177.9035419999999
  0
ARC
  5
181
  8
0
  6
AIGENLINE002
 62
     7
 10
52.572344999999999
 20
115.358051
 30
0.0
 40
1.5586289999999989
 50
182.11624699999999
 51
267.87720299999989
  0
ARC
  5
182
  8
0
  6
AIGENLINE002
 62
     7
 10
52.457455000000003
 20
115.357831
 30
0.0
 40
1.558387999999999
 50
272.10189100000002
 51
357.89153999999991
  0
ARC
  5
183
  8
0
  6
AIGENLINE002
 62
     7
 10
52.457231000000007
 20
115.242936
 30
0.0
 40
1.5586199999999999
 50
2.1164099999999988
 51
87.890158999999997
  0
ARC
  5
184
  8
0
 62
     7
 10
52.514612
 20
125.291335
 30
0.0
 40
1.7501199999999999
 50
90.0
 51
179.99996999999991
  0
ARC
  5
185
  8
0
 62
     7
 10
52.581136000000001
 20
125.3585759999999
 30
0.0
 40
1.8178879999999999
 50
182.119764
 51
267.902828
  0
ARC
  5
186
  8
0
 62
     7
 10
52.447825000000002
 20
125.35883799999991
 30
0.0
 40
1.8181599999999991
 50
272.10514499999999
 51
357.87230399999987
  0
ARC
  5
187
  8
0
 62
     7
 10
52.447389000000001
 20
125.2241129999999
 30
0.0
 40
1.818584999999999
 50
2.1183809999999998
 51
87.881609000000012
  0
TEXT
  5
188
  8
_________2
 62
     7
 10
29.525700000000001
 20
22.2272
 30
0.0
 40
3.9357000000000002
  1
実容量：6.5L、重量25.0kg、オーバーフロー付
 41
0.5
  0
LINE
  5
189
  8
_________2
 62
     7
 10
105.2389999999999
 20
17.428499999999989
 30
0.0
 11
105.2389999999999
 21
0.4485540000000001
 31
0.0
  0
LINE
  5
18A
  8
_________2
 62
     7
 10
81.679900000000004
 20
51.324300000000001
 30
0.0
 11
79.493700000000004
 21
51.324300000000001
 31
0.0
  0
LINE
  5
18B
  8
_________2
 62
     7
 10
82.172600000000017
 20
51.324300000000001
 30
0.0
 11
81.920400000000001
 21
51.324300000000001
 31
0.0
  0
LINE
  5
18C
  8
_________2
 62
     7
 10
82.665199999999984
 20
51.324300000000001
 30
0.0
 11
85.590100000000007
 21
51.324300000000001
 31
0.0
  0
LINE
  5
18D
  8
_________2
 62
     7
 10
82.172600000000017
 20
51.324300000000001
 30
0.0
 11
82.424800000000005
 21
51.324300000000001
 31
0.0
  0
LINE
  5
18E
  8
_________2
 62
     7
 10
75.776399999999995
 20
51.324300000000001
 30
0.0
 11
73.589399999999998
 21
51.324300000000001
 31
0.0
  0
LINE
  5
18F
  8
_________2
 62
     7
 10
76.2684
 20
51.324300000000001
 30
0.0
 11
76.016900000000007
 21
51.324300000000001
 31
0.0
  0
LINE
  5
190
  8
_________2
 62
     7
 10
76.2684
 20
51.817
 30
0.0
 11
76.2684
 21
54.003900000000002
 31
0.0
  0
LINE
  5
191
  8
_________2
 62
     7
 10
76.2684
 20
51.324300000000001
 30
0.0
 11
76.2684
 21
51.576900000000002
 31
0.0
  0
LINE
  5
192
  8
_________2
 62
     7
 10
76.76100000000001
 20
51.324300000000001
 30
0.0
 11
78.947999999999993
 21
51.324300000000001
 31
0.0
  0
LINE
  5
193
  8
_________2
 62
     7
 10
76.2684
 20
51.324300000000001
 30
0.0
 11
76.520499999999998
 21
51.324300000000001
 31
0.0
  0
LINE
  5
194
  8
_________2
 62
     7
 10
76.2684
 20
50.832399999999993
 30
0.0
 11
76.2684
 21
48.645699999999998
 31
0.0
  0
LINE
  5
195
  8
_________2
 62
     7
 10
76.2684
 20
51.324300000000001
 30
0.0
 11
76.2684
 21
51.072800000000001
 31
0.0
  0
LINE
  5
196
  8
_________2
 62
     7
 10
79.979399999999984
 20
50.104799999999997
 30
0.0
 11
85.157399999999996
 21
49.240000000000002
 31
0.0
  0
LINE
  5
197
  8
_________2
 62
     7
 10
79.979399999999984
 20
52.544199999999989
 30
0.0
 11
85.157399999999996
 21
53.409700000000001
 31
0.0
  0
LINE
  5
198
  8
_________2
 62
     7
 10
85.157399999999996
 20
49.240000000000002
 30
0.0
 11
85.157399999999996
 21
53.409700000000001
 31
0.0
  0
LINE
  5
199
  8
_________2
 62
     7
 10
79.979399999999984
 20
50.104799999999997
 30
0.0
 11
79.979399999999984
 21
52.544199999999989
 31
0.0
  0
ARC
  5
19A
  8
_________2
 62
     7
 10
76.221766000000002
 20
51.277380999999998
 30
0.0
 40
1.267714
 50
2.1220840000000001
 51
87.894083999999992
  0
ARC
  5
19B
  8
_________2
 62
     7
 10
76.315297000000001
 20
51.277734999999993
 30
0.0
 40
1.267374999999999
 50
92.122849999999985
 51
177.893304
  0
ARC
  5
19C
  8
_________2
 62
     7
 10
76.315273000000005
 20
51.371245999999992
 30
0.0
 40
1.267363
 50
182.12181499999991
 51
267.87821400000001
  0
ARC
  5
19D
  8
_________2
 62
     7
 10
76.221461000000005
 20
51.371928999999987
 30
0.0
 40
1.2680439999999991
 50
272.11916400000001
 51
357.84848499999993
  0
ARC
  5
19E
  8
_________2
 62
     7
 10
76.187981999999991
 20
51.244312999999998
 30
0.0
 40
2.1668310000000002
 50
2.1161439999999989
 51
87.874379000000005
  0
ARC
  5
19F
  8
_________2
 62
     7
 10
76.348411999999996
 20
51.245334999999997
 30
0.0
 40
2.1657980000000001
 50
92.118487999999999
 51
177.90988599999989
  0
ARC
  5
1A0
  8
_________2
 62
     7
 10
76.348354
 20
51.404327000000002
 30
0.0
 40
2.1657779999999991
 50
182.11700400000001
 51
267.88302499999992
  0
ARC
  5
1A1
  8
_________2
 62
     7
 10
76.188378999999983
 20
51.405009999999997
 30
0.0
 40
2.1664590000000001
 50
272.11546800000002
 51
357.86560400000002
  0
TEXT
  5
1A2
  8
_________2
 62
     7
 10
109.5439999999999
 20
23.199100000000001
 30
0.0
 40
3.0923400000000001
  1
図番
 41
0.5
  0
LINE
  5
1A3
  8
_________2
 62
     7
 10
108.4889999999999
 20
27.4283
 30
0.0
 11
188.49000000000001
 21
27.4283
 31
0.0
  0
TEXT
  5
1A4
  8
_________2
 62
     7
 10
109.5439999999999
 20
33.198900000000002
 30
0.0
 40
3.0923400000000001
  1
品番
 41
0.5
  0
TEXT
  5
1A5
  8
_________2
 62
     7
 10
109.5439999999999
 20
53.338000000000001
 30
0.0
 40
3.0923400000000001
  1
名称
 41
0.5
  0
TEXT
  5
1A6
  8
_________2
 62
     7
 10
96.784058333333334
 20
48.341900000000003
 30
0.0
 40
3.6545800000000002
  1
mm
 41
0.5
 72
     1
 11
98.306799999999996
 21
48.341900000000003
 31
0.0
  0
TEXT
  5
1A7
  8
_________2
 62
     7
 10
90.582099999999997
 20
53.338000000000001
 30
0.0
 40
3.0923400000000001
  1
単位
 41
0.5
  0
TEXT
  5
1A8
  8
_________2
 62
     7
 10
90.582099999999997
 20
40.930399999999999
 30
0.0
 40
3.0923400000000001
  1
尺度
 41
0.5
  0
TEXT
  5
1A9
  8
_________2
 62
     7
 10
95.030836166666674
 20
34.7378
 30
0.0
 40
3.6545800000000002
  1
1 ： 10
 41
0.5
 72
     1
 11
98.898600000000002
 21
34.7378
 31
0.0
  0
TEXT
  5
1AA
  8
_________2
 62
     7
 10
140.94557499999999
 20
30.627800000000001
 30
0.0
 40
3.9357000000000002
  1
VB51338L
 41
0.5
 72
     1
 11
148.489
 21
30.627800000000001
 31
0.0
  0
TEXT
  5
1AB
  8
_________2
 62
     7
 10
140.94557499999999
 20
20.626999999999988
 30
0.0
 40
3.9357000000000002
  1
VB51338L
 41
0.5
 72
     1
 11
148.489
 21
20.626999999999988
 31
0.0
  0
TEXT
  5
1AC
  8
_________2
 62
     7
 10
114.11799999999999
 20
45.745600000000003
 30
0.0
 40
3.9357000000000002
  1
メメント 洗面器
 41
0.5
  0
TEXT
  5
1AD
  8
_________2
 62
     7
 10
44.364200333333329
 20
35.122999999999998
 30
0.0
 40
3.6545800000000002
  1
早川
 41
0.5
 72
     1
 11
46.252400000000002
 21
35.122999999999998
 31
0.0
  0
TEXT
  5
1AE
  8
_________2
 62
     7
 10
25.790200333333331
 20
35.122999999999998
 30
0.0
 40
3.6545800000000002
  1
福田
 41
0.5
 72
     1
 11
27.6784
 21
35.122999999999998
 31
0.0
  0
TEXT
  5
1AF
  8
_________2
 62
     7
 10
72.724699999999999
 20
34.7378
 30
0.0
 40
3.6545800000000002
  1
13.06.19
 41
0.5
  0
TEXT
  5
1B0
  8
_________2
 62
     7
 10
71.531999999999996
 20
40.930399999999999
 30
0.0
 40
3.0923400000000001
  1
日付
 41
0.5
  0
TEXT
  5
1B1
  8
_________2
 62
     7
 10
34.578299999999992
 20
40.930399999999999
 30
0.0
 40
3.0923400000000001
  1
検図
 41
0.5
  0
TEXT
  5
1B2
  8
_________2
 62
     7
 10
22.96019999999999
 20
26.730999999999991
 30
0.0
 40
3.0923400000000001
  1
備考
 41
0.5
  0
TEXT
  5
1B3
  8
_________2
 62
     7
 10
22.96019999999999
 20
40.930399999999999
 30
0.0
 40
3.0923400000000001
  1
製図
 41
0.5
  0
TEXT
  5
1B4
  8
_________2
 62
     7
 10
28.727365333333339
 20
49.456400000000002
 30
0.0
 40
4.4979399999999989
  1
セラトレーディング株式会社
 41
0.5
 72
     1
 11
46.119399999999992
 21
49.456400000000002
 31
0.0
  0
LINE
  5
1B5
  8
_________2
 62
     7
 10
188.49000000000001
 20
17.428499999999989
 30
0.0
 11
21.988499999999991
 21
17.428499999999989
 31
0.0
  0
LINE
  5
1B6
  8
_________2
 62
     7
 10
21.988499999999991
 20
17.428499999999989
 30
0.0
 11
21.988499999999991
 21
280.42999999999989
 31
0.0
  0
LINE
  5
1B7
  8
_________2
 62
     7
 10
21.988499999999991
 20
280.42999999999989
 30
0.0
 11
188.49000000000001
 21
280.42999999999989
 31
0.0
  0
LINE
  5
1B8
  8
_________2
 62
     7
 10
188.49000000000001
 20
280.42999999999989
 30
0.0
 11
188.49000000000001
 21
17.428499999999989
 31
0.0
  0
LINE
  5
1B9
  8
_________2
 62
     7
 10
70.488799999999998
 20
30.928899999999999
 30
0.0
 11
70.488799999999998
 21
57.428699999999992
 31
0.0
  0
LINE
  5
1BA
  8
_________2
 62
     7
 10
89.488600000000005
 20
30.928899999999999
 30
0.0
 11
89.488600000000005
 21
57.428699999999992
 31
0.0
  0
LINE
  5
1BB
  8
_________2
 62
     7
 10
108.4889999999999
 20
17.428499999999989
 30
0.0
 11
108.4889999999999
 21
57.428699999999992
 31
0.0
  0
LINE
  5
1BC
  8
_________2
 62
     7
 10
33.488300000000002
 20
30.928899999999999
 30
0.0
 11
33.488300000000002
 21
44.928800000000003
 31
0.0
  0
LINE
  5
1BD
  8
_________2
 62
     7
 10
21.988499999999991
 20
30.928899999999999
 30
0.0
 11
108.4889999999999
 21
30.928899999999999
 31
0.0
  0
LINE
  5
1BE
  8
_________2
 62
     7
 10
21.988499999999991
 20
44.928800000000003
 30
0.0
 11
108.4889999999999
 21
44.928800000000003
 31
0.0
  0
LINE
  5
1BF
  8
_________2
 62
     7
 10
108.4889999999999
 20
37.428100000000001
 30
0.0
 11
188.49000000000001
 21
37.428100000000001
 31
0.0
  0
LINE
  5
1C0
  8
_________2
 62
     7
 10
21.988499999999991
 20
57.428699999999992
 30
0.0
 11
188.49000000000001
 21
57.428699999999992
 31
0.0
  0
LINE
  5
1C1
  8
_________2
 62
     7
 10
210.24000000000001
 20
148.93100000000001
 30
0.0
 11
188.489
 21
148.93100000000001
 31
0.0
  0
LINE
  5
1C2
  8
_________2
 62
     7
 10
105.2389999999999
 20
297.45099999999991
 30
0.0
 11
105.2389999999999
 21
280.42999999999989
 31
0.0
  0
LINE
  5
1C3
  8
_________2
 62
     7
 10
21.988499999999991
 20
148.93100000000001
 30
0.0
 11
0.238402
 21
148.93100000000001
 31
0.0
  0
ENDSEC
  0
EOF
