  0
SECTION
  2
HEADER
  9
$ACADVER
  1
AC1009
  9
$INSBASE
 10
0.0
 20
0.0
 30
0.0
  9
$EXTMIN
 10
0.238402
 20
0.4485540000000001
 30
0.0
  9
$EXTMAX
 10
210.24000000000001
 20
297.45099999999991
 30
0.0
  9
$LIMMIN
 10
0.0
 20
0.0
  9
$LIMMAX
 10
12.0
 20
9.0
  9
$ORTHOMODE
 70
     0
  9
$REGENMODE
 70
     1
  9
$FILLMODE
 70
     1
  9
$QTEXTMODE
 70
     0
  9
$MIRRTEXT
 70
     1
  9
$DRAGMODE
 70
     2
  9
$LTSCALE
 40
1.0
  9
$OSMODE
 70
    37
  9
$ATTMODE
 70
     1
  9
$TEXTSIZE
 40
0.0
  9
$TRACEWID
 40
0.05
  9
$TEXTSTYLE
  7
STANDARD
  9
$CLAYER
  8
0
  9
$CELTYPE
  6
CONTINUOUS
  9
$CECOLOR
 62
   256
  9
$DIMSCALE
 40
1.0
  9
$DIMASZ
 40
0.18
  9
$DIMEXO
 40
0.0625
  9
$DIMDLI
 40
0.38
  9
$DIMRND
 40
0.0
  9
$DIMDLE
 40
0.0
  9
$DIMEXE
 40
0.18
  9
$DIMTP
 40
0.0
  9
$DIMTM
 40
0.0
  9
$DIMTXT
 40
0.18
  9
$DIMCEN
 40
0.09
  9
$DIMTSZ
 40
0.0
  9
$DIMTOL
 70
     0
  9
$DIMLIM
 70
     0
  9
$DIMTIH
 70
     1
  9
$DIMTOH
 70
     1
  9
$DIMSE1
 70
     0
  9
$DIMSE2
 70
     0
  9
$DIMTAD
 70
     0
  9
$DIMZIN
 70
     0
  9
$DIMBLK
  1

  9
$DIMASO
 70
     1
  9
$DIMSHO
 70
     1
  9
$DIMPOST
  1

  9
$DIMAPOST
  1

  9
$DIMALT
 70
     0
  9
$DIMALTD
 70
     2
  9
$DIMALTF
 40
25.399999999999999
  9
$DIMLFAC
 40
1.0
  9
$DIMTOFL
 70
     0
  9
$DIMTVP
 40
0.0
  9
$DIMTIX
 70
     0
  9
$DIMSOXD
 70
     0
  9
$DIMSAH
 70
     0
  9
$DIMBLK1
  1

  9
$DIMBLK2
  1

  9
$DIMSTYLE
  2
STANDARD
  9
$DIMCLRD
 70
     0
  9
$DIMCLRE
 70
     0
  9
$DIMCLRT
 70
     0
  9
$DIMTFAC
 40
1.0
  9
$DIMGAP
 40
0.09
  9
$LUNITS
 70
     2
  9
$LUPREC
 70
     4
  9
$SKETCHINC
 40
0.1
  9
$FILLETRAD
 40
0.0
  9
$AUNITS
 70
     0
  9
$AUPREC
 70
     0
  9
$MENU
  1
.
  9
$ELEVATION
 40
0.0
  9
$PELEVATION
 40
0.0
  9
$THICKNESS
 40
0.0
  9
$LIMCHECK
 70
     0
  9
$BLIPMODE
 70
     0
  9
$CHAMFERA
 40
0.0
  9
$CHAMFERB
 40
0.0
  9
$SKPOLY
 70
     0
  9
$TDCREATE
 40
2444972.375
  9
$TDUPDATE
 40
2456571.2486531008
  9
$TDINDWG
 40
0.0000064236
  9
$TDUSRTIMER
 40
0.0000064236
  9
$USRTIMER
 70
     1
  9
$ANGBASE
 50
0.0
  9
$ANGDIR
 70
     0
  9
$PDMODE
 70
     0
  9
$PDSIZE
 40
0.0
  9
$PLINEWID
 40
0.0
  9
$COORDS
 70
     1
  9
$SPLFRAME
 70
     0
  9
$SPLINETYPE
 70
     6
  9
$SPLINESEGS
 70
     8
  9
$ATTDIA
 70
     0
  9
$ATTREQ
 70
     1
  9
$HANDLING
 70
     1
  9
$HANDSEED
  5
24B
  9
$SURFTAB1
 70
     6
  9
$SURFTAB2
 70
     6
  9
$SURFTYPE
 70
     6
  9
$SURFU
 70
     6
  9
$SURFV
 70
     6
  9
$UCSNAME
  2

  9
$UCSORG
 10
0.0
 20
0.0
 30
0.0
  9
$UCSXDIR
 10
1.0
 20
0.0
 30
0.0
  9
$UCSYDIR
 10
0.0
 20
1.0
 30
0.0
  9
$PUCSNAME
  2

  9
$PUCSORG
 10
0.0
 20
0.0
 30
0.0
  9
$PUCSXDIR
 10
1.0
 20
0.0
 30
0.0
  9
$PUCSYDIR
 10
0.0
 20
1.0
 30
0.0
  9
$USERI1
 70
     0
  9
$USERI2
 70
     0
  9
$USERI3
 70
     0
  9
$USERI4
 70
     0
  9
$USERI5
 70
     0
  9
$USERR1
 40
0.0
  9
$USERR2
 40
0.0
  9
$USERR3
 40
0.0
  9
$USERR4
 40
0.0
  9
$USERR5
 40
0.0
  9
$WORLDVIEW
 70
     1
  9
$SHADEDGE
 70
     3
  9
$SHADEDIF
 70
    70
  9
$TILEMODE
 70
     1
  9
$MAXACTVP
 70
    48
  9
$PLIMCHECK
 70
     0
  9
$PEXTMIN
 10
1.0000000000000000E+020
 20
1.0000000000000000E+020
 30
1.0000000000000000E+020
  9
$PEXTMAX
 10
-1.0000000000000000E+020
 20
-1.0000000000000000E+020
 30
-1.0000000000000000E+020
  9
$PLIMMIN
 10
0.0
 20
0.0
  9
$PLIMMAX
 10
12.0
 20
9.0
  9
$UNITMODE
 70
     0
  9
$VISRETAIN
 70
     1
  9
$PLINEGEN
 70
     0
  9
$PSLTSCALE
 70
     1
  0
ENDSEC
  0
SECTION
  2
TABLES
  0
TABLE
  2
VPORT
 70
     2
  0
VPORT
  2
*ACTIVE
 70
     0
 10
0.0
 20
0.0
 11
1.0
 21
1.0
 12
206.98016390466589
 22
148.7254999999999
 13
0.0
 23
0.0
 14
1.0
 24
1.0
 15
0.0
 25
0.0
 16
0.0
 26
0.0
 36
1.0
 17
0.0
 27
0.0
 37
0.0
 40
299.90589133425021
 41
2.2894736842105261
 42
50.0
 43
0.0
 44
0.0
 50
0.0
 51
0.0
 71
     0
 72
   100
 73
     1
 74
     1
 75
     0
 76
     0
 77
     0
 78
     0
  0
ENDTAB
  0
TABLE
  2
LTYPE
 70
     4
  0
LTYPE
  2
CONTINUOUS
 70
     0
  3
Solid line
 72
    65
 73
     0
 40
0.0
  0
LTYPE
  2
AIGENLINE001
 70
     0
  3
generate AI->DXF Converter
 72
    65
 73
     4
 40
5.8561449999999988
 49
3.5278
 49
-0.776115
 49
0.776115
 49
-0.776115
  0
LTYPE
  2
AIGENLINE002
 70
     0
  3
generate AI->DXF Converter
 72
    65
 73
     2
 40
1.5522299999999991
 49
0.776115
 49
-0.776115
  0
LTYPE
  2
AIGENLINE003
 70
     0
  3
generate AI->DXF Converter
 72
    65
 73
     6
 40
7.4083750000000004
 49
3.5278
 49
-0.776115
 49
0.776115
 49
-0.776115
 49
0.776115
 49
-0.776115
  0
ENDTAB
  0
TABLE
  2
LAYER
 70
     2
  0
LAYER
  2
0
 70
     0
 62
     7
  6
CONTINUOUS
  0
LAYER
  2
_________2
 70
     0
 62
     7
  6
CONTINUOUS
  0
ENDTAB
  0
TABLE
  2
STYLE
 70
     1
  0
STYLE
  2
STANDARD
 70
     0
 40
0.0
 41
0.0
 50
0.0
 71
     0
 42
0.0
  3
TXT
  4
EXTFONT.SHX
  0
ENDTAB
  0
TABLE
  2
VIEW
 70
     0
  0
ENDTAB
  0
TABLE
  2
UCS
 70
     0
  0
ENDTAB
  0
TABLE
  2
APPID
 70
     1
  0
APPID
  2
ACAD
 70
     0
  0
ENDTAB
  0
TABLE
  2
DIMSTYLE
 70
     1
  0
DIMSTYLE
  2
STANDARD
 70
     0
  3

  4

  5

  6

  7

 40
1.0
 41
0.18
 42
0.0625
 43
0.38
 44
0.18
 45
0.0
 46
0.0
 47
0.0
 48
0.0
140
0.18
141
0.09
142
0.0
143
25.399999999999999
144
1.0
145
0.0
146
1.0
147
0.09
 71
     0
 72
     0
 73
     1
 74
     1
 75
     0
 76
     0
 77
     0
 78
     0
170
     0
171
     2
172
     0
173
     0
174
     0
175
     0
176
     0
177
     0
178
     0
  0
ENDTAB
  0
ENDSEC
  0
SECTION
  2
BLOCKS
  0
BLOCK
  8
0
  2
$MODEL_SPACE
 70
     0
 10
0.0
 20
0.0
 30
0.0
  3
$MODEL_SPACE
  1

  0
ENDBLK
  5
1A
  8
0
  0
BLOCK
 67
     1
  8
0
  2
$PAPER_SPACE
 70
     0
 10
0.0
 20
0.0
 30
0.0
  3
$PAPER_SPACE
  1

  0
ENDBLK
  5
17
 67
     1
  8
0
  0
ENDSEC
  0
SECTION
  2
ENTITIES
  0
TEXT
  5
24
  8
0
 62
     7
 10
139.79975999999991
 20
168.4199999999999
 30
0.0
 40
3.0923400000000001
  1
カウンター切込寸法
 41
0.5
 72
     1
 11
148.04599999999991
 21
168.4199999999999
 31
0.0
  0
TEXT
  5
25
  8
0
 62
     7
 10
158.64917799999989
 20
201.155
 30
0.0
 40
3.0923400000000001
  1
排水口
 41
0.5
 72
     2
 11
163.69999999999999
 21
201.155
 31
0.0
  0
TEXT
  5
26
  8
0
 62
     7
 10
136.844965
 20
199.7949999999999
 30
0.0
 40
3.0923400000000001
  1
R10
 41
0.5
 72
     2
 11
140.19499999999999
 21
199.7949999999999
 31
0.0
  0
TEXT
  5
27
  8
0
 62
     7
 10
145.98444000000001
 20
181.14699999999999
 30
0.0
 40
3.0923400000000001
  1
455
 41
0.5
 72
     1
 11
148.04599999999991
 21
181.14699999999999
 31
0.0
  0
TEXT
  5
28
  8
0
 62
     7
 10
146.1132874999999
 20
187.607
 30
0.0
 40
3.0923400000000001
  1
340
 41
0.5
 72
     1
 11
148.04599999999991
 21
187.607
 31
0.0
  0
TEXT
  5
29
  8
0
 62
     7
 10
156.3286599999999
 20
233.69099999999989
 30
0.0
 40
3.0923400000000001
  1
227.5
 41
0.5
 72
     1
 11
159.42099999999991
 21
233.69099999999989
 31
0.0
  0
TEXT
  5
2A
  8
0
 62
     7
 10
113.9899999999999
 20
209.297135
 30
0.0
 40
3.0923400000000001
  1
300
 50
90.0
 41
0.5
 72
     1
 11
113.9899999999999
 21
211.10099999999991
 31
0.0
  0
TEXT
  5
2B
  8
0
 62
     7
 10
119.947
 20
215.22498250000001
 30
0.0
 40
3.0923400000000001
  1
180
 50
90.0
 41
0.5
 72
     1
 11
119.947
 21
216.90000000000001
 31
0.0
  0
TEXT
  5
2C
  8
0
 62
     7
 10
27.242799999999999
 20
111.92914999999989
 30
0.0
 40
3.0923400000000001
  1
max.38
 50
90.0
 41
0.5
 72
     2
 11
27.242799999999999
 21
119.6599999999999
 31
0.0
  0
TEXT
  5
2D
  8
0
 62
     7
 10
31.1082
 20
113.47532
 30
0.0
 40
3.0923400000000001
  1
min.12
 50
90.0
 41
0.5
 72
     2
 11
31.1082
 21
119.6599999999999
 31
0.0
  0
TEXT
  5
2E
  8
0
 62
     7
 10
137.31399999999999
 20
214.34613499999989
 30
0.0
 40
3.0923400000000001
  1
195
 50
90.0
 41
0.5
 72
     1
 11
137.31399999999999
 21
216.15000000000001
 31
0.0
  0
TEXT
  5
2F
  8
0
 62
     7
 10
176.311228
 20
201.15700000000001
 30
0.0
 40
3.0923400000000001
  1
（2ケ所）
 41
0.5
 72
     2
 11
183.93899999999999
 21
201.15700000000001
 31
0.0
  0
TEXT
  5
30
  8
0
 62
     7
 10
178.14696499999999
 20
206.31499999999991
 30
0.0
 40
3.0923400000000001
  1
%%c10
 41
0.5
 72
     2
 11
181.49700000000001
 21
206.31499999999991
 31
0.0
  0
TEXT
  5
31
  8
0
 62
     7
 10
73.804180000000002
 20
200.8059999999999
 30
0.0
 40
3.0923400000000001
  1
%%c46
 41
0.5
 72
     2
 11
77.927300000000002
 21
200.8059999999999
 31
0.0
  0
TEXT
  5
32
  8
0
 62
     7
 10
45.811100000000003
 20
236.31899999999999
 30
0.0
 40
3.0923400000000001
  1
%%c35
 41
0.5
  0
TEXT
  5
33
  8
0
 62
     7
 10
58.520829999999997
 20
240.02199999999999
 30
0.0
 40
3.0923400000000001
  1
100
 41
0.5
 72
     1
 11
60.067
 21
240.02199999999999
 31
0.0
  0
TEXT
  5
34
  8
0
 62
     7
 10
63.263334999999998
 20
169.12200000000001
 30
0.0
 40
3.0923400000000001
  1
600
 41
0.5
 72
     1
 11
65.0672
 21
169.12200000000001
 31
0.0
  0
TEXT
  5
35
  8
0
 62
     7
 10
63.134487499999999
 20
176.27399999999989
 30
0.0
 40
3.0923400000000001
  1
560
 41
0.5
 72
     1
 11
65.0672
 21
176.27399999999989
 31
0.0
  0
TEXT
  5
36
  8
0
 62
     7
 10
68.521329999999992
 20
240.02199999999999
 30
0.0
 40
3.0923400000000001
  1
100
 41
0.5
 72
     1
 11
70.067499999999995
 21
240.02199999999999
 31
0.0
  0
TEXT
  5
37
  8
0
 62
     7
 10
145.37200000000001
 20
115.9153725
 30
0.0
 40
3.0923400000000001
  1
90
 50
90.0
 41
0.5
 72
     1
 11
145.37200000000001
 21
117.0749999999999
 31
0.0
  0
TEXT
  5
38
  8
0
 62
     7
 10
28.754699999999989
 20
215.58843999999999
 30
0.0
 40
3.0923400000000001
  1
225
 50
90.0
 41
0.5
 72
     1
 11
28.754699999999989
 21
217.65000000000001
 31
0.0
  0
TEXT
  5
39
  8
0
 62
     7
 10
103.43899999999989
 20
113.09413499999999
 30
0.0
 40
3.0923400000000001
  1
135
 50
90.0
 41
0.5
 72
     1
 11
103.43899999999989
 21
114.8979999999999
 31
0.0
  0
TEXT
  5
3A
  8
0
 62
     7
 10
107.211
 20
205.96728749999991
 30
0.0
 40
3.0923400000000001
  1
420
 50
90.0
 41
0.5
 72
     1
 11
107.211
 21
207.90000000000001
 31
0.0
  0
TEXT
  5
3B
  8
0
 62
     7
 10
84.825699999999998
 20
217.861525
 30
0.0
 40
3.0923400000000001
  1
65
 50
90.0
 41
0.5
 72
     1
 11
84.825699999999998
 21
219.15000000000001
 31
0.0
  0
TEXT
  5
3C
  8
0
 62
     7
 10
84.825699999999998
 20
224.36152499999989
 30
0.0
 40
3.0923400000000001
  1
65
 50
90.0
 41
0.5
 72
     1
 11
84.825699999999998
 21
225.64999999999989
 31
0.0
  0
TEXT
  5
3D
  8
0
 62
     7
 10
101.12
 20
220.72498250000001
 30
0.0
 40
3.0923400000000001
  1
130
 50
90.0
 41
0.5
 72
     1
 11
101.12
 21
222.40000000000001
 31
0.0
  0
TEXT
  5
3E
  8
0
 62
     7
 10
101.12
 20
200.46728749999991
 30
0.0
 40
3.0923400000000001
  1
270
 50
90.0
 41
0.5
 72
     1
 11
101.12
 21
202.40000000000001
 31
0.0
  0
TEXT
  5
3F
  8
0
 62
     7
 10
157.23343999999989
 20
98.964399999999998
 30
0.0
 40
3.0923400000000001
  1
225
 41
0.5
 72
     1
 11
159.2949999999999
 21
98.964399999999998
 31
0.0
  0
LINE
  5
40
  8
0
 62
     7
 10
150.29599999999991
 20
103.848
 30
0.0
 11
148.79599999999991
 21
103.848
 31
0.0
  0
LINE
  5
41
  8
0
 62
     7
 10
148.79599999999991
 20
103.848
 30
0.0
 11
148.79599999999991
 21
104.047
 31
0.0
  0
LINE
  5
42
  8
0
 62
     7
 10
148.79599999999991
 20
104.047
 30
0.0
 11
150.29599999999991
 21
104.047
 31
0.0
  0
LINE
  5
43
  8
0
 62
     7
 10
150.29599999999991
 20
104.047
 30
0.0
 11
150.29599999999991
 21
103.848
 31
0.0
  0
LINE
  5
44
  8
0
 62
     7
 10
150.5449999999999
 20
104.047
 30
0.0
 11
148.54599999999991
 21
104.047
 31
0.0
  0
LINE
  5
45
  8
0
 62
     7
 10
148.54599999999991
 20
104.047
 30
0.0
 11
148.54599999999991
 21
104.34699999999999
 31
0.0
  0
LINE
  5
46
  8
0
 62
     7
 10
148.54599999999991
 20
104.34699999999999
 30
0.0
 11
150.5449999999999
 21
104.34699999999999
 31
0.0
  0
LINE
  5
47
  8
0
 62
     7
 10
150.5449999999999
 20
104.34699999999999
 30
0.0
 11
150.5449999999999
 21
104.047
 31
0.0
  0
LINE
  5
48
  8
0
 62
     7
 10
149.99600000000001
 20
104.34699999999999
 30
0.0
 11
149.096
 21
104.34699999999999
 31
0.0
  0
LINE
  5
49
  8
0
 62
     7
 10
149.096
 20
104.34699999999999
 30
0.0
 11
149.096
 21
104.747
 31
0.0
  0
LINE
  5
4A
  8
0
 62
     7
 10
149.096
 20
104.747
 30
0.0
 11
149.99600000000001
 21
104.747
 31
0.0
  0
LINE
  5
4B
  8
0
 62
     7
 10
149.99600000000001
 20
104.747
 30
0.0
 11
149.99600000000001
 21
104.34699999999999
 31
0.0
  0
LINE
  5
4C
  8
0
 62
     7
 10
150.04599999999991
 20
107.447
 30
0.0
 11
149.0449999999999
 21
107.447
 31
0.0
  0
LINE
  5
4D
  8
0
 62
     7
 10
149.0449999999999
 20
107.447
 30
0.0
 11
149.0449999999999
 21
107.947
 31
0.0
  0
LINE
  5
4E
  8
0
 62
     7
 10
149.0449999999999
 20
107.947
 30
0.0
 11
150.04599999999991
 21
107.947
 31
0.0
  0
LINE
  5
4F
  8
0
 62
     7
 10
150.04599999999991
 20
107.947
 30
0.0
 11
150.04599999999991
 21
107.447
 31
0.0
  0
LINE
  5
50
  8
0
 62
     7
 10
150.79599999999991
 20
107.947
 30
0.0
 11
148.29599999999999
 21
107.947
 31
0.0
  0
LINE
  5
51
  8
0
 62
     7
 10
148.29599999999999
 20
107.947
 30
0.0
 11
148.29599999999999
 21
108.14700000000001
 31
0.0
  0
LINE
  5
52
  8
0
 62
     7
 10
148.29599999999999
 20
108.14700000000001
 30
0.0
 11
150.79599999999991
 21
108.14700000000001
 31
0.0
  0
LINE
  5
53
  8
0
 62
     7
 10
150.79599999999991
 20
108.14700000000001
 30
0.0
 11
150.79599999999991
 21
107.947
 31
0.0
  0
LINE
  5
54
  8
0
 62
     7
 10
149.245
 20
107.2789999999999
 30
0.0
 11
149.846
 21
107.36
 31
0.0
  0
LINE
  5
55
  8
0
 62
     7
 10
149.245
 20
106.92399999999989
 30
0.0
 11
149.846
 21
107.0049999999999
 31
0.0
  0
LINE
  5
56
  8
0
 62
     7
 10
149.245
 20
106.56999999999989
 30
0.0
 11
149.846
 21
106.651
 31
0.0
  0
LINE
  5
57
  8
0
 62
     7
 10
149.245
 20
106.21599999999989
 30
0.0
 11
149.846
 21
106.297
 31
0.0
  0
LINE
  5
58
  8
0
 62
     7
 10
149.245
 20
105.86199999999999
 30
0.0
 11
149.846
 21
105.943
 31
0.0
  0
LINE
  5
59
  8
0
 62
     7
 10
149.245
 20
105.508
 30
0.0
 11
149.846
 21
105.5889999999999
 31
0.0
  0
LINE
  5
5A
  8
0
 62
     7
 10
149.245
 20
105.1539999999999
 30
0.0
 11
149.846
 21
105.235
 31
0.0
  0
LINE
  5
5B
  8
0
 62
     7
 10
149.245
 20
104.79899999999989
 30
0.0
 11
149.846
 21
104.8799999999999
 31
0.0
  0
LINE
  5
5C
  8
0
 62
     7
 10
149.846
 20
107.447
 30
0.0
 11
149.846
 21
104.747
 31
0.0
  0
LINE
  5
5D
  8
0
 62
     7
 10
149.846
 20
104.747
 30
0.0
 11
149.245
 21
104.747
 31
0.0
  0
LINE
  5
5E
  8
0
 62
     7
 10
149.245
 20
104.747
 30
0.0
 11
149.245
 21
107.447
 31
0.0
  0
LINE
  5
5F
  8
0
  6
AIGENLINE001
 62
     7
 10
149.54599999999999
 20
103.45099999999999
 30
0.0
 11
149.54599999999999
 21
108.59099999999999
 31
0.0
  0
LINE
  5
60
  8
0
 62
     7
 10
43.067100000000003
 20
103.848
 30
0.0
 11
41.567100000000003
 21
103.848
 31
0.0
  0
LINE
  5
61
  8
0
 62
     7
 10
41.567100000000003
 20
103.848
 30
0.0
 11
41.567100000000003
 21
104.047
 31
0.0
  0
LINE
  5
62
  8
0
 62
     7
 10
41.567100000000003
 20
104.047
 30
0.0
 11
43.067100000000003
 21
104.047
 31
0.0
  0
LINE
  5
63
  8
0
 62
     7
 10
43.067100000000003
 20
104.047
 30
0.0
 11
43.067100000000003
 21
103.848
 31
0.0
  0
LINE
  5
64
  8
0
 62
     7
 10
43.317
 20
104.047
 30
0.0
 11
41.31689999999999
 21
104.047
 31
0.0
  0
LINE
  5
65
  8
0
 62
     7
 10
41.31689999999999
 20
104.047
 30
0.0
 11
41.31689999999999
 21
104.34699999999999
 31
0.0
  0
LINE
  5
66
  8
0
 62
     7
 10
41.31689999999999
 20
104.34699999999999
 30
0.0
 11
43.317
 21
104.34699999999999
 31
0.0
  0
LINE
  5
67
  8
0
 62
     7
 10
43.317
 20
104.34699999999999
 30
0.0
 11
43.317
 21
104.047
 31
0.0
  0
LINE
  5
68
  8
0
 62
     7
 10
42.766999999999989
 20
104.34699999999999
 30
0.0
 11
41.866999999999997
 21
104.34699999999999
 31
0.0
  0
LINE
  5
69
  8
0
 62
     7
 10
41.866999999999997
 20
104.34699999999999
 30
0.0
 11
41.866999999999997
 21
104.747
 31
0.0
  0
LINE
  5
6A
  8
0
 62
     7
 10
41.866999999999997
 20
104.747
 30
0.0
 11
42.766999999999989
 21
104.747
 31
0.0
  0
LINE
  5
6B
  8
0
 62
     7
 10
42.766999999999989
 20
104.747
 30
0.0
 11
42.766999999999989
 21
104.34699999999999
 31
0.0
  0
LINE
  5
6C
  8
0
 62
     7
 10
42.816999999999993
 20
107.447
 30
0.0
 11
41.817
 21
107.447
 31
0.0
  0
LINE
  5
6D
  8
0
 62
     7
 10
41.817
 20
107.447
 30
0.0
 11
41.817
 21
107.947
 31
0.0
  0
LINE
  5
6E
  8
0
 62
     7
 10
41.817
 20
107.947
 30
0.0
 11
42.816999999999993
 21
107.947
 31
0.0
  0
LINE
  5
6F
  8
0
 62
     7
 10
42.816999999999993
 20
107.947
 30
0.0
 11
42.816999999999993
 21
107.447
 31
0.0
  0
LINE
  5
70
  8
0
 62
     7
 10
43.567
 20
107.947
 30
0.0
 11
41.067
 21
107.947
 31
0.0
  0
LINE
  5
71
  8
0
 62
     7
 10
41.067
 20
107.947
 30
0.0
 11
41.067
 21
108.14700000000001
 31
0.0
  0
LINE
  5
72
  8
0
 62
     7
 10
41.067
 20
108.14700000000001
 30
0.0
 11
43.567
 21
108.14700000000001
 31
0.0
  0
LINE
  5
73
  8
0
 62
     7
 10
43.567
 20
108.14700000000001
 30
0.0
 11
43.567
 21
107.947
 31
0.0
  0
LINE
  5
74
  8
0
 62
     7
 10
42.016800000000003
 20
107.2789999999999
 30
0.0
 11
42.617099999999994
 21
107.36
 31
0.0
  0
LINE
  5
75
  8
0
 62
     7
 10
42.016800000000003
 20
106.92399999999989
 30
0.0
 11
42.617099999999994
 21
107.0049999999999
 31
0.0
  0
LINE
  5
76
  8
0
 62
     7
 10
42.016800000000003
 20
106.56999999999989
 30
0.0
 11
42.617099999999994
 21
106.651
 31
0.0
  0
LINE
  5
77
  8
0
 62
     7
 10
42.016800000000003
 20
106.21599999999989
 30
0.0
 11
42.617099999999994
 21
106.297
 31
0.0
  0
LINE
  5
78
  8
0
 62
     7
 10
42.016800000000003
 20
105.86199999999999
 30
0.0
 11
42.617099999999994
 21
105.943
 31
0.0
  0
LINE
  5
79
  8
0
 62
     7
 10
42.016800000000003
 20
105.508
 30
0.0
 11
42.617099999999994
 21
105.5889999999999
 31
0.0
  0
LINE
  5
7A
  8
0
 62
     7
 10
42.016800000000003
 20
105.1539999999999
 30
0.0
 11
42.617099999999994
 21
105.235
 31
0.0
  0
LINE
  5
7B
  8
0
 62
     7
 10
42.016800000000003
 20
104.79899999999989
 30
0.0
 11
42.617099999999994
 21
104.8799999999999
 31
0.0
  0
LINE
  5
7C
  8
0
 62
     7
 10
42.617099999999994
 20
107.447
 30
0.0
 11
42.617099999999994
 21
104.747
 31
0.0
  0
LINE
  5
7D
  8
0
 62
     7
 10
42.617099999999994
 20
104.747
 30
0.0
 11
42.016800000000003
 21
104.747
 31
0.0
  0
LINE
  5
7E
  8
0
 62
     7
 10
42.016800000000003
 20
104.747
 30
0.0
 11
42.016800000000003
 21
107.447
 31
0.0
  0
LINE
  5
7F
  8
0
  6
AIGENLINE001
 62
     7
 10
42.317100000000003
 20
103.45099999999999
 30
0.0
 11
42.317100000000003
 21
108.59099999999999
 31
0.0
  0
LINE
  5
80
  8
0
 62
     7
 10
88.567400000000006
 20
103.848
 30
0.0
 11
87.067400000000006
 21
103.848
 31
0.0
  0
LINE
  5
81
  8
0
 62
     7
 10
87.067400000000006
 20
103.848
 30
0.0
 11
87.067400000000006
 21
104.047
 31
0.0
  0
LINE
  5
82
  8
0
 62
     7
 10
87.067400000000006
 20
104.047
 30
0.0
 11
88.567400000000006
 21
104.047
 31
0.0
  0
LINE
  5
83
  8
0
 62
     7
 10
88.567400000000006
 20
104.047
 30
0.0
 11
88.567400000000006
 21
103.848
 31
0.0
  0
LINE
  5
84
  8
0
 62
     7
 10
88.817400000000006
 20
104.047
 30
0.0
 11
86.817299999999989
 21
104.047
 31
0.0
  0
LINE
  5
85
  8
0
 62
     7
 10
86.817299999999989
 20
104.047
 30
0.0
 11
86.817299999999989
 21
104.34699999999999
 31
0.0
  0
LINE
  5
86
  8
0
 62
     7
 10
86.817299999999989
 20
104.34699999999999
 30
0.0
 11
88.817400000000006
 21
104.34699999999999
 31
0.0
  0
LINE
  5
87
  8
0
 62
     7
 10
88.817400000000006
 20
104.34699999999999
 30
0.0
 11
88.817400000000006
 21
104.047
 31
0.0
  0
LINE
  5
88
  8
0
 62
     7
 10
88.267300000000006
 20
104.34699999999999
 30
0.0
 11
87.367299999999986
 21
104.34699999999999
 31
0.0
  0
LINE
  5
89
  8
0
 62
     7
 10
87.367299999999986
 20
104.34699999999999
 30
0.0
 11
87.367299999999986
 21
104.747
 31
0.0
  0
LINE
  5
8A
  8
0
 62
     7
 10
87.367299999999986
 20
104.747
 30
0.0
 11
88.267300000000006
 21
104.747
 31
0.0
  0
LINE
  5
8B
  8
0
 62
     7
 10
88.267300000000006
 20
104.747
 30
0.0
 11
88.267300000000006
 21
104.34699999999999
 31
0.0
  0
LINE
  5
8C
  8
0
 62
     7
 10
88.317300000000003
 20
107.447
 30
0.0
 11
87.317400000000006
 21
107.447
 31
0.0
  0
LINE
  5
8D
  8
0
 62
     7
 10
87.317400000000006
 20
107.447
 30
0.0
 11
87.317400000000006
 21
107.947
 31
0.0
  0
LINE
  5
8E
  8
0
 62
     7
 10
87.317400000000006
 20
107.947
 30
0.0
 11
88.317300000000003
 21
107.947
 31
0.0
  0
LINE
  5
8F
  8
0
 62
     7
 10
88.317300000000003
 20
107.947
 30
0.0
 11
88.317300000000003
 21
107.447
 31
0.0
  0
LINE
  5
90
  8
0
 62
     7
 10
89.067300000000003
 20
107.947
 30
0.0
 11
86.567400000000006
 21
107.947
 31
0.0
  0
LINE
  5
91
  8
0
 62
     7
 10
86.567400000000006
 20
107.947
 30
0.0
 11
86.567400000000006
 21
108.14700000000001
 31
0.0
  0
LINE
  5
92
  8
0
 62
     7
 10
86.567400000000006
 20
108.14700000000001
 30
0.0
 11
89.067300000000003
 21
108.14700000000001
 31
0.0
  0
LINE
  5
93
  8
0
 62
     7
 10
89.067300000000003
 20
108.14700000000001
 30
0.0
 11
89.067300000000003
 21
107.947
 31
0.0
  0
LINE
  5
94
  8
0
 62
     7
 10
87.517200000000003
 20
107.2789999999999
 30
0.0
 11
88.117500000000007
 21
107.36
 31
0.0
  0
LINE
  5
95
  8
0
 62
     7
 10
87.517200000000003
 20
106.92399999999989
 30
0.0
 11
88.117500000000007
 21
107.0049999999999
 31
0.0
  0
LINE
  5
96
  8
0
 62
     7
 10
87.517200000000003
 20
106.56999999999989
 30
0.0
 11
88.117500000000007
 21
106.651
 31
0.0
  0
LINE
  5
97
  8
0
 62
     7
 10
87.517200000000003
 20
106.21599999999989
 30
0.0
 11
88.117500000000007
 21
106.297
 31
0.0
  0
LINE
  5
98
  8
0
 62
     7
 10
87.517200000000003
 20
105.86199999999999
 30
0.0
 11
88.117500000000007
 21
105.943
 31
0.0
  0
LINE
  5
99
  8
0
 62
     7
 10
87.517200000000003
 20
105.508
 30
0.0
 11
88.117500000000007
 21
105.5889999999999
 31
0.0
  0
LINE
  5
9A
  8
0
 62
     7
 10
87.517200000000003
 20
105.1539999999999
 30
0.0
 11
88.117500000000007
 21
105.235
 31
0.0
  0
LINE
  5
9B
  8
0
 62
     7
 10
87.517200000000003
 20
104.79899999999989
 30
0.0
 11
88.117500000000007
 21
104.8799999999999
 31
0.0
  0
LINE
  5
9C
  8
0
 62
     7
 10
88.117500000000007
 20
107.447
 30
0.0
 11
88.117500000000007
 21
104.747
 31
0.0
  0
LINE
  5
9D
  8
0
 62
     7
 10
88.117500000000007
 20
104.747
 30
0.0
 11
87.517200000000003
 21
104.747
 31
0.0
  0
LINE
  5
9E
  8
0
 62
     7
 10
87.517200000000003
 20
104.747
 30
0.0
 11
87.517200000000003
 21
107.447
 31
0.0
  0
LINE
  5
9F
  8
0
  6
AIGENLINE001
 62
     7
 10
87.817400000000006
 20
103.45099999999999
 30
0.0
 11
87.817400000000006
 21
108.59099999999999
 31
0.0
  0
ARC
  5
A0
  8
0
 62
     7
 10
170.02680699999999
 20
121.1288659999999
 30
0.0
 40
0.519249
 50
2.0999370000000002
 51
87.939526000000001
  0
LINE
  5
A1
  8
0
 62
     7
 10
163.69999999999999
 20
200.45500000000001
 30
0.0
 11
153.988
 21
200.45500000000001
 31
0.0
  0
LINE
  5
A2
  8
0
 62
     7
 10
140.19499999999999
 20
199.09499999999991
 30
0.0
 11
134.24100000000001
 21
199.09499999999991
 31
0.0
  0
LINE
  5
A3
  8
0
 62
     7
 10
152.50200000000001
 20
202.78
 30
0.0
 11
150.52000000000001
 21
203.92500000000001
 31
0.0
  0
LINE
  5
A4
  8
0
 62
     7
 10
150.52000000000001
 20
203.92500000000001
 30
0.0
 11
151.6639999999999
 21
201.94200000000001
 31
0.0
  0
LINE
  5
A5
  8
0
 62
     7
 10
151.6639999999999
 20
201.94200000000001
 30
0.0
 11
152.50200000000001
 21
202.78
 31
0.0
  0
LINE
  5
A6
  8
0
 62
     7
 10
150.52000000000001
 20
203.92500000000001
 30
0.0
 11
153.988
 21
200.45500000000001
 31
0.0
  0
LINE
  5
A7
  8
0
 62
     7
 10
132.483
 20
198.1759999999999
 30
0.0
 11
131.33799999999991
 21
196.1929999999999
 31
0.0
  0
LINE
  5
A8
  8
0
 62
     7
 10
131.33799999999991
 20
196.1929999999999
 30
0.0
 11
133.321
 21
197.33799999999991
 31
0.0
  0
LINE
  5
A9
  8
0
 62
     7
 10
133.321
 20
197.33799999999991
 30
0.0
 11
132.483
 21
198.1759999999999
 31
0.0
  0
LINE
  5
AA
  8
0
 62
     7
 10
131.33799999999991
 20
196.1929999999999
 30
0.0
 11
134.24100000000001
 21
199.09499999999991
 31
0.0
  0
LINE
  5
AB
  8
0
 62
     7
 10
32.206299999999992
 20
102.136
 30
0.0
 11
31.613800000000001
 21
104.3479999999999
 31
0.0
  0
LINE
  5
AC
  8
0
 62
     7
 10
31.613800000000001
 20
104.3479999999999
 30
0.0
 11
31.0212
 21
102.136
 31
0.0
  0
LINE
  5
AD
  8
0
 62
     7
 10
31.0212
 20
102.136
 30
0.0
 11
32.206299999999992
 21
102.136
 31
0.0
  0
LINE
  5
AE
  8
0
 62
     7
 10
31.0212
 20
110.3599999999999
 30
0.0
 11
31.613800000000001
 21
108.1479999999999
 31
0.0
  0
LINE
  5
AF
  8
0
 62
     7
 10
31.613800000000001
 20
108.1479999999999
 30
0.0
 11
32.206299999999992
 21
110.3599999999999
 31
0.0
  0
LINE
  5
B0
  8
0
 62
     7
 10
32.206299999999992
 20
110.3599999999999
 30
0.0
 11
31.0212
 21
110.3599999999999
 31
0.0
  0
LINE
  5
B1
  8
0
 62
     7
 10
31.613800000000001
 20
119.6599999999999
 30
0.0
 11
31.613800000000001
 21
100.744
 31
0.0
  0
LINE
  5
B2
  8
0
 62
     7
 10
138.5989999999999
 20
223.68899999999999
 30
0.0
 11
138.00700000000001
 21
225.89999999999989
 31
0.0
  0
LINE
  5
B3
  8
0
 62
     7
 10
138.00700000000001
 20
225.89999999999989
 30
0.0
 11
137.4139999999999
 21
223.68899999999999
 31
0.0
  0
LINE
  5
B4
  8
0
 62
     7
 10
137.4139999999999
 20
223.68899999999999
 30
0.0
 11
138.5989999999999
 21
223.68899999999999
 31
0.0
  0
LINE
  5
B5
  8
0
 62
     7
 10
137.42799999999991
 20
208.61099999999999
 30
0.0
 11
138.02099999999999
 21
206.40000000000001
 31
0.0
  0
LINE
  5
B6
  8
0
 62
     7
 10
138.02099999999999
 20
206.40000000000001
 30
0.0
 11
138.614
 21
208.61099999999999
 31
0.0
  0
LINE
  5
B7
  8
0
 62
     7
 10
138.614
 20
208.61099999999999
 30
0.0
 11
137.42799999999991
 21
208.61099999999999
 31
0.0
  0
LINE
  5
B8
  8
0
 62
     7
 10
138.01400000000001
 20
225.89999999999989
 30
0.0
 11
138.01400000000001
 21
206.40000000000001
 31
0.0
  0
LINE
  5
B9
  8
0
 62
     7
 10
142.27199999999999
 20
206.40000000000001
 30
0.0
 11
137.31399999999999
 21
206.40000000000001
 31
0.0
  0
LINE
  5
BA
  8
0
 62
     7
 10
183.0509999999999
 20
205.125
 30
0.0
 11
173.571
 21
205.125
 31
0.0
  0
LINE
  5
BB
  8
0
 62
     7
 10
173.13200000000001
 20
206.40199999999999
 30
0.0
 11
171.14899999999989
 21
207.547
 31
0.0
  0
LINE
  5
BC
  8
0
 62
     7
 10
171.14899999999989
 20
207.547
 30
0.0
 11
172.29400000000001
 21
205.56399999999999
 31
0.0
  0
LINE
  5
BD
  8
0
 62
     7
 10
172.29400000000001
 20
205.56399999999999
 30
0.0
 11
173.13200000000001
 21
206.40199999999999
 31
0.0
  0
LINE
  5
BE
  8
0
 62
     7
 10
168.459
 20
209.399
 30
0.0
 11
170.44200000000001
 21
208.25399999999999
 31
0.0
  0
LINE
  5
BF
  8
0
 62
     7
 10
170.44200000000001
 20
208.25399999999999
 30
0.0
 11
169.297
 21
210.23699999999999
 31
0.0
  0
LINE
  5
C0
  8
0
 62
     7
 10
169.297
 20
210.23699999999999
 30
0.0
 11
168.459
 21
209.399
 31
0.0
  0
LINE
  5
C1
  8
0
 62
     7
 10
167.619
 20
211.077
 30
0.0
 11
173.571
 21
205.125
 31
0.0
  0
LINE
  5
C2
  8
0
 62
     7
 10
168.58500000000001
 20
232.40599999999989
 30
0.0
 11
170.79699999999991
 21
232.999
 31
0.0
  0
LINE
  5
C3
  8
0
 62
     7
 10
170.79699999999991
 20
232.999
 30
0.0
 11
168.58500000000001
 21
233.59099999999989
 31
0.0
  0
LINE
  5
C4
  8
0
 62
     7
 10
168.58500000000001
 20
233.59099999999989
 30
0.0
 11
168.58500000000001
 21
232.40599999999989
 31
0.0
  0
LINE
  5
C5
  8
0
 62
     7
 10
150.256
 20
233.577
 30
0.0
 11
148.0449999999999
 21
232.98400000000001
 31
0.0
  0
LINE
  5
C6
  8
0
 62
     7
 10
148.0449999999999
 20
232.98400000000001
 30
0.0
 11
150.256
 21
232.392
 31
0.0
  0
LINE
  5
C7
  8
0
 62
     7
 10
150.256
 20
232.392
 30
0.0
 11
150.256
 21
233.577
 31
0.0
  0
LINE
  5
C8
  8
0
 62
     7
 10
170.79599999999991
 20
232.9909999999999
 30
0.0
 11
148.04599999999991
 21
232.9909999999999
 31
0.0
  0
LINE
  5
C9
  8
0
 62
     7
 10
148.04599999999991
 20
228.8609999999999
 30
0.0
 11
148.04599999999991
 21
233.69099999999989
 31
0.0
  0
LINE
  5
CA
  8
0
 62
     7
 10
170.79599999999991
 20
209.72499999999991
 30
0.0
 11
170.79599999999991
 21
233.69099999999989
 31
0.0
  0
LINE
  5
CB
  8
0
 62
     7
 10
115.27500000000001
 20
223.68999999999991
 30
0.0
 11
114.6819999999999
 21
225.9009999999999
 31
0.0
  0
LINE
  5
CC
  8
0
 62
     7
 10
114.6819999999999
 20
225.9009999999999
 30
0.0
 11
114.09
 21
223.68999999999991
 31
0.0
  0
LINE
  5
CD
  8
0
 62
     7
 10
114.09
 20
223.68999999999991
 30
0.0
 11
115.27500000000001
 21
223.68999999999991
 31
0.0
  0
LINE
  5
CE
  8
0
 62
     7
 10
114.104
 20
198.1109999999999
 30
0.0
 11
114.697
 21
195.89999999999989
 31
0.0
  0
LINE
  5
CF
  8
0
 62
     7
 10
114.697
 20
195.89999999999989
 30
0.0
 11
115.2889999999999
 21
198.1109999999999
 31
0.0
  0
LINE
  5
D0
  8
0
 62
     7
 10
115.2889999999999
 20
198.1109999999999
 30
0.0
 11
114.104
 21
198.1109999999999
 31
0.0
  0
LINE
  5
D1
  8
0
 62
     7
 10
114.69
 20
225.89999999999989
 30
0.0
 11
114.69
 21
195.89999999999989
 31
0.0
  0
LINE
  5
D2
  8
0
 62
     7
 10
130.34499999999991
 20
195.89999999999989
 30
0.0
 11
113.9899999999999
 21
195.89999999999989
 31
0.0
  0
LINE
  5
D3
  8
0
 62
     7
 10
121.2329999999999
 20
223.68999999999991
 30
0.0
 11
120.64
 21
225.90199999999999
 31
0.0
  0
LINE
  5
D4
  8
0
 62
     7
 10
120.64
 20
225.90199999999999
 30
0.0
 11
120.0479999999999
 21
223.68999999999991
 31
0.0
  0
LINE
  5
D5
  8
0
 62
     7
 10
120.0479999999999
 20
223.68999999999991
 30
0.0
 11
121.2329999999999
 21
223.68999999999991
 31
0.0
  0
LINE
  5
D6
  8
0
 62
     7
 10
120.062
 20
210.1109999999999
 30
0.0
 11
120.655
 21
207.90000000000001
 31
0.0
  0
LINE
  5
D7
  8
0
 62
     7
 10
120.655
 20
207.90000000000001
 30
0.0
 11
121.247
 21
210.1109999999999
 31
0.0
  0
LINE
  5
D8
  8
0
 62
     7
 10
121.247
 20
210.1109999999999
 30
0.0
 11
120.062
 21
210.1109999999999
 31
0.0
  0
LINE
  5
D9
  8
0
 62
     7
 10
120.64700000000001
 20
225.9009999999999
 30
0.0
 11
120.64700000000001
 21
207.90000000000001
 31
0.0
  0
LINE
  5
DA
  8
0
 62
     7
 10
130.34499999999991
 20
225.89999999999989
 30
0.0
 11
113.9899999999999
 21
225.89999999999989
 31
0.0
  0
LINE
  5
DB
  8
0
 62
     7
 10
123.3829999999999
 20
207.90000000000001
 30
0.0
 11
119.947
 21
207.90000000000001
 31
0.0
  0
LINE
  5
DC
  8
0
 62
     7
 10
133.25599999999989
 20
187.49199999999999
 30
0.0
 11
131.0449999999999
 21
186.89999999999989
 31
0.0
  0
LINE
  5
DD
  8
0
 62
     7
 10
131.0449999999999
 20
186.89999999999989
 30
0.0
 11
133.25599999999989
 21
186.30699999999999
 31
0.0
  0
LINE
  5
DE
  8
0
 62
     7
 10
133.25599999999989
 20
186.30699999999999
 30
0.0
 11
133.25599999999989
 21
187.49199999999999
 31
0.0
  0
LINE
  5
DF
  8
0
 62
     7
 10
162.83600000000001
 20
186.322
 30
0.0
 11
165.047
 21
186.91399999999999
 31
0.0
  0
LINE
  5
E0
  8
0
 62
     7
 10
165.047
 20
186.91399999999999
 30
0.0
 11
162.83600000000001
 21
187.50700000000001
 31
0.0
  0
LINE
  5
E1
  8
0
 62
     7
 10
162.83600000000001
 20
187.50700000000001
 30
0.0
 11
162.83600000000001
 21
186.322
 31
0.0
  0
LINE
  5
E2
  8
0
 62
     7
 10
131.0449999999999
 20
186.90700000000001
 30
0.0
 11
165.04599999999991
 21
186.90700000000001
 31
0.0
  0
LINE
  5
E3
  8
0
 62
     7
 10
165.04599999999991
 20
195.214
 30
0.0
 11
165.04599999999991
 21
186.20699999999991
 31
0.0
  0
LINE
  5
E4
  8
0
 62
     7
 10
131.0449999999999
 20
195.214
 30
0.0
 11
131.0449999999999
 21
186.20699999999991
 31
0.0
  0
LINE
  5
E5
  8
0
 62
     7
 10
168.58500000000001
 20
179.86199999999991
 30
0.0
 11
170.79699999999991
 21
180.45400000000001
 31
0.0
  0
LINE
  5
E6
  8
0
 62
     7
 10
170.79699999999991
 20
180.45400000000001
 30
0.0
 11
168.58500000000001
 21
181.047
 31
0.0
  0
LINE
  5
E7
  8
0
 62
     7
 10
168.58500000000001
 20
181.047
 30
0.0
 11
168.58500000000001
 21
179.86199999999991
 31
0.0
  0
LINE
  5
E8
  8
0
 62
     7
 10
127.506
 20
181.03200000000001
 30
0.0
 11
125.295
 21
180.44
 31
0.0
  0
LINE
  5
E9
  8
0
 62
     7
 10
125.295
 20
180.44
 30
0.0
 11
127.506
 21
179.84700000000001
 31
0.0
  0
LINE
  5
EA
  8
0
 62
     7
 10
127.506
 20
179.84700000000001
 30
0.0
 11
127.506
 21
181.03200000000001
 31
0.0
  0
LINE
  5
EB
  8
0
 62
     7
 10
170.79599999999991
 20
180.447
 30
0.0
 11
125.295
 21
180.447
 31
0.0
  0
LINE
  5
EC
  8
0
 62
     7
 10
170.79599999999991
 20
179.74700000000001
 30
0.0
 11
170.79599999999991
 21
205.95699999999991
 31
0.0
  0
LINE
  5
ED
  8
0
  6
AIGENLINE001
 62
     7
 10
170.79599999999991
 20
209.02500000000001
 30
0.0
 11
170.79599999999991
 21
206.65700000000001
 31
0.0
  0
LINE
  5
EE
  8
0
  6
AIGENLINE001
 62
     7
 10
169.584
 20
207.90000000000001
 30
0.0
 11
171.87700000000001
 21
207.90000000000001
 31
0.0
  0
ARC
  5
EF
  8
0
 62
     7
 10
170.776276
 20
207.88141499999989
 30
0.0
 40
0.519436
 50
2.0972970000000002
 51
87.843451999999999
  0
ARC
  5
F0
  8
0
 62
     7
 10
170.79573599999989
 20
207.90033799999989
 30
0.0
 40
0.500145
 50
89.990132999999986
 51
179.99010399999989
  0
ARC
  5
F1
  8
0
 62
     7
 10
170.81450699999999
 20
207.919466
 30
0.0
 40
0.5192640000000001
 50
182.10154299999991
 51
267.93795999999998
  0
ARC
  5
F2
  8
0
 62
     7
 10
170.77731099999991
 20
207.91857899999991
 30
0.0
 40
0.5183720000000001
 50
272.04653300000001
 51
357.99297799999999
  0
LINE
  5
F3
  8
0
 62
     7
 10
125.295
 20
179.74700000000001
 30
0.0
 11
125.295
 21
205.95699999999991
 31
0.0
  0
LINE
  5
F4
  8
0
  6
AIGENLINE001
 62
     7
 10
125.295
 20
209.02500000000001
 30
0.0
 11
125.295
 21
206.65700000000001
 31
0.0
  0
LINE
  5
F5
  8
0
  6
AIGENLINE001
 62
     7
 10
124.083
 20
207.90000000000001
 30
0.0
 11
126.377
 21
207.90000000000001
 31
0.0
  0
ARC
  5
F6
  8
0
  6
AIGENLINE002
 62
     7
 10
147.91137499999991
 20
206.2659699999999
 30
0.0
 40
3.636995999999999
 50
2.118552999999999
 51
87.884256000000008
  0
ARC
  5
F7
  8
0
  6
AIGENLINE002
 62
     7
 10
148.04556099999999
 20
206.40033399999999
 30
0.0
 40
3.5001540000000002
 50
89.998589999999993
 51
179.99856
  0
ARC
  5
F8
  8
0
  6
AIGENLINE002
 62
     7
 10
148.045646
 20
206.40041999999991
 30
0.0
 40
3.5002390000000001
 50
179.99996999999991
 51
270.00002000000001
  0
ARC
  5
F9
  8
0
  6
AIGENLINE002
 62
     7
 10
147.91197500000001
 20
206.5340919999999
 30
0.0
 40
3.636368
 50
272.10665199999988
 51
357.89335799999998
  0
LINE
  5
FA
  8
0
  6
AIGENLINE001
 62
     7
 10
142.97200000000001
 20
206.40000000000001
 30
0.0
 11
153.059
 21
206.40000000000001
 31
0.0
  0
LINE
  5
FB
  8
0
  6
AIGENLINE002
 62
     7
 10
167.54599999999991
 20
104.3479999999999
 30
0.0
 11
167.54599999999991
 21
108.1479999999999
 31
0.0
  0
LINE
  5
FC
  8
0
  6
AIGENLINE002
 62
     7
 10
137.54599999999991
 20
104.3479999999999
 30
0.0
 11
137.54599999999991
 21
108.1479999999999
 31
0.0
  0
LINE
  5
FD
  8
0
  6
AIGENLINE002
 62
     7
 10
82.067499999999995
 20
104.3479999999999
 30
0.0
 11
82.067499999999995
 21
108.1479999999999
 31
0.0
  0
LINE
  5
FE
  8
0
  6
AIGENLINE002
 62
     7
 10
48.067
 20
104.3479999999999
 30
0.0
 11
48.067
 21
108.1479999999999
 31
0.0
  0
LINE
  5
FF
  8
0
  6
AIGENLINE001
 62
     7
 10
148.04599999999991
 20
193.7649999999999
 30
0.0
 11
148.04599999999991
 21
228.16
 31
0.0
  0
LINE
  5
100
  8
0
 62
     7
 10
165.04599999999991
 20
196.90000000000001
 30
0.0
 11
165.04599999999991
 21
224.9009999999999
 31
0.0
  0
LINE
  5
101
  8
0
 62
     7
 10
132.04599999999991
 20
195.89999999999989
 30
0.0
 11
164.0449999999999
 21
195.89999999999989
 31
0.0
  0
ARC
  5
102
  8
0
 62
     7
 10
164.00685799999991
 20
224.86138299999999
 30
0.0
 40
1.039806999999999
 50
2.1670020000000001
 51
87.872461000000001
  0
ARC
  5
103
  8
0
 62
     7
 10
132.08379600000001
 20
224.862022
 30
0.0
 40
1.0391449999999991
 50
92.093641000000005
 51
177.86685600000001
  0
ARC
  5
104
  8
0
 62
     7
 10
164.00685799999991
 20
196.93948299999991
 30
0.0
 40
1.039806999999999
 50
272.12753900000001
 51
357.83299799999992
  0
LINE
  5
105
  8
0
 62
     7
 10
131.0449999999999
 20
196.90000000000001
 30
0.0
 11
131.0449999999999
 21
224.9009999999999
 31
0.0
  0
ARC
  5
106
  8
0
 62
     7
 10
132.08379600000001
 20
196.9388439999999
 30
0.0
 40
1.0391449999999991
 50
182.1331439999999
 51
267.90635900000001
  0
LINE
  5
107
  8
0
 62
     7
 10
132.0449999999999
 20
225.89999999999989
 30
0.0
 11
164.0449999999999
 21
225.89999999999989
 31
0.0
  0
ARC
  5
108
  8
0
 62
     7
 10
125.29555599999991
 20
207.90033799999989
 30
0.0
 40
0.500145
 50
0.009877
 51
90.009846999999993
  0
ARC
  5
109
  8
0
 62
     7
 10
125.295384
 20
207.90033799999989
 30
0.0
 40
0.500145
 50
89.990132999999986
 51
179.99010399999989
  0
ARC
  5
10A
  8
0
 62
     7
 10
125.314154
 20
207.919466
 30
0.0
 40
0.5192640000000001
 50
182.10154299999991
 51
267.93795999999998
  0
ARC
  5
10B
  8
0
 62
     7
 10
125.276929
 20
207.91932299999999
 30
0.0
 40
0.519116
 50
272.04684600000002
 51
357.91369099999997
  0
LINE
  5
10C
  8
0
  6
AIGENLINE001
 62
     7
 10
164.0449999999999
 20
123.282
 30
0.0
 11
164.0449999999999
 21
120.01899999999991
 31
0.0
  0
LINE
  5
10D
  8
0
 62
     7
 10
146.79599999999991
 20
119.43600000000001
 30
0.0
 11
146.203
 21
121.649
 31
0.0
  0
LINE
  5
10E
  8
0
 62
     7
 10
146.203
 20
121.649
 30
0.0
 11
145.61000000000001
 21
119.43600000000001
 31
0.0
  0
LINE
  5
10F
  8
0
 62
     7
 10
145.61000000000001
 20
119.43600000000001
 30
0.0
 11
146.79599999999991
 21
119.43600000000001
 31
0.0
  0
LINE
  5
110
  8
0
 62
     7
 10
145.62700000000001
 20
114.8589999999999
 30
0.0
 11
146.21999999999991
 21
112.646
 31
0.0
  0
LINE
  5
111
  8
0
 62
     7
 10
146.21999999999991
 20
112.646
 30
0.0
 11
146.8129999999999
 21
114.8589999999999
 31
0.0
  0
LINE
  5
112
  8
0
 62
     7
 10
146.8129999999999
 20
114.8589999999999
 30
0.0
 11
145.62700000000001
 21
114.8589999999999
 31
0.0
  0
LINE
  5
113
  8
0
 62
     7
 10
146.21199999999999
 20
121.648
 30
0.0
 11
146.21199999999999
 21
112.6479999999999
 31
0.0
  0
LINE
  5
114
  8
0
  6
AIGENLINE001
 62
     7
 10
159.482
 20
118.148
 30
0.0
 11
155.483
 21
118.148
 31
0.0
  0
LINE
  5
115
  8
0
 62
     7
 10
129.0449999999999
 20
121.648
 30
0.0
 11
170.04499999999999
 21
121.648
 31
0.0
  0
LINE
  5
116
  8
0
  6
AIGENLINE002
 62
     7
 10
157.54599999999991
 20
121.1479999999999
 30
0.0
 11
157.54599999999991
 21
113.49799999999991
 31
0.0
  0
ARC
  5
117
  8
0
  6
AIGENLINE002
 62
     7
 10
158.06483299999999
 20
121.12850400000001
 30
0.0
 40
0.519625
 50
92.100386
 51
177.899584
  0
LINE
  5
118
  8
0
  6
AIGENLINE002
 62
     7
 10
151.5449999999999
 20
112.6479999999999
 30
0.0
 11
157.078
 21
112.999
 31
0.0
  0
ARC
  5
119
  8
0
  6
AIGENLINE002
 62
     7
 10
157.0281489999999
 20
113.51438
 30
0.0
 40
0.517667
 50
275.57054399999993
 51
358.18789700000002
  0
LINE
  5
11A
  8
0
  6
AIGENLINE002
 62
     7
 10
137.21899999999999
 20
112.996
 30
0.0
 11
144.5449999999999
 21
112.6479999999999
 31
0.0
  0
LINE
  5
11B
  8
0
  6
AIGENLINE002
 62
     7
 10
135.21899999999999
 20
113.884
 30
0.0
 11
130.83799999999991
 21
121.351
 31
0.0
  0
ARC
  5
11C
  8
0
  6
AIGENLINE002
 62
     7
 10
136.40373700000001
 20
114.7125909999999
 30
0.0
 40
1.4457120000000001
 50
214.9758819999999
 51
236.75831500000001
  0
ARC
  5
11D
  8
0
  6
AIGENLINE002
 62
     7
 10
137.10314600000001
 20
115.675811
 30
0.0
 40
2.635327999999999
 50
235.52002300000001
 51
254.27577700000001
  0
ARC
  5
11E
  8
0
  6
AIGENLINE002
 62
     7
 10
137.38461399999991
 20
116.4455169999999
 30
0.0
 40
3.4530720000000001
 50
253.24135699999999
 51
267.25703900000002
  0
ARC
  5
11F
  8
0
  6
AIGENLINE002
 62
     7
 10
130.48130599999999
 20
121.1154309999999
 30
0.0
 40
0.428003
 50
33.473984999999999
 51
51.189857000000003
  0
ARC
  5
120
  8
0
  6
AIGENLINE002
 62
     7
 10
130.283447
 20
120.8755189999999
 30
0.0
 40
0.738965
 50
50.89409899999999
 51
67.487898999999999
  0
ARC
  5
121
  8
0
  6
AIGENLINE002
 62
     7
 10
130.12319600000001
 20
120.507081
 30
0.0
 40
1.1407059999999991
 50
67.137681000000001
 51
89.796528000000009
  0
LINE
  5
122
  8
0
 62
     7
 10
150.25700000000001
 20
98.708500000000001
 30
0.0
 11
148.0439999999999
 21
98.115600000000001
 31
0.0
  0
LINE
  5
123
  8
0
 62
     7
 10
148.0439999999999
 20
98.115600000000001
 30
0.0
 11
150.25700000000001
 21
97.522700000000015
 31
0.0
  0
LINE
  5
124
  8
0
 62
     7
 10
150.25700000000001
 20
97.522700000000015
 30
0.0
 11
150.25700000000001
 21
98.708500000000001
 31
0.0
  0
LINE
  5
125
  8
0
 62
     7
 10
168.334
 20
97.539900000000003
 30
0.0
 11
170.54599999999991
 21
98.132800000000003
 31
0.0
  0
LINE
  5
126
  8
0
 62
     7
 10
170.54599999999991
 20
98.132800000000003
 30
0.0
 11
168.334
 21
98.725700000000003
 31
0.0
  0
LINE
  5
127
  8
0
 62
     7
 10
168.334
 20
98.725700000000003
 30
0.0
 11
168.334
 21
97.539900000000003
 31
0.0
  0
LINE
  5
128
  8
0
 62
     7
 10
148.04599999999991
 20
98.124499999999998
 30
0.0
 11
170.54599999999991
 21
98.124499999999998
 31
0.0
  0
LINE
  5
129
  8
0
 62
     7
 10
148.04599999999991
 20
97.283900000000003
 30
0.0
 11
148.04599999999991
 21
104.581
 31
0.0
  0
LINE
  5
12A
  8
0
 62
     7
 10
170.54599999999991
 20
97.283900000000003
 30
0.0
 11
170.54599999999991
 21
107.25
 31
0.0
  0
LINE
  5
12B
  8
0
 62
     7
 10
129.24600000000001
 20
108.1479999999999
 30
0.0
 11
128.54699999999991
 21
121.11
 31
0.0
  0
ARC
  5
12C
  8
0
 62
     7
 10
129.06421
 20
121.1284739999999
 30
0.0
 40
0.519656
 50
92.103587999999988
 51
177.89638299999999
  0
ARC
  5
12D
  8
0
 62
     7
 10
128.88028700000001
 20
121.1475199999999
 30
0.0
 40
0.335383
 50
179.99507999999989
 51
186.36457999999999
  0
LINE
  5
12E
  8
0
 62
     7
 10
170.54599999999991
 20
121.1479999999999
 30
0.0
 11
170.54599999999991
 21
108.1479999999999
 31
0.0
  0
LINE
  5
12F
  8
0
  6
AIGENLINE001
 62
     7
 10
148.04599999999991
 20
114.6519999999999
 30
0.0
 11
148.04599999999991
 21
105.42100000000001
 31
0.0
  0
LINE
  5
130
  8
0
  6
AIGENLINE002
 62
     7
 10
150.346
 20
108.1479999999999
 30
0.0
 11
150.346
 21
111.148
 31
0.0
  0
LINE
  5
131
  8
0
  6
AIGENLINE002
 62
     7
 10
145.745
 20
108.1479999999999
 30
0.0
 11
145.745
 21
111.148
 31
0.0
  0
LINE
  5
132
  8
0
 62
     7
 10
129.24600000000001
 20
108.1479999999999
 30
0.0
 11
170.54599999999991
 21
108.1479999999999
 31
0.0
  0
LINE
  5
133
  8
0
  6
AIGENLINE002
 62
     7
 10
151.5449999999999
 20
112.6479999999999
 30
0.0
 11
150.346
 21
111.148
 31
0.0
  0
LINE
  5
134
  8
0
  6
AIGENLINE002
 62
     7
 10
145.745
 20
111.148
 30
0.0
 11
144.5449999999999
 21
112.6479999999999
 31
0.0
  0
LINE
  5
135
  8
0
  6
AIGENLINE002
 62
     7
 10
145.745
 20
111.148
 30
0.0
 11
150.346
 21
111.148
 31
0.0
  0
LINE
  5
136
  8
0
  6
AIGENLINE002
 62
     7
 10
144.5449999999999
 20
112.6479999999999
 30
0.0
 11
151.5449999999999
 21
112.6479999999999
 31
0.0
  0
LINE
  5
137
  8
0
  6
AIGENLINE002
 62
     7
 10
67.367199999999997
 20
108.14700000000001
 30
0.0
 11
67.367199999999997
 21
111.148
 31
0.0
  0
LINE
  5
138
  8
0
  6
AIGENLINE002
 62
     7
 10
62.767299999999999
 20
108.14700000000001
 30
0.0
 11
62.767299999999999
 21
111.148
 31
0.0
  0
LINE
  5
139
  8
0
 62
     7
 10
35.511899999999997
 20
108.14700000000001
 30
0.0
 11
94.622900000000016
 21
108.14700000000001
 31
0.0
  0
LINE
  5
13A
  8
0
 62
     7
 10
94.622900000000016
 20
108.14700000000001
 30
0.0
 11
95.067300000000003
 21
121.13
 31
0.0
  0
ARC
  5
13B
  8
0
 62
     7
 10
94.548420999999976
 20
121.128534
 30
0.0
 40
0.5195940000000001
 50
2.0972189999999991
 51
87.902771000000001
  0
ARC
  5
13C
  8
0
  6
AIGENLINE002
 62
     7
 10
65.018984000000003
 20
118.0996419999999
 30
0.0
 40
1.299372999999999
 50
2.1125759999999989
 51
87.871628000000001
  0
ARC
  5
13D
  8
0
  6
AIGENLINE002
 62
     7
 10
65.115583999999998
 20
118.0999129999999
 30
0.0
 40
1.2991049999999991
 50
92.132614000000004
 51
177.89893299999989
  0
ARC
  5
13E
  8
0
  6
AIGENLINE002
 62
     7
 10
65.115133
 20
118.19543299999999
 30
0.0
 40
1.298664
 50
182.11345499999999
 51
267.88657399999988
  0
ARC
  5
13F
  8
0
  6
AIGENLINE002
 62
     7
 10
65.067413000000002
 20
118.1477129999999
 30
0.0
 40
1.2500610000000001
 50
269.99212499999999
 51
359.99209500000001
  0
LINE
  5
140
  8
0
  6
AIGENLINE001
 62
     7
 10
62.734200000000001
 20
118.148
 30
0.0
 11
67.291399999999996
 21
118.148
 31
0.0
  0
LINE
  5
141
  8
0
 62
     7
 10
35.567
 20
121.648
 30
0.0
 11
94.567400000000006
 21
121.648
 31
0.0
  0
LINE
  5
142
  8
0
  6
AIGENLINE002
 62
     7
 10
89.769099999999995
 20
113.8509999999999
 30
0.0
 11
92.768899999999988
 21
121.309
 31
0.0
  0
ARC
  5
143
  8
0
  6
AIGENLINE002
 62
     7
 10
93.224230000000006
 20
121.057947
 30
0.0
 40
0.5198380000000001
 50
113.9855239999999
 51
151.1497139999999
  0
ARC
  5
144
  8
0
  6
AIGENLINE002
 62
     7
 10
93.487289000000004
 20
120.61105499999999
 30
0.0
 40
1.036737
 50
89.718292000000005
 51
117.230232
  0
LINE
  5
145
  8
0
  6
AIGENLINE002
 62
     7
 10
68.567499999999995
 20
112.6479999999999
 30
0.0
 11
87.560400000000001
 21
112.833
 31
0.0
  0
ARC
  5
146
  8
0
  6
AIGENLINE002
 62
     7
 10
88.731746000000001
 20
114.373104
 30
0.0
 40
1.1612519999999991
 50
309.22155600000002
 51
333.28913099999988
  0
ARC
  5
147
  8
0
  6
AIGENLINE002
 62
     7
 10
88.022644999999983
 20
115.166887
 30
0.0
 40
2.2250849999999991
 50
290.07306699999992
 51
310.44269799999989
  0
ARC
  5
148
  8
0
  6
AIGENLINE002
 62
     7
 10
87.489846999999983
 20
116.386201
 30
0.0
 40
3.5541429999999989
 50
271.13763799999992
 51
291.3941759999999
  0
LINE
  5
149
  8
0
  6
AIGENLINE002
 62
     7
 10
40.365699999999997
 20
113.8509999999999
 30
0.0
 11
37.365900000000003
 21
121.309
 31
0.0
  0
ARC
  5
14A
  8
0
  6
AIGENLINE002
 62
     7
 10
36.910587
 20
121.0579409999999
 30
0.0
 40
0.519849
 50
28.850269999999998
 51
66.013193000000001
  0
ARC
  5
14B
  8
0
  6
AIGENLINE002
 62
     7
 10
36.647542000000001
 20
120.61105499999999
 30
0.0
 40
1.036737
 50
62.769750999999999
 51
90.281976999999983
  0
LINE
  5
14C
  8
0
  6
AIGENLINE002
 62
     7
 10
61.567300000000003
 20
112.6479999999999
 30
0.0
 11
42.57439999999999
 21
112.833
 31
0.0
  0
ARC
  5
14D
  8
0
  6
AIGENLINE002
 62
     7
 10
41.403080000000003
 20
114.373104
 30
0.0
 40
1.1612519999999991
 50
206.7108889999999
 51
230.77846400000001
  0
ARC
  5
14E
  8
0
  6
AIGENLINE002
 62
     7
 10
42.112307999999999
 20
115.16711599999999
 30
0.0
 40
2.225341999999999
 50
229.5586459999999
 51
249.92602400000001
  0
ARC
  5
14F
  8
0
  6
AIGENLINE002
 62
     7
 10
42.644950999999999
 20
116.386033
 30
0.0
 40
3.553974999999999
 50
248.60535399999989
 51
268.862775
  0
LINE
  5
150
  8
0
  6
AIGENLINE002
 62
     7
 10
68.567499999999995
 20
112.6479999999999
 30
0.0
 11
67.367199999999997
 21
111.148
 31
0.0
  0
LINE
  5
151
  8
0
  6
AIGENLINE002
 62
     7
 10
62.767299999999999
 20
111.148
 30
0.0
 11
61.567300000000003
 21
112.6479999999999
 31
0.0
  0
LINE
  5
152
  8
0
  6
AIGENLINE002
 62
     7
 10
62.767299999999999
 20
111.148
 30
0.0
 11
67.367199999999997
 21
111.148
 31
0.0
  0
LINE
  5
153
  8
0
  6
AIGENLINE002
 62
     7
 10
61.567300000000003
 20
112.6479999999999
 30
0.0
 11
68.567499999999995
 21
112.6479999999999
 31
0.0
  0
LINE
  5
154
  8
0
 62
     7
 10
35.511899999999997
 20
108.14700000000001
 30
0.0
 11
35.067500000000003
 21
121.13
 31
0.0
  0
ARC
  5
155
  8
0
 62
     7
 10
35.586098
 20
121.128855
 30
0.0
 40
0.5192750000000002
 50
92.102579000000006
 51
177.9368639999999
  0
LINE
  5
156
  8
0
 62
     7
 10
35.0672
 20
121.1479999999999
 30
0.0
 11
35.067500000000003
 21
121.13
 31
0.0
  0
LINE
  5
157
  8
0
  6
AIGENLINE001
 62
     7
 10
65.0672
 20
102.0119999999999
 30
0.0
 11
65.0672
 21
124.85299999999989
 31
0.0
  0
LINE
  5
158
  8
0
 62
     7
 10
36.067300000000003
 20
186.89999999999989
 30
0.0
 11
94.067499999999995
 21
186.89999999999989
 31
0.0
  0
LINE
  5
159
  8
0
 62
     7
 10
35.0672
 20
228.59999999999999
 30
0.0
 11
35.0672
 21
187.89999999999989
 31
0.0
  0
ARC
  5
15A
  8
0
 62
     7
 10
36.105181000000002
 20
187.93822999999989
 30
0.0
 40
1.038726
 50
182.11099300000001
 51
267.90877699999987
  0
LINE
  5
15B
  8
0
 62
     7
 10
95.067300000000003
 20
228.59999999999999
 30
0.0
 11
95.067300000000003
 21
187.89999999999989
 31
0.0
  0
ARC
  5
15C
  8
0
 62
     7
 10
94.028918999999973
 20
187.9385979999999
 30
0.0
 40
1.0391209999999991
 50
272.13049699999999
 51
357.86951299999993
  0
LINE
  5
15D
  8
0
 62
     7
 10
52.6783
 20
234.77999999999989
 30
0.0
 11
45.811100000000003
 21
234.77999999999989
 31
0.0
  0
LINE
  5
15E
  8
0
 62
     7
 10
68.279300000000006
 20
220.01699999999991
 30
0.0
 11
66.2958
 21
221.1629999999999
 31
0.0
  0
LINE
  5
15F
  8
0
 62
     7
 10
66.2958
 20
221.1629999999999
 30
0.0
 11
67.440899999999985
 21
219.179
 31
0.0
  0
LINE
  5
160
  8
0
 62
     7
 10
67.440899999999985
 20
219.179
 30
0.0
 11
68.279300000000006
 21
220.01699999999991
 31
0.0
  0
LINE
  5
161
  8
0
 62
     7
 10
61.837299999999999
 20
224.7829999999999
 30
0.0
 11
63.820799999999998
 21
223.63800000000001
 31
0.0
  0
LINE
  5
162
  8
0
 62
     7
 10
63.820799999999998
 20
223.63800000000001
 30
0.0
 11
62.675600000000003
 21
225.62200000000001
 31
0.0
  0
LINE
  5
163
  8
0
 62
     7
 10
62.675600000000003
 20
225.62200000000001
 30
0.0
 11
61.837299999999999
 21
224.7829999999999
 31
0.0
  0
LINE
  5
164
  8
0
 62
     7
 10
52.6783
 20
234.77999999999989
 30
0.0
 11
69.510400000000004
 21
217.94799999999989
 31
0.0
  0
LINE
  5
165
  8
0
 62
     7
 10
77.927300000000002
 20
199.267
 30
0.0
 11
72.201000000000008
 21
199.267
 31
0.0
  0
LINE
  5
166
  8
0
 62
     7
 10
68.677199999999999
 20
203.62899999999999
 30
0.0
 11
66.693700000000007
 21
204.774
 31
0.0
  0
LINE
  5
167
  8
0
 62
     7
 10
66.693700000000007
 20
204.774
 30
0.0
 11
67.838800000000006
 21
202.78999999999991
 31
0.0
  0
LINE
  5
168
  8
0
 62
     7
 10
67.838800000000006
 20
202.78999999999991
 30
0.0
 11
68.677199999999999
 21
203.62899999999999
 31
0.0
  0
LINE
  5
169
  8
0
 62
     7
 10
61.457299999999996
 20
209.172
 30
0.0
 11
63.440800000000003
 21
208.02699999999999
 31
0.0
  0
LINE
  5
16A
  8
0
 62
     7
 10
63.440800000000003
 20
208.02699999999999
 30
0.0
 11
62.2956
 21
210.01099999999991
 31
0.0
  0
LINE
  5
16B
  8
0
 62
     7
 10
62.2956
 20
210.01099999999991
 30
0.0
 11
61.457299999999996
 21
209.172
 31
0.0
  0
LINE
  5
16C
  8
0
 62
     7
 10
59.189199999999992
 20
212.27799999999999
 30
0.0
 11
72.201000000000008
 21
199.267
 31
0.0
  0
LINE
  5
16D
  8
0
 62
     7
 10
67.279700000000005
 20
239.64799999999991
 30
0.0
 11
65.0672
 21
239.0559999999999
 31
0.0
  0
LINE
  5
16E
  8
0
 62
     7
 10
65.0672
 20
239.0559999999999
 30
0.0
 11
67.279700000000005
 21
238.46299999999999
 31
0.0
  0
LINE
  5
16F
  8
0
 62
     7
 10
67.279700000000005
 20
238.46299999999999
 30
0.0
 11
67.279700000000005
 21
239.64799999999991
 31
0.0
  0
LINE
  5
170
  8
0
 62
     7
 10
57.278500000000001
 20
239.63900000000001
 30
0.0
 11
55.066099999999999
 21
239.047
 31
0.0
  0
LINE
  5
171
  8
0
 62
     7
 10
55.066099999999999
 20
239.047
 30
0.0
 11
57.278500000000001
 21
238.45400000000001
 31
0.0
  0
LINE
  5
172
  8
0
 62
     7
 10
57.278500000000001
 20
238.45400000000001
 30
0.0
 11
57.278500000000001
 21
239.63900000000001
 31
0.0
  0
LINE
  5
173
  8
0
 62
     7
 10
62.854399999999998
 20
238.46299999999999
 30
0.0
 11
65.0672
 21
239.0559999999999
 31
0.0
  0
LINE
  5
174
  8
0
 62
     7
 10
65.0672
 20
239.0559999999999
 30
0.0
 11
62.854399999999998
 21
239.64799999999991
 31
0.0
  0
LINE
  5
175
  8
0
 62
     7
 10
62.854399999999998
 20
239.64799999999991
 30
0.0
 11
62.854399999999998
 21
238.46299999999999
 31
0.0
  0
LINE
  5
176
  8
0
 62
     7
 10
72.856000000000009
 20
238.47200000000001
 30
0.0
 11
75.068399999999997
 21
239.06399999999999
 31
0.0
  0
LINE
  5
177
  8
0
 62
     7
 10
75.068399999999997
 20
239.06399999999999
 30
0.0
 11
72.856000000000009
 21
239.65700000000001
 31
0.0
  0
LINE
  5
178
  8
0
 62
     7
 10
72.856000000000009
 20
239.65700000000001
 30
0.0
 11
72.856000000000009
 21
238.47200000000001
 31
0.0
  0
LINE
  5
179
  8
0
 62
     7
 10
55.067100000000003
 20
239.0559999999999
 30
0.0
 11
75.067400000000006
 21
239.0559999999999
 31
0.0
  0
LINE
  5
17A
  8
0
 62
     7
 10
55.067100000000003
 20
239.8959999999999
 30
0.0
 11
55.067100000000003
 21
226.16
 31
0.0
  0
LINE
  5
17B
  8
0
 62
     7
 10
65.0672
 20
239.8959999999999
 30
0.0
 11
65.0672
 21
232.61000000000001
 31
0.0
  0
LINE
  5
17C
  8
0
 62
     7
 10
75.067400000000006
 20
239.8959999999999
 30
0.0
 11
75.067400000000006
 21
226.16
 31
0.0
  0
LINE
  5
17D
  8
0
 62
     7
 10
85.26100000000001
 20
224.61299999999989
 30
0.0
 11
85.853700000000003
 21
222.40000000000001
 31
0.0
  0
LINE
  5
17E
  8
0
 62
     7
 10
85.853700000000003
 20
222.40000000000001
 30
0.0
 11
86.446600000000004
 21
224.61299999999989
 31
0.0
  0
LINE
  5
17F
  8
0
 62
     7
 10
86.446600000000004
 20
224.61299999999989
 30
0.0
 11
85.26100000000001
 21
224.61299999999989
 31
0.0
  0
LINE
  5
180
  8
0
 62
     7
 10
86.446600000000004
 20
226.68799999999999
 30
0.0
 11
85.853700000000003
 21
228.90000000000001
 31
0.0
  0
LINE
  5
181
  8
0
 62
     7
 10
85.853700000000003
 20
228.90000000000001
 30
0.0
 11
85.26100000000001
 21
226.68799999999999
 31
0.0
  0
LINE
  5
182
  8
0
 62
     7
 10
85.26100000000001
 20
226.68799999999999
 30
0.0
 11
86.446600000000004
 21
226.68799999999999
 31
0.0
  0
LINE
  5
183
  8
0
 62
     7
 10
85.26100000000001
 20
218.113
 30
0.0
 11
85.853700000000003
 21
215.9009999999999
 31
0.0
  0
LINE
  5
184
  8
0
 62
     7
 10
85.853700000000003
 20
215.9009999999999
 30
0.0
 11
86.446600000000004
 21
218.113
 31
0.0
  0
LINE
  5
185
  8
0
 62
     7
 10
86.446600000000004
 20
218.113
 30
0.0
 11
85.26100000000001
 21
218.113
 31
0.0
  0
LINE
  5
186
  8
0
 62
     7
 10
86.446600000000004
 20
220.18799999999999
 30
0.0
 11
85.853700000000003
 21
222.40000000000001
 31
0.0
  0
LINE
  5
187
  8
0
 62
     7
 10
85.853700000000003
 20
222.40000000000001
 30
0.0
 11
85.26100000000001
 21
220.18799999999999
 31
0.0
  0
LINE
  5
188
  8
0
 62
     7
 10
85.26100000000001
 20
220.18799999999999
 30
0.0
 11
86.446600000000004
 21
220.18799999999999
 31
0.0
  0
LINE
  5
189
  8
0
 62
     7
 10
85.853700000000003
 20
215.9009999999999
 30
0.0
 11
85.853700000000003
 21
222.40000000000001
 31
0.0
  0
LINE
  5
18A
  8
0
  6
AIGENLINE001
 62
     7
 10
58.258000000000003
 20
222.40000000000001
 30
0.0
 11
51.647100000000002
 21
222.40000000000001
 31
0.0
  0
LINE
  5
18B
  8
0
  6
AIGENLINE001
 62
     7
 10
68.8352
 20
222.40000000000001
 30
0.0
 11
61.3431
 21
222.40000000000001
 31
0.0
  0
LINE
  5
18C
  8
0
  6
AIGENLINE001
 62
     7
 10
78.531099999999995
 20
222.40000000000001
 30
0.0
 11
71.810000000000002
 21
222.40000000000001
 31
0.0
  0
LINE
  5
18D
  8
0
 62
     7
 10
79.370999999999995
 20
222.40000000000001
 30
0.0
 11
86.693600000000004
 21
222.40000000000001
 31
0.0
  0
LINE
  5
18E
  8
0
 62
     7
 10
85.853700000000003
 20
228.90000000000001
 30
0.0
 11
85.853700000000003
 21
222.40000000000001
 31
0.0
  0
LINE
  5
18F
  8
0
 62
     7
 10
95.882599999999996
 20
121.648
 30
0.0
 11
105.119
 21
121.648
 31
0.0
  0
LINE
  5
190
  8
0
 62
     7
 10
103.69499999999999
 20
110.3599999999999
 30
0.0
 11
104.288
 21
108.14700000000001
 31
0.0
  0
LINE
  5
191
  8
0
 62
     7
 10
104.288
 20
108.14700000000001
 30
0.0
 11
104.881
 21
110.3599999999999
 31
0.0
  0
LINE
  5
192
  8
0
 62
     7
 10
104.881
 20
110.3599999999999
 30
0.0
 11
103.69499999999999
 21
110.3599999999999
 31
0.0
  0
LINE
  5
193
  8
0
 62
     7
 10
104.8629999999999
 20
119.43600000000001
 30
0.0
 11
104.2699999999999
 21
121.649
 31
0.0
  0
LINE
  5
194
  8
0
 62
     7
 10
104.2699999999999
 20
121.649
 30
0.0
 11
103.678
 21
119.43600000000001
 31
0.0
  0
LINE
  5
195
  8
0
 62
     7
 10
103.678
 20
119.43600000000001
 30
0.0
 11
104.8629999999999
 21
119.43600000000001
 31
0.0
  0
LINE
  5
196
  8
0
 62
     7
 10
104.2789999999999
 20
108.1479999999999
 30
0.0
 11
104.2789999999999
 21
121.648
 31
0.0
  0
LINE
  5
197
  8
0
  6
AIGENLINE003
 62
     7
 10
125.4129999999999
 20
104.3479999999999
 30
0.0
 11
173.744
 21
104.3479999999999
 31
0.0
  0
LINE
  5
198
  8
0
  6
AIGENLINE003
 62
     7
 10
26.909800000000001
 20
104.3479999999999
 30
0.0
 11
108.84399999999999
 21
104.3479999999999
 31
0.0
  0
LINE
  5
199
  8
0
  6
AIGENLINE003
 62
     7
 10
26.909800000000001
 20
108.1479999999999
 30
0.0
 11
108.84399999999999
 21
108.1479999999999
 31
0.0
  0
LINE
  5
19A
  8
0
 62
     7
 10
95.979200000000006
 20
228.90000000000001
 30
0.0
 11
108.89100000000001
 21
228.90000000000001
 31
0.0
  0
LINE
  5
19B
  8
0
 62
     7
 10
92.855900000000005
 20
167.69799999999989
 30
0.0
 11
95.068399999999997
 21
168.29099999999991
 31
0.0
  0
LINE
  5
19C
  8
0
 62
     7
 10
95.068399999999997
 20
168.29099999999991
 30
0.0
 11
92.855900000000005
 21
168.8829999999999
 31
0.0
  0
LINE
  5
19D
  8
0
 62
     7
 10
92.855900000000005
 20
168.8829999999999
 30
0.0
 11
92.855900000000005
 21
167.69799999999989
 31
0.0
  0
LINE
  5
19E
  8
0
 62
     7
 10
37.2789
 20
168.86500000000001
 30
0.0
 11
35.066099999999999
 21
168.273
 31
0.0
  0
LINE
  5
19F
  8
0
 62
     7
 10
35.066099999999999
 20
168.273
 30
0.0
 11
37.2789
 21
167.68000000000001
 31
0.0
  0
LINE
  5
1A0
  8
0
 62
     7
 10
37.2789
 20
167.68000000000001
 30
0.0
 11
37.2789
 21
168.86500000000001
 31
0.0
  0
LINE
  5
1A1
  8
0
 62
     7
 10
95.067300000000003
 20
168.28200000000001
 30
0.0
 11
35.0672
 21
168.28200000000001
 31
0.0
  0
LINE
  5
1A2
  8
0
 62
     7
 10
95.067300000000003
 20
186.03899999999999
 30
0.0
 11
95.067300000000003
 21
167.44200000000001
 31
0.0
  0
LINE
  5
1A3
  8
0
 62
     7
 10
35.0672
 20
186.04300000000001
 30
0.0
 11
35.0672
 21
167.44200000000001
 31
0.0
  0
LINE
  5
1A4
  8
0
 62
     7
 10
90.855800000000002
 20
174.84999999999991
 30
0.0
 11
93.068299999999994
 21
175.4429999999999
 31
0.0
  0
LINE
  5
1A5
  8
0
 62
     7
 10
93.068299999999994
 20
175.4429999999999
 30
0.0
 11
90.855800000000002
 21
176.03599999999989
 31
0.0
  0
LINE
  5
1A6
  8
0
 62
     7
 10
90.855800000000002
 20
176.03599999999989
 30
0.0
 11
90.855800000000002
 21
174.84999999999991
 31
0.0
  0
LINE
  5
1A7
  8
0
 62
     7
 10
39.27859999999999
 20
176.018
 30
0.0
 11
37.066200000000002
 21
175.4259999999999
 31
0.0
  0
LINE
  5
1A8
  8
0
 62
     7
 10
37.066200000000002
 20
175.4259999999999
 30
0.0
 11
39.27859999999999
 21
174.83299999999991
 31
0.0
  0
LINE
  5
1A9
  8
0
 62
     7
 10
39.27859999999999
 20
174.83299999999991
 30
0.0
 11
39.27859999999999
 21
176.018
 31
0.0
  0
LINE
  5
1AA
  8
0
 62
     7
 10
93.067299999999989
 20
175.434
 30
0.0
 11
37.0672
 21
175.434
 31
0.0
  0
LINE
  5
1AB
  8
0
 62
     7
 10
93.067299999999989
 20
188.04400000000001
 30
0.0
 11
93.067299999999989
 21
174.59399999999999
 31
0.0
  0
LINE
  5
1AC
  8
0
 62
     7
 10
37.0672
 20
188.01599999999999
 30
0.0
 11
37.0672
 21
174.59399999999999
 31
0.0
  0
LINE
  5
1AD
  8
0
 62
     7
 10
34.315100000000001
 20
228.90000000000001
 30
0.0
 11
28.754300000000001
 21
228.90000000000001
 31
0.0
  0
LINE
  5
1AE
  8
0
  6
AIGENLINE001
 62
     7
 10
70.722099999999998
 20
206.40000000000001
 30
0.0
 11
58.6021
 21
206.40000000000001
 31
0.0
  0
LINE
  5
1AF
  8
0
  6
AIGENLINE001
 62
     7
 10
75.067400000000006
 20
225.31899999999999
 30
0.0
 11
75.067400000000006
 21
219.09399999999999
 31
0.0
  0
LINE
  5
1B0
  8
0
 62
     7
 10
37.781700000000001
 20
189.77299999999991
 30
0.0
 11
40.986400000000003
 21
193.94499999999991
 31
0.0
  0
LINE
  5
1B1
  8
0
  6
AIGENLINE001
 62
     7
 10
65.0672
 20
184.56899999999999
 30
0.0
 11
65.0672
 21
231.24299999999991
 31
0.0
  0
LINE
  5
1B2
  8
0
  6
AIGENLINE001
 62
     7
 10
55.067100000000003
 20
225.31899999999999
 30
0.0
 11
55.067100000000003
 21
219.09399999999999
 31
0.0
  0
ARC
  5
1B3
  8
0
  6
AIGENLINE002
 62
     7
 10
75.067381999999995
 20
222.40040599999989
 30
0.0
 40
1.5000039999999999
 50
0.00001
 51
89.999980000000008
  0
ARC
  5
1B4
  8
0
  6
AIGENLINE002
 62
     7
 10
75.067382999999992
 20
222.40040599999989
 30
0.0
 40
1.5000039999999999
 50
90.0
 51
179.99996999999991
  0
ARC
  5
1B5
  8
0
  6
AIGENLINE002
 62
     7
 10
75.067381999999995
 20
222.40040599999989
 30
0.0
 40
1.5000039999999999
 50
179.99996999999991
 51
270.00002000000001
  0
ARC
  5
1B6
  8
0
  6
AIGENLINE002
 62
     7
 10
75.067381999999995
 20
222.40040699999989
 30
0.0
 40
1.5000039999999999
 50
270.00002000000001
 51
359.99998999999991
  0
LINE
  5
1B7
  8
0
 62
     7
 10
92.352699999999984
 20
189.77299999999991
 30
0.0
 11
89.148100000000014
 21
193.94499999999991
 31
0.0
  0
LINE
  5
1B8
  8
0
 62
     7
 10
37.817199999999993
 20
188.90000000000001
 30
0.0
 11
92.317300000000003
 21
188.90000000000001
 31
0.0
  0
ARC
  5
1B9
  8
0
 62
     7
 10
37.846204999999991
 20
189.67923999999999
 30
0.0
 40
0.779521
 50
182.13058100000001
 51
267.86944799999992
  0
LINE
  5
1BA
  8
0
 62
     7
 10
37.0672
 20
213.65000000000001
 30
0.0
 11
37.0672
 21
189.64999999999989
 31
0.0
  0
ARC
  5
1BB
  8
0
 62
     7
 10
39.317228999999998
 20
213.650497
 30
0.0
 40
2.2500059999999991
 50
90.0
 51
179.99996999999991
  0
LINE
  5
1BC
  8
0
 62
     7
 10
90.817300000000003
 20
215.9009999999999
 30
0.0
 11
39.3172
 21
215.9009999999999
 31
0.0
  0
ARC
  5
1BD
  8
0
 62
     7
 10
90.817252999999994
 20
213.650497
 30
0.0
 40
2.2500059999999991
 50
0.00001
 51
89.999980000000008
  0
LINE
  5
1BE
  8
0
 62
     7
 10
93.067299999999989
 20
189.64999999999989
 30
0.0
 11
93.067299999999989
 21
213.65000000000001
 31
0.0
  0
ARC
  5
1BF
  8
0
 62
     7
 10
92.288277000000008
 20
189.67923999999999
 30
0.0
 40
0.779521
 50
272.13057199999997
 51
357.86943799999989
  0
ARC
  5
1C0
  8
0
 62
     7
 10
94.755909999999986
 20
228.58908299999999
 30
0.0
 40
0.311618
 50
2.0834079999999999
 51
87.850763000000015
  0
ARC
  5
1C1
  8
0
 62
     7
 10
87.068275999999997
 20
196.40027900000001
 30
0.0
 40
2.000062999999999
 50
270.004954
 51
0.004925
  0
ARC
  5
1C2
  8
0
 62
     7
 10
86.966487999999998
 20
196.40000000000001
 30
0.0
 40
2.101850999999999
 50
0.012276
 51
1.796913999999999
  0
LINE
  5
1C3
  8
0
 62
     7
 10
89.067300000000003
 20
213.96599999999989
 30
0.0
 11
89.067300000000003
 21
196.46599999999989
 31
0.0
  0
ARC
  5
1C4
  8
0
 62
     7
 10
86.996204000000006
 20
213.82592299999999
 30
0.0
 40
2.0758380000000001
 50
3.8711790000000001
 51
88.005548000000005
  0
ARC
  5
1C5
  8
0
 62
     7
 10
35.367228999999988
 20
228.60041200000001
 30
0.0
 40
0.30007
 50
90.0
 51
179.99996999999991
  0
ARC
  5
1C6
  8
0
 62
     7
 10
65.067239999999998
 20
206.40041999999991
 30
0.0
 40
3.5002399999999998
 50
0.00001
 51
89.999980000000008
  0
ARC
  5
1C7
  8
0
 62
     7
 10
65.067413999999999
 20
206.40059199999999
 30
0.0
 40
3.500067
 50
90.002820000000014
 51
180.00282999999999
  0
ARC
  5
1C8
  8
0
 62
     7
 10
65.067239999999998
 20
206.40041999999991
 30
0.0
 40
3.4998939999999998
 50
179.99996999999991
 51
270.00002000000001
  0
ARC
  5
1C9
  8
0
 62
     7
 10
65.067412000000004
 20
206.4005929999999
 30
0.0
 40
3.500067
 50
269.99720000000002
 51
359.99716999999998
  0
ARC
  5
1CA
  8
0
 62
     7
 10
43.066032999999997
 20
196.40045000000001
 30
0.0
 40
1.999927999999999
 50
178.12435699999989
 51
268.12440699999991
  0
LINE
  5
1CB
  8
0
 62
     7
 10
43.000599999999999
 20
194.40199999999999
 30
0.0
 11
43.066000000000003
 21
194.40000000000001
 31
0.0
  0
LINE
  5
1CC
  8
0
 62
     7
 10
41.0672
 20
213.96599999999989
 30
0.0
 11
41.0672
 21
196.46599999999989
 31
0.0
  0
ARC
  5
1CD
  8
0
 62
     7
 10
43.137726999999998
 20
213.826492
 30
0.0
 40
2.07525
 50
91.979795999999979
 51
176.14343799999989
  0
LINE
  5
1CE
  8
0
 62
     7
 10
87.068399999999997
 20
194.40000000000001
 30
0.0
 11
43.066000000000003
 21
194.40000000000001
 31
0.0
  0
LINE
  5
1CF
  8
0
 62
     7
 10
35.36719999999999
 20
228.90000000000001
 30
0.0
 11
94.767600000000002
 21
228.90000000000001
 31
0.0
  0
LINE
  5
1D0
  8
0
 62
     7
 10
101.367
 20
218.113
 30
0.0
 11
101.95999999999999
 21
215.9009999999999
 31
0.0
  0
LINE
  5
1D1
  8
0
 62
     7
 10
101.95999999999999
 20
215.9009999999999
 30
0.0
 11
102.55199999999989
 21
218.113
 31
0.0
  0
LINE
  5
1D2
  8
0
 62
     7
 10
102.55199999999989
 20
218.113
 30
0.0
 11
101.367
 21
218.113
 31
0.0
  0
LINE
  5
1D3
  8
0
 62
     7
 10
107.467
 20
189.11199999999991
 30
0.0
 11
108.06
 21
186.899
 31
0.0
  0
LINE
  5
1D4
  8
0
 62
     7
 10
108.06
 20
186.899
 30
0.0
 11
108.65299999999991
 21
189.11199999999991
 31
0.0
  0
LINE
  5
1D5
  8
0
 62
     7
 10
108.65299999999991
 20
189.11199999999991
 30
0.0
 11
107.467
 21
189.11199999999991
 31
0.0
  0
LINE
  5
1D6
  8
0
 62
     7
 10
108.636
 20
226.68899999999999
 30
0.0
 11
108.04299999999991
 21
228.9009999999999
 31
0.0
  0
LINE
  5
1D7
  8
0
 62
     7
 10
108.04299999999991
 20
228.9009999999999
 30
0.0
 11
107.45
 21
226.68899999999999
 31
0.0
  0
LINE
  5
1D8
  8
0
 62
     7
 10
107.45
 20
226.68899999999999
 30
0.0
 11
108.636
 21
226.68899999999999
 31
0.0
  0
LINE
  5
1D9
  8
0
 62
     7
 10
108.051
 20
186.89999999999989
 30
0.0
 11
108.051
 21
228.90000000000001
 31
0.0
  0
LINE
  5
1DA
  8
0
 62
     7
 10
96.314099999999996
 20
186.89999999999989
 30
0.0
 11
108.89100000000001
 21
186.89999999999989
 31
0.0
  0
LINE
  5
1DB
  8
0
 62
     7
 10
30.1785
 20
226.68899999999999
 30
0.0
 11
29.585599999999999
 21
228.9009999999999
 31
0.0
  0
LINE
  5
1DC
  8
0
 62
     7
 10
29.585599999999999
 20
228.9009999999999
 30
0.0
 11
28.992699999999989
 21
226.68899999999999
 31
0.0
  0
LINE
  5
1DD
  8
0
 62
     7
 10
28.992699999999989
 20
226.68899999999999
 30
0.0
 11
30.1785
 21
226.68899999999999
 31
0.0
  0
LINE
  5
1DE
  8
0
 62
     7
 10
29.010300000000001
 20
208.61199999999999
 30
0.0
 11
29.603200000000001
 21
206.39899999999989
 31
0.0
  0
LINE
  5
1DF
  8
0
 62
     7
 10
29.603200000000001
 20
206.39899999999989
 30
0.0
 11
30.195900000000002
 21
208.61199999999999
 31
0.0
  0
LINE
  5
1E0
  8
0
 62
     7
 10
30.195900000000002
 20
208.61199999999999
 30
0.0
 11
29.010300000000001
 21
208.61199999999999
 31
0.0
  0
LINE
  5
1E1
  8
0
 62
     7
 10
29.594599999999989
 20
228.90000000000001
 30
0.0
 11
29.594599999999989
 21
206.40000000000001
 31
0.0
  0
LINE
  5
1E2
  8
0
 62
     7
 10
57.7622
 20
206.40000000000001
 30
0.0
 11
28.754300000000001
 21
206.40000000000001
 31
0.0
  0
LINE
  5
1E3
  8
0
 62
     7
 10
101.37599999999991
 20
191.11199999999999
 30
0.0
 11
101.9679999999999
 21
188.89899999999989
 31
0.0
  0
LINE
  5
1E4
  8
0
 62
     7
 10
101.9679999999999
 20
188.89899999999989
 30
0.0
 11
102.56100000000001
 21
191.11199999999999
 31
0.0
  0
LINE
  5
1E5
  8
0
 62
     7
 10
102.56100000000001
 20
191.11199999999999
 30
0.0
 11
101.37599999999991
 21
191.11199999999999
 31
0.0
  0
LINE
  5
1E6
  8
0
 62
     7
 10
102.55199999999989
 20
226.68700000000001
 30
0.0
 11
101.95999999999999
 21
228.90000000000001
 31
0.0
  0
LINE
  5
1E7
  8
0
 62
     7
 10
101.95999999999999
 20
228.90000000000001
 30
0.0
 11
101.367
 21
226.68700000000001
 31
0.0
  0
LINE
  5
1E8
  8
0
 62
     7
 10
101.367
 20
226.68700000000001
 30
0.0
 11
102.55199999999989
 21
226.68700000000001
 31
0.0
  0
LINE
  5
1E9
  8
0
 62
     7
 10
102.55199999999989
 20
213.68799999999999
 30
0.0
 11
101.95999999999999
 21
215.9009999999999
 31
0.0
  0
LINE
  5
1EA
  8
0
 62
     7
 10
101.95999999999999
 20
215.9009999999999
 30
0.0
 11
101.367
 21
213.68799999999999
 31
0.0
  0
LINE
  5
1EB
  8
0
 62
     7
 10
101.367
 20
213.68799999999999
 30
0.0
 11
102.55199999999989
 21
213.68799999999999
 31
0.0
  0
LINE
  5
1EC
  8
0
 62
     7
 10
101.95999999999999
 20
189.40000000000001
 30
0.0
 11
101.95999999999999
 21
228.90000000000001
 31
0.0
  0
LINE
  5
1ED
  8
0
 62
     7
 10
93.977800000000002
 20
188.90000000000001
 30
0.0
 11
102.79899999999989
 21
188.90000000000001
 31
0.0
  0
LINE
  5
1EE
  8
0
 62
     7
 10
93.704300000000003
 20
215.9009999999999
 30
0.0
 11
102.79899999999989
 21
215.9009999999999
 31
0.0
  0
ARC
  5
1EF
  8
0
 62
     7
 10
65.067239999999998
 20
206.40041999999991
 30
0.0
 40
2.3001330000000002
 50
0.00001
 51
89.999980000000008
  0
ARC
  5
1F0
  8
0
 62
     7
 10
65.155798000000004
 20
206.31222099999991
 30
0.0
 40
2.389972999999999
 50
92.123483999999991
 51
177.8850689999999
  0
ARC
  5
1F1
  8
0
 62
     7
 10
65.155376000000004
 20
206.48855599999999
 30
0.0
 40
2.3895490000000001
 50
182.11377899999991
 51
267.88625100000002
  0
ARC
  5
1F2
  8
0
 62
     7
 10
64.978717000000003
 20
206.4893019999999
 30
0.0
 40
2.390309999999999
 50
272.12242300000003
 51
357.86900500000002
  0
ARC
  5
1F3
  8
0
  6
AIGENLINE002
 62
     7
 10
55.067098999999999
 20
222.40040599999989
 30
0.0
 40
1.5000039999999999
 50
0.00001
 51
89.999980000000008
  0
ARC
  5
1F4
  8
0
  6
AIGENLINE002
 62
     7
 10
55.125054000000013
 20
222.34245100000001
 30
0.0
 40
1.559037
 50
92.130370000000013
 51
177.86960099999999
  0
ARC
  5
1F5
  8
0
  6
AIGENLINE002
 62
     7
 10
55.124645999999998
 20
222.45795299999989
 30
0.0
 40
1.5586139999999991
 50
182.11597299999991
 51
267.88405599999987
  0
ARC
  5
1F6
  8
0
  6
AIGENLINE002
 62
     7
 10
55.067098999999999
 20
222.40040699999989
 30
0.0
 40
1.5000039999999999
 50
270.00002000000001
 51
359.99998999999991
  0
ARC
  5
1F7
  8
0
 62
     7
 10
65.058110999999997
 20
222.40057799999991
 30
0.0
 40
1.7499480000000001
 50
359.99437
 51
89.994339999999994
  0
ARC
  5
1F8
  8
0
 62
     7
 10
65.058284
 20
222.40040599999989
 30
0.0
 40
1.7501199999999999
 50
90.0
 51
179.99996999999991
  0
ARC
  5
1F9
  8
0
 62
     7
 10
65.125516000000005
 20
222.46763899999999
 30
0.0
 40
1.818595
 50
182.1186899999999
 51
267.88133999999991
  0
ARC
  5
1FA
  8
0
 62
     7
 10
64.990654000000006
 20
222.46767799999989
 30
0.0
 40
1.818649
 50
272.13112599999988
 51
357.88016299999998
  0
TEXT
  5
1FB
  8
_________2
 62
     7
 10
29.525700000000001
 20
22.2272
 30
0.0
 40
3.9357000000000002
  1
実容量：4.5L、重量20kg、オーバーフロー付
 41
0.5
  0
LINE
  5
1FC
  8
_________2
 62
     7
 10
105.2389999999999
 20
17.428499999999989
 30
0.0
 11
105.2389999999999
 21
0.4485540000000001
 31
0.0
  0
LINE
  5
1FD
  8
_________2
 62
     7
 10
81.679900000000004
 20
51.324300000000001
 30
0.0
 11
79.493700000000004
 21
51.324300000000001
 31
0.0
  0
LINE
  5
1FE
  8
_________2
 62
     7
 10
82.172600000000017
 20
51.324300000000001
 30
0.0
 11
81.920400000000001
 21
51.324300000000001
 31
0.0
  0
LINE
  5
1FF
  8
_________2
 62
     7
 10
82.665199999999984
 20
51.324300000000001
 30
0.0
 11
85.590100000000007
 21
51.324300000000001
 31
0.0
  0
LINE
  5
200
  8
_________2
 62
     7
 10
82.172600000000017
 20
51.324300000000001
 30
0.0
 11
82.424800000000005
 21
51.324300000000001
 31
0.0
  0
LINE
  5
201
  8
_________2
 62
     7
 10
75.776399999999995
 20
51.324300000000001
 30
0.0
 11
73.589399999999998
 21
51.324300000000001
 31
0.0
  0
LINE
  5
202
  8
_________2
 62
     7
 10
76.2684
 20
51.324300000000001
 30
0.0
 11
76.016900000000007
 21
51.324300000000001
 31
0.0
  0
LINE
  5
203
  8
_________2
 62
     7
 10
76.2684
 20
51.817
 30
0.0
 11
76.2684
 21
54.003900000000002
 31
0.0
  0
LINE
  5
204
  8
_________2
 62
     7
 10
76.2684
 20
51.324300000000001
 30
0.0
 11
76.2684
 21
51.576900000000002
 31
0.0
  0
LINE
  5
205
  8
_________2
 62
     7
 10
76.76100000000001
 20
51.324300000000001
 30
0.0
 11
78.947999999999993
 21
51.324300000000001
 31
0.0
  0
LINE
  5
206
  8
_________2
 62
     7
 10
76.2684
 20
51.324300000000001
 30
0.0
 11
76.520499999999998
 21
51.324300000000001
 31
0.0
  0
LINE
  5
207
  8
_________2
 62
     7
 10
76.2684
 20
50.832399999999993
 30
0.0
 11
76.2684
 21
48.645699999999998
 31
0.0
  0
LINE
  5
208
  8
_________2
 62
     7
 10
76.2684
 20
51.324300000000001
 30
0.0
 11
76.2684
 21
51.072800000000001
 31
0.0
  0
LINE
  5
209
  8
_________2
 62
     7
 10
79.979399999999984
 20
50.104799999999997
 30
0.0
 11
85.157399999999996
 21
49.240000000000002
 31
0.0
  0
LINE
  5
20A
  8
_________2
 62
     7
 10
79.979399999999984
 20
52.544199999999989
 30
0.0
 11
85.157399999999996
 21
53.409700000000001
 31
0.0
  0
LINE
  5
20B
  8
_________2
 62
     7
 10
85.157399999999996
 20
49.240000000000002
 30
0.0
 11
85.157399999999996
 21
53.409700000000001
 31
0.0
  0
LINE
  5
20C
  8
_________2
 62
     7
 10
79.979399999999984
 20
50.104799999999997
 30
0.0
 11
79.979399999999984
 21
52.544199999999989
 31
0.0
  0
ARC
  5
20D
  8
_________2
 62
     7
 10
76.221766000000002
 20
51.277380999999998
 30
0.0
 40
1.267714
 50
2.1220840000000001
 51
87.894083999999992
  0
ARC
  5
20E
  8
_________2
 62
     7
 10
76.315297000000001
 20
51.277734999999993
 30
0.0
 40
1.267374999999999
 50
92.122849999999985
 51
177.893304
  0
ARC
  5
20F
  8
_________2
 62
     7
 10
76.315273000000005
 20
51.371245999999992
 30
0.0
 40
1.267363
 50
182.12181499999991
 51
267.87821400000001
  0
ARC
  5
210
  8
_________2
 62
     7
 10
76.221461000000005
 20
51.371928999999987
 30
0.0
 40
1.2680439999999991
 50
272.11916400000001
 51
357.84848499999993
  0
ARC
  5
211
  8
_________2
 62
     7
 10
76.187981999999991
 20
51.244312999999998
 30
0.0
 40
2.1668310000000002
 50
2.1161439999999989
 51
87.874379000000005
  0
ARC
  5
212
  8
_________2
 62
     7
 10
76.348411999999996
 20
51.245334999999997
 30
0.0
 40
2.1657980000000001
 50
92.118487999999999
 51
177.90988599999989
  0
ARC
  5
213
  8
_________2
 62
     7
 10
76.348354
 20
51.404327000000002
 30
0.0
 40
2.1657779999999991
 50
182.11700400000001
 51
267.88302499999992
  0
ARC
  5
214
  8
_________2
 62
     7
 10
76.188378999999983
 20
51.405009999999997
 30
0.0
 40
2.1664590000000001
 50
272.11546800000002
 51
357.86560400000002
  0
TEXT
  5
215
  8
_________2
 62
     7
 10
109.5439999999999
 20
23.199100000000001
 30
0.0
 40
3.0923400000000001
  1
図番
 41
0.5
  0
LINE
  5
216
  8
_________2
 62
     7
 10
108.4889999999999
 20
27.4283
 30
0.0
 11
188.49000000000001
 21
27.4283
 31
0.0
  0
TEXT
  5
217
  8
_________2
 62
     7
 10
109.5439999999999
 20
33.198900000000002
 30
0.0
 40
3.0923400000000001
  1
品番
 41
0.5
  0
TEXT
  5
218
  8
_________2
 62
     7
 10
109.5439999999999
 20
53.338000000000001
 30
0.0
 40
3.0923400000000001
  1
名称
 41
0.5
  0
TEXT
  5
219
  8
_________2
 62
     7
 10
96.784058333333334
 20
48.341900000000003
 30
0.0
 40
3.6545800000000002
  1
mm
 41
0.5
 72
     1
 11
98.306799999999996
 21
48.341900000000003
 31
0.0
  0
TEXT
  5
21A
  8
_________2
 62
     7
 10
90.582099999999997
 20
53.338000000000001
 30
0.0
 40
3.0923400000000001
  1
単位
 41
0.5
  0
TEXT
  5
21B
  8
_________2
 62
     7
 10
90.582099999999997
 20
40.930399999999999
 30
0.0
 40
3.0923400000000001
  1
尺度
 41
0.5
  0
TEXT
  5
21C
  8
_________2
 62
     7
 10
95.030836166666674
 20
34.7378
 30
0.0
 40
3.6545800000000002
  1
1 ： 10
 41
0.5
 72
     1
 11
98.898600000000002
 21
34.7378
 31
0.0
  0
TEXT
  5
21D
  8
_________2
 62
     7
 10
141.10956250000001
 20
30.627800000000001
 30
0.0
 40
3.9357000000000002
  1
VB513560
 41
0.5
 72
     1
 11
148.489
 21
30.627800000000001
 31
0.0
  0
TEXT
  5
21E
  8
_________2
 62
     7
 10
141.10956250000001
 20
20.626999999999988
 30
0.0
 40
3.9357000000000002
  1
VB513560
 41
0.5
 72
     1
 11
148.489
 21
20.626999999999988
 31
0.0
  0
TEXT
  5
21F
  8
_________2
 62
     7
 10
114.11799999999999
 20
45.745600000000003
 30
0.0
 40
3.9357000000000002
  1
メメント 洗面器
 41
0.5
  0
TEXT
  5
220
  8
_________2
 62
     7
 10
44.364200333333329
 20
35.122999999999998
 30
0.0
 40
3.6545800000000002
  1
早川
 41
0.5
 72
     1
 11
46.252400000000002
 21
35.122999999999998
 31
0.0
  0
TEXT
  5
221
  8
_________2
 62
     7
 10
25.790200333333331
 20
35.122999999999998
 30
0.0
 40
3.6545800000000002
  1
福田
 41
0.5
 72
     1
 11
27.6784
 21
35.122999999999998
 31
0.0
  0
TEXT
  5
222
  8
_________2
 62
     7
 10
72.724699999999999
 20
34.7378
 30
0.0
 40
3.6545800000000002
  1
13.06.15
 41
0.5
  0
TEXT
  5
223
  8
_________2
 62
     7
 10
71.531999999999996
 20
40.930399999999999
 30
0.0
 40
3.0923400000000001
  1
日付
 41
0.5
  0
TEXT
  5
224
  8
_________2
 62
     7
 10
34.578299999999992
 20
40.930399999999999
 30
0.0
 40
3.0923400000000001
  1
検図
 41
0.5
  0
TEXT
  5
225
  8
_________2
 62
     7
 10
22.96019999999999
 20
26.730999999999991
 30
0.0
 40
3.0923400000000001
  1
備考
 41
0.5
  0
TEXT
  5
226
  8
_________2
 62
     7
 10
22.96019999999999
 20
40.930399999999999
 30
0.0
 40
3.0923400000000001
  1
製図
 41
0.5
  0
TEXT
  5
227
  8
_________2
 62
     7
 10
28.727365333333339
 20
49.456400000000002
 30
0.0
 40
4.4979399999999989
  1
セラトレーディング株式会社
 41
0.5
 72
     1
 11
46.119399999999992
 21
49.456400000000002
 31
0.0
  0
LINE
  5
228
  8
_________2
 62
     7
 10
188.49000000000001
 20
17.428499999999989
 30
0.0
 11
21.988499999999991
 21
17.428499999999989
 31
0.0
  0
LINE
  5
229
  8
_________2
 62
     7
 10
21.988499999999991
 20
17.428499999999989
 30
0.0
 11
21.988499999999991
 21
280.42999999999989
 31
0.0
  0
LINE
  5
22A
  8
_________2
 62
     7
 10
21.988499999999991
 20
280.42999999999989
 30
0.0
 11
188.49000000000001
 21
280.42999999999989
 31
0.0
  0
LINE
  5
22B
  8
_________2
 62
     7
 10
188.49000000000001
 20
280.42999999999989
 30
0.0
 11
188.49000000000001
 21
17.428499999999989
 31
0.0
  0
LINE
  5
22C
  8
_________2
 62
     7
 10
70.488799999999998
 20
30.928899999999999
 30
0.0
 11
70.488799999999998
 21
57.428699999999992
 31
0.0
  0
LINE
  5
22D
  8
_________2
 62
     7
 10
89.488600000000005
 20
30.928899999999999
 30
0.0
 11
89.488600000000005
 21
57.428699999999992
 31
0.0
  0
LINE
  5
22E
  8
_________2
 62
     7
 10
108.4889999999999
 20
17.428499999999989
 30
0.0
 11
108.4889999999999
 21
57.428699999999992
 31
0.0
  0
LINE
  5
22F
  8
_________2
 62
     7
 10
33.488300000000002
 20
30.928899999999999
 30
0.0
 11
33.488300000000002
 21
44.928800000000003
 31
0.0
  0
LINE
  5
230
  8
_________2
 62
     7
 10
21.988499999999991
 20
30.928899999999999
 30
0.0
 11
108.4889999999999
 21
30.928899999999999
 31
0.0
  0
LINE
  5
231
  8
_________2
 62
     7
 10
21.988499999999991
 20
44.928800000000003
 30
0.0
 11
108.4889999999999
 21
44.928800000000003
 31
0.0
  0
LINE
  5
232
  8
_________2
 62
     7
 10
108.4889999999999
 20
37.428100000000001
 30
0.0
 11
188.49000000000001
 21
37.428100000000001
 31
0.0
  0
LINE
  5
233
  8
_________2
 62
     7
 10
21.988499999999991
 20
57.428699999999992
 30
0.0
 11
188.49000000000001
 21
57.428699999999992
 31
0.0
  0
LINE
  5
234
  8
_________2
 62
     7
 10
210.24000000000001
 20
148.93100000000001
 30
0.0
 11
188.489
 21
148.93100000000001
 31
0.0
  0
LINE
  5
235
  8
_________2
 62
     7
 10
105.2389999999999
 20
297.45099999999991
 30
0.0
 11
105.2389999999999
 21
280.42999999999989
 31
0.0
  0
LINE
  5
236
  8
_________2
 62
     7
 10
21.988499999999991
 20
148.93100000000001
 30
0.0
 11
0.238402
 21
148.93100000000001
 31
0.0
  0
ENDSEC
  0
EOF
