  0
SECTION
  2
HEADER
  9
$ACADVER
  1
AC1009
  9
$INSBASE
 10
0.0
 20
0.0
 30
0.0
  9
$EXTMIN
 10
-4.7008599999999987
 20
-21.071400000000001
 30
0.0
  9
$EXTMAX
 10
205.30099999999999
 20
275.93099999999993
 30
0.0
  9
$LIMMIN
 10
0.0
 20
0.0
  9
$LIMMAX
 10
12.0
 20
9.0
  9
$ORTHOMODE
 70
     0
  9
$REGENMODE
 70
     1
  9
$FILLMODE
 70
     1
  9
$QTEXTMODE
 70
     0
  9
$MIRRTEXT
 70
     1
  9
$DRAGMODE
 70
     2
  9
$LTSCALE
 40
1.0
  9
$OSMODE
 70
    37
  9
$ATTMODE
 70
     1
  9
$TEXTSIZE
 40
0.0
  9
$TRACEWID
 40
0.05
  9
$TEXTSTYLE
  7
STANDARD
  9
$CLAYER
  8
0
  9
$CELTYPE
  6
CONTINUOUS
  9
$CECOLOR
 62
   256
  9
$DIMSCALE
 40
1.0
  9
$DIMASZ
 40
0.18
  9
$DIMEXO
 40
0.0625
  9
$DIMDLI
 40
0.38
  9
$DIMRND
 40
0.0
  9
$DIMDLE
 40
0.0
  9
$DIMEXE
 40
0.18
  9
$DIMTP
 40
0.0
  9
$DIMTM
 40
0.0
  9
$DIMTXT
 40
0.18
  9
$DIMCEN
 40
0.09
  9
$DIMTSZ
 40
0.0
  9
$DIMTOL
 70
     0
  9
$DIMLIM
 70
     0
  9
$DIMTIH
 70
     1
  9
$DIMTOH
 70
     1
  9
$DIMSE1
 70
     0
  9
$DIMSE2
 70
     0
  9
$DIMTAD
 70
     0
  9
$DIMZIN
 70
     0
  9
$DIMBLK
  1

  9
$DIMASO
 70
     1
  9
$DIMSHO
 70
     1
  9
$DIMPOST
  1

  9
$DIMAPOST
  1

  9
$DIMALT
 70
     0
  9
$DIMALTD
 70
     2
  9
$DIMALTF
 40
25.399999999999999
  9
$DIMLFAC
 40
1.0
  9
$DIMTOFL
 70
     0
  9
$DIMTVP
 40
0.0
  9
$DIMTIX
 70
     0
  9
$DIMSOXD
 70
     0
  9
$DIMSAH
 70
     0
  9
$DIMBLK1
  1

  9
$DIMBLK2
  1

  9
$DIMSTYLE
  2
STANDARD
  9
$DIMCLRD
 70
     0
  9
$DIMCLRE
 70
     0
  9
$DIMCLRT
 70
     0
  9
$DIMTFAC
 40
1.0
  9
$DIMGAP
 40
0.09
  9
$LUNITS
 70
     2
  9
$LUPREC
 70
     4
  9
$SKETCHINC
 40
0.1
  9
$FILLETRAD
 40
0.0
  9
$AUNITS
 70
     0
  9
$AUPREC
 70
     0
  9
$MENU
  1
.
  9
$ELEVATION
 40
0.0
  9
$PELEVATION
 40
0.0
  9
$THICKNESS
 40
0.0
  9
$LIMCHECK
 70
     0
  9
$BLIPMODE
 70
     0
  9
$CHAMFERA
 40
0.0
  9
$CHAMFERB
 40
0.0
  9
$SKPOLY
 70
     0
  9
$TDCREATE
 40
2444972.375
  9
$TDUPDATE
 40
2456571.2487280322
  9
$TDINDWG
 40
0.0000063194
  9
$TDUSRTIMER
 40
0.0000063194
  9
$USRTIMER
 70
     1
  9
$ANGBASE
 50
0.0
  9
$ANGDIR
 70
     0
  9
$PDMODE
 70
     0
  9
$PDSIZE
 40
0.0
  9
$PLINEWID
 40
0.0
  9
$COORDS
 70
     1
  9
$SPLFRAME
 70
     0
  9
$SPLINETYPE
 70
     6
  9
$SPLINESEGS
 70
     8
  9
$ATTDIA
 70
     0
  9
$ATTREQ
 70
     1
  9
$HANDLING
 70
     1
  9
$HANDSEED
  5
231
  9
$SURFTAB1
 70
     6
  9
$SURFTAB2
 70
     6
  9
$SURFTYPE
 70
     6
  9
$SURFU
 70
     6
  9
$SURFV
 70
     6
  9
$UCSNAME
  2

  9
$UCSORG
 10
0.0
 20
0.0
 30
0.0
  9
$UCSXDIR
 10
1.0
 20
0.0
 30
0.0
  9
$UCSYDIR
 10
0.0
 20
1.0
 30
0.0
  9
$PUCSNAME
  2

  9
$PUCSORG
 10
0.0
 20
0.0
 30
0.0
  9
$PUCSXDIR
 10
1.0
 20
0.0
 30
0.0
  9
$PUCSYDIR
 10
0.0
 20
1.0
 30
0.0
  9
$USERI1
 70
     0
  9
$USERI2
 70
     0
  9
$USERI3
 70
     0
  9
$USERI4
 70
     0
  9
$USERI5
 70
     0
  9
$USERR1
 40
0.0
  9
$USERR2
 40
0.0
  9
$USERR3
 40
0.0
  9
$USERR4
 40
0.0
  9
$USERR5
 40
0.0
  9
$WORLDVIEW
 70
     1
  9
$SHADEDGE
 70
     3
  9
$SHADEDIF
 70
    70
  9
$TILEMODE
 70
     1
  9
$MAXACTVP
 70
    48
  9
$PLIMCHECK
 70
     0
  9
$PEXTMIN
 10
1.0000000000000000E+020
 20
1.0000000000000000E+020
 30
1.0000000000000000E+020
  9
$PEXTMAX
 10
-1.0000000000000000E+020
 20
-1.0000000000000000E+020
 30
-1.0000000000000000E+020
  9
$PLIMMIN
 10
0.0
 20
0.0
  9
$PLIMMAX
 10
12.0
 20
9.0
  9
$UNITMODE
 70
     0
  9
$VISRETAIN
 70
     1
  9
$PLINEGEN
 70
     0
  9
$PSLTSCALE
 70
     1
  0
ENDSEC
  0
SECTION
  2
TABLES
  0
TABLE
  2
VPORT
 70
     2
  0
VPORT
  2
*ACTIVE
 70
     0
 10
0.0
 20
0.0
 11
1.0
 21
1.0
 12
202.00661374696719
 22
127.4298
 13
0.0
 23
0.0
 14
1.0
 24
1.0
 15
0.0
 25
0.0
 16
0.0
 26
0.0
 36
1.0
 17
0.0
 27
0.0
 37
0.0
 40
299.45358899587342
 41
2.2894736842105261
 42
50.0
 43
0.0
 44
0.0
 50
0.0
 51
0.0
 71
     0
 72
   100
 73
     1
 74
     1
 75
     0
 76
     0
 77
     0
 78
     0
  0
ENDTAB
  0
TABLE
  2
LTYPE
 70
     4
  0
LTYPE
  2
CONTINUOUS
 70
     0
  3
Solid line
 72
    65
 73
     0
 40
0.0
  0
LTYPE
  2
AIGENLINE001
 70
     0
  3
generate AI->DXF Converter
 72
    65
 73
     2
 40
1.5522299999999991
 49
0.776115
 49
-0.776115
  0
LTYPE
  2
AIGENLINE002
 70
     0
  3
generate AI->DXF Converter
 72
    65
 73
     4
 40
5.8561449999999988
 49
3.5278
 49
-0.776115
 49
0.776115
 49
-0.776115
  0
LTYPE
  2
AIGENLINE003
 70
     0
  3
generate AI->DXF Converter
 72
    65
 73
     6
 40
7.4083750000000004
 49
3.5278
 49
-0.776115
 49
0.776115
 49
-0.776115
 49
0.776115
 49
-0.776115
  0
ENDTAB
  0
TABLE
  2
LAYER
 70
     2
  0
LAYER
  2
0
 70
     0
 62
     7
  6
CONTINUOUS
  0
LAYER
  2
_________2
 70
     0
 62
     7
  6
CONTINUOUS
  0
ENDTAB
  0
TABLE
  2
STYLE
 70
     1
  0
STYLE
  2
STANDARD
 70
     0
 40
0.0
 41
0.0
 50
0.0
 71
     0
 42
0.0
  3
TXT
  4
EXTFONT.SHX
  0
ENDTAB
  0
TABLE
  2
VIEW
 70
     0
  0
ENDTAB
  0
TABLE
  2
UCS
 70
     0
  0
ENDTAB
  0
TABLE
  2
APPID
 70
     1
  0
APPID
  2
ACAD
 70
     0
  0
ENDTAB
  0
TABLE
  2
DIMSTYLE
 70
     1
  0
DIMSTYLE
  2
STANDARD
 70
     0
  3

  4

  5

  6

  7

 40
1.0
 41
0.18
 42
0.0625
 43
0.38
 44
0.18
 45
0.0
 46
0.0
 47
0.0
 48
0.0
140
0.18
141
0.09
142
0.0
143
25.399999999999999
144
1.0
145
0.0
146
1.0
147
0.09
 71
     0
 72
     0
 73
     1
 74
     1
 75
     0
 76
     0
 77
     0
 78
     0
170
     0
171
     2
172
     0
173
     0
174
     0
175
     0
176
     0
177
     0
178
     0
  0
ENDTAB
  0
ENDSEC
  0
SECTION
  2
BLOCKS
  0
BLOCK
  8
0
  2
$MODEL_SPACE
 70
     0
 10
0.0
 20
0.0
 30
0.0
  3
$MODEL_SPACE
  1

  0
ENDBLK
  5
1A
  8
0
  0
BLOCK
 67
     1
  8
0
  2
$PAPER_SPACE
 70
     0
 10
0.0
 20
0.0
 30
0.0
  3
$PAPER_SPACE
  1

  0
ENDBLK
  5
17
 67
     1
  8
0
  0
ENDSEC
  0
SECTION
  2
ENTITIES
  0
TEXT
  5
24
  8
0
 62
     7
 10
75.103684999999999
 20
172.27799999999999
 30
0.0
 40
3.0923400000000001
  1
120%%d
 41
0.5
 72
     2
 11
79.484499999999997
 21
172.27799999999999
 31
0.0
  0
TEXT
  5
25
  8
0
 62
     7
 10
55.362299999999991
 20
175.00999999999991
 30
0.0
 40
3.0923400000000001
  1
120%%d
 41
0.5
  0
TEXT
  5
26
  8
0
 62
     7
 10
34.105460999999991
 20
197.35299999999989
 30
0.0
 40
3.0923400000000001
  1
※40%%d
 41
0.5
 72
     2
 11
39.31089999999999
 21
197.35299999999989
 31
0.0
  0
TEXT
  5
27
  8
0
 62
     7
 10
96.990399999999994
 20
197.35299999999989
 30
0.0
 40
3.0923400000000001
  1
※40%%d
 41
0.5
  0
TEXT
  5
28
  8
0
 62
     7
 10
65.217063500000009
 20
150.07699999999991
 30
0.0
 40
3.0923400000000001
  1
※40%%d
 41
0.5
 72
     1
 11
67.974400000000003
 21
150.07699999999991
 31
0.0
  0
TEXT
  5
29
  8
0
 62
     7
 10
44.842300000000002
 20
214.30000000000001
 30
0.0
 40
3.0923400000000001
  1
※40%%d範囲内には、ポップアップ引棒付水栓・
 41
0.5
  0
TEXT
  5
2A
  8
0
 62
     7
 10
44.842300000000002
 20
210.434
 30
0.0
 40
3.0923400000000001
  1
　引棒部は設置できません。
 41
0.5
  0
TEXT
  5
2B
  8
0
 62
     7
 10
135.21575999999999
 20
164.90999999999991
 30
0.0
 40
3.0923400000000001
  1
カウンター切込寸法
 41
0.5
 72
     1
 11
143.46199999999999
 21
164.90999999999991
 31
0.0
  0
TEXT
  5
2C
  8
0
 62
     7
 10
110.206
 20
84.824600000000004
 30
0.0
 40
3.0923400000000001
  1
カウンタ－
 41
0.5
  0
TEXT
  5
2D
  8
0
 62
     7
 10
110.206
 20
80.959199999999996
 30
0.0
 40
3.0923400000000001
  1
（t＝10～30）
 41
0.5
  0
TEXT
  5
2E
  8
0
 62
     7
 10
140.68700000000001
 20
100.8588299999999
 30
0.0
 40
3.0923400000000001
  1
100
 50
90.0
 41
0.5
 72
     1
 11
140.68700000000001
 21
102.405
 31
0.0
  0
TEXT
  5
2F
  8
0
 62
     7
 10
93.542699999999996
 20
100.20113499999989
 30
0.0
 40
3.0923400000000001
  1
10
 50
90.0
 41
0.5
 72
     2
 11
93.542699999999996
 21
102.0049999999999
 31
0.0
  0
TEXT
  5
30
  8
0
 62
     7
 10
105.715
 20
97.730082500000009
 30
0.0
 40
3.0923400000000001
  1
160
 50
90.0
 41
0.5
 72
     1
 11
105.715
 21
99.405100000000004
 31
0.0
  0
TEXT
  5
31
  8
0
 62
     7
 10
99.699799999999996
 20
99.729982500000006
 30
0.0
 40
3.0923400000000001
  1
120
 50
90.0
 41
0.5
 72
     1
 11
99.699799999999996
 21
101.405
 31
0.0
  0
TEXT
  5
32
  8
0
 62
     7
 10
128.167
 20
192.46899999999999
 30
0.0
 40
3.0923400000000001
  1
%%c185
 41
0.5
  0
TEXT
  5
33
  8
0
 62
     7
 10
74.499080000000006
 20
178.09399999999999
 30
0.0
 40
3.0923400000000001
  1
%%c46
 41
0.5
 72
     2
 11
78.622200000000007
 21
178.09399999999999
 31
0.0
  0
TEXT
  5
34
  8
0
 62
     7
 10
65.2686025
 20
81.686099999999996
 30
0.0
 40
3.0923400000000001
  1
%%c205
 41
0.5
 72
     1
 11
67.974400000000003
 21
81.686099999999996
 31
0.0
  0
TEXT
  5
35
  8
0
 62
     7
 10
65.2686025
 20
137.11000000000001
 30
0.0
 40
3.0923400000000001
  1
%%c430
 41
0.5
 72
     1
 11
67.974400000000003
 21
137.11000000000001
 31
0.0
  0
TEXT
  5
36
  8
0
 62
     7
 10
65.2686025
 20
143.43100000000001
 30
0.0
 40
3.0923400000000001
  1
%%c390
 41
0.5
 72
     1
 11
67.974400000000003
 21
143.43100000000001
 31
0.0
  0
ARC
  5
37
  8
0
 62
     7
 10
67.989818999999997
 20
182.08166600000001
 30
0.0
 40
14.63391
 50
150.032026
 51
180.00265400000001
  0
ARC
  5
38
  8
0
 62
     7
 10
67.974572999999992
 20
182.08133499999991
 30
0.0
 40
14.618664000000001
 50
180.00135999999989
 51
270.00136999999989
  0
ARC
  5
39
  8
0
 62
     7
 10
67.974572999999992
 20
182.0806509999999
 30
0.0
 40
14.61797999999999
 50
270.00136999999989
 51
0.00134
  0
ARC
  5
3A
  8
0
 62
     7
 10
67.877992000000006
 20
182.06016500000001
 30
0.0
 40
14.714575
 50
0.081102
 51
29.881201999999998
  0
ARC
  5
3B
  8
0
 62
     7
 10
67.941295999999994
 20
182.14245500000001
 30
0.0
 40
32.386353
 50
130.02518499999999
 51
150.06447600000001
  0
ARC
  5
3C
  8
0
 62
     7
 10
68.173413999999994
 20
181.981247
 30
0.0
 40
32.667959000000003
 50
150.02261399999989
 51
169.888586
  0
LINE
  5
3D
  8
0
 62
     7
 10
35.9298
 20
190.00399999999999
 30
0.0
 11
36.012799999999999
 21
187.71700000000001
 31
0.0
  0
LINE
  5
3E
  8
0
 62
     7
 10
36.012799999999999
 20
187.71700000000001
 30
0.0
 11
37.085299999999989
 21
189.739
 31
0.0
  0
LINE
  5
3F
  8
0
 62
     7
 10
37.085299999999989
 20
189.739
 30
0.0
 11
35.9298
 21
190.00399999999999
 31
0.0
  0
LINE
  5
40
  8
0
 62
     7
 10
70.140299999999996
 20
168.20099999999999
 30
0.0
 11
67.9739
 21
167.46199999999999
 31
0.0
  0
LINE
  5
41
  8
0
 62
     7
 10
67.9739
 20
167.46199999999999
 30
0.0
 11
70.219899999999996
 21
167.01900000000001
 31
0.0
  0
LINE
  5
42
  8
0
 62
     7
 10
70.219899999999996
 20
167.01900000000001
 30
0.0
 11
70.140299999999996
 21
168.20099999999999
 31
0.0
  0
LINE
  5
43
  8
0
 62
     7
 10
82.170900000000003
 20
187.6929999999999
 30
0.0
 11
80.636399999999995
 21
189.39099999999991
 31
0.0
  0
LINE
  5
44
  8
0
 62
     7
 10
80.636399999999995
 20
189.39099999999991
 30
0.0
 11
81.115799999999993
 21
187.15299999999991
 31
0.0
  0
LINE
  5
45
  8
0
 62
     7
 10
81.115799999999993
 20
187.15299999999991
 30
0.0
 11
82.170900000000003
 21
187.6929999999999
 31
0.0
  0
LINE
  5
46
  8
0
 62
     7
 10
65.808499999999995
 20
168.202
 30
0.0
 11
67.974900000000005
 21
167.46299999999999
 31
0.0
  0
LINE
  5
47
  8
0
 62
     7
 10
67.974900000000005
 20
167.46299999999999
 30
0.0
 11
65.728899999999996
 21
167.02000000000001
 31
0.0
  0
LINE
  5
48
  8
0
 62
     7
 10
65.728899999999996
 20
167.02000000000001
 30
0.0
 11
65.808499999999995
 21
168.202
 31
0.0
  0
LINE
  5
49
  8
0
 62
     7
 10
53.777900000000002
 20
187.6929999999999
 30
0.0
 11
55.312399999999997
 21
189.39199999999991
 31
0.0
  0
LINE
  5
4A
  8
0
 62
     7
 10
55.312399999999997
 20
189.39199999999991
 30
0.0
 11
54.832999999999991
 21
187.15299999999991
 31
0.0
  0
LINE
  5
4B
  8
0
 62
     7
 10
54.832999999999991
 20
187.15299999999991
 30
0.0
 11
53.777900000000002
 21
187.6929999999999
 31
0.0
  0
LINE
  5
4C
  8
0
 62
     7
 10
45.057999999999993
 20
205.934
 30
0.0
 11
47.1128
 21
206.9429999999999
 31
0.0
  0
LINE
  5
4D
  8
0
 62
     7
 10
47.1128
 20
206.9429999999999
 30
0.0
 11
45.837799999999987
 21
205.04099999999991
 31
0.0
  0
LINE
  5
4E
  8
0
 62
     7
 10
45.837799999999987
 20
205.04099999999991
 30
0.0
 11
45.057999999999993
 21
205.934
 31
0.0
  0
LINE
  5
4F
  8
0
 62
     7
 10
35.118699999999997
 20
187.874
 30
0.0
 11
39.148800000000001
 21
187.1629999999999
 31
0.0
  0
LINE
  5
50
  8
0
 62
     7
 10
46.529600000000002
 20
207.63799999999989
 30
0.0
 11
49.160099999999993
 21
204.5029999999999
 31
0.0
  0
LINE
  5
51
  8
0
  6
AIGENLINE003
 62
     7
 10
49.609999999999999
 20
203.96700000000001
 30
0.0
 11
67.974599999999995
 21
182.0809999999999
 31
0.0
  0
LINE
  5
52
  8
0
  6
AIGENLINE003
 62
     7
 10
40.074300000000001
 20
187.00099999999989
 30
0.0
 11
67.974599999999995
 21
182.0809999999999
 31
0.0
  0
LINE
  5
53
  8
0
  6
AIGENLINE002
 62
     7
 10
67.974599999999995
 20
182.0809999999999
 30
0.0
 11
47.387099999999997
 21
193.96700000000001
 31
0.0
  0
ARC
  5
54
  8
0
 62
     7
 10
68.040013999999999
 20
182.07753799999989
 30
0.0
 40
32.390638000000003
 50
10.026489
 51
30.063027000000002
  0
ARC
  5
55
  8
0
 62
     7
 10
67.77855799999999
 20
181.949894
 30
0.0
 40
32.680871000000003
 50
30.02707899999999
 51
49.884999000000001
  0
LINE
  5
56
  8
0
 62
     7
 10
90.858400000000003
 20
205.87100000000001
 30
0.0
 11
88.835600000000014
 21
206.9429999999999
 31
0.0
  0
LINE
  5
57
  8
0
 62
     7
 10
88.835600000000014
 20
206.9429999999999
 30
0.0
 11
90.051199999999994
 21
205.00299999999999
 31
0.0
  0
LINE
  5
58
  8
0
 62
     7
 10
90.051199999999994
 20
205.00299999999999
 30
0.0
 11
90.858400000000003
 21
205.87100000000001
 31
0.0
  0
LINE
  5
59
  8
0
 62
     7
 10
100.09
 20
190.00099999999989
 30
0.0
 11
99.936000000000007
 21
187.71700000000001
 31
0.0
  0
LINE
  5
5A
  8
0
 62
     7
 10
99.936000000000007
 20
187.71700000000001
 30
0.0
 11
98.926900000000003
 21
189.77199999999999
 31
0.0
  0
LINE
  5
5B
  8
0
 62
     7
 10
98.926900000000003
 20
189.77199999999999
 30
0.0
 11
100.09
 21
190.00099999999989
 31
0.0
  0
LINE
  5
5C
  8
0
 62
     7
 10
89.419399999999996
 20
207.63799999999989
 30
0.0
 11
86.788700000000006
 21
204.50399999999999
 31
0.0
  0
LINE
  5
5D
  8
0
 62
     7
 10
100.8299999999999
 20
187.874
 30
0.0
 11
96.799899999999994
 21
187.16399999999999
 31
0.0
  0
LINE
  5
5E
  8
0
  6
AIGENLINE003
 62
     7
 10
96.110500000000002
 20
187.042
 30
0.0
 11
67.974199999999996
 21
182.0809999999999
 31
0.0
  0
LINE
  5
5F
  8
0
  6
AIGENLINE003
 62
     7
 10
86.303999999999988
 20
203.92500000000001
 30
0.0
 11
67.974199999999996
 21
182.0809999999999
 31
0.0
  0
LINE
  5
60
  8
0
  6
AIGENLINE002
 62
     7
 10
67.974599999999995
 20
182.0809999999999
 30
0.0
 11
88.561899999999994
 21
193.96700000000001
 31
0.0
  0
ARC
  5
61
  8
0
 62
     7
 10
67.934815999999984
 20
182.00520599999999
 30
0.0
 40
32.369834999999988
 50
250.020216
 51
270.06977499999988
  0
ARC
  5
62
  8
0
 62
     7
 10
67.959590000000006
 20
182.3143959999999
 30
0.0
 40
32.679003999999999
 50
270.02567900000003
 51
289.884883
  0
ARC
  5
63
  8
0
 62
     7
 10
67.974400000000003
 20
182.08116200000001
 30
0.0
 40
19.500056000000001
 50
0.00001
 51
89.999980000000008
  0
ARC
  5
64
  8
0
 62
     7
 10
67.974406000000002
 20
182.08116200000001
 30
0.0
 40
19.500056000000001
 50
90.0
 51
179.99996999999991
  0
ARC
  5
65
  8
0
 62
     7
 10
67.974400000000003
 20
182.08116200000001
 30
0.0
 40
19.500049000000001
 50
179.99996999999991
 51
270.00002000000001
  0
ARC
  5
66
  8
0
 62
     7
 10
67.974400000000003
 20
182.08116899999999
 30
0.0
 40
19.500056000000001
 50
270.00002000000001
 51
359.99998999999991
  0
ARC
  5
67
  8
0
 62
     7
 10
67.974226999999999
 20
182.08133399999991
 30
0.0
 40
21.500119000000002
 50
359.99955099999988
 51
89.999520999999987
  0
ARC
  5
68
  8
0
 62
     7
 10
67.974406999999999
 20
182.08116200000001
 30
0.0
 40
21.500292000000002
 50
90.0
 51
179.99996999999991
  0
ARC
  5
69
  8
0
 62
     7
 10
67.974312999999995
 20
182.0812479999999
 30
0.0
 40
21.500198000000001
 50
180.00023899999991
 51
270.000249
  0
ARC
  5
6A
  8
0
 62
     7
 10
67.974312999999995
 20
182.08108300000001
 30
0.0
 40
21.500032999999991
 50
270.000249
 51
0.00022
  0
LINE
  5
6B
  8
0
 62
     7
 10
77.135000000000005
 20
150.36799999999991
 30
0.0
 11
79.074700000000007
 21
151.584
 31
0.0
  0
LINE
  5
6C
  8
0
 62
     7
 10
79.074700000000007
 20
151.584
 30
0.0
 11
76.786699999999996
 21
151.501
 31
0.0
  0
LINE
  5
6D
  8
0
 62
     7
 10
76.786699999999996
 20
151.501
 30
0.0
 11
77.135000000000005
 21
150.36799999999991
 31
0.0
  0
LINE
  5
6E
  8
0
 62
     7
 10
58.775799999999997
 20
150.30799999999991
 30
0.0
 11
56.874400000000001
 21
151.584
 31
0.0
  0
LINE
  5
6F
  8
0
 62
     7
 10
56.874400000000001
 20
151.584
 30
0.0
 11
59.158900000000003
 21
151.43000000000001
 31
0.0
  0
LINE
  5
70
  8
0
 62
     7
 10
59.158900000000003
 20
151.43000000000001
 30
0.0
 11
58.775799999999997
 21
150.30799999999991
 31
0.0
  0
LINE
  5
71
  8
0
 62
     7
 10
79.385000000000005
 20
150.7299999999999
 30
0.0
 11
77.985600000000005
 21
154.57599999999999
 31
0.0
  0
LINE
  5
72
  8
0
 62
     7
 10
56.563800000000001
 20
150.7299999999999
 30
0.0
 11
57.963200000000001
 21
154.57599999999999
 31
0.0
  0
LINE
  5
73
  8
0
  6
AIGENLINE003
 62
     7
 10
58.2027
 20
155.23400000000001
 30
0.0
 11
67.974400000000003
 21
182.0809999999999
 31
0.0
  0
LINE
  5
74
  8
0
  6
AIGENLINE003
 62
     7
 10
78.892300000000006
 20
152.08500000000001
 30
0.0
 11
67.974400000000003
 21
182.0809999999999
 31
0.0
  0
ARC
  5
75
  8
0
 62
     7
 10
68.528168000000008
 20
165.08316199999999
 30
0.0
 40
0.446186
 50
320.08954499999999
 51
359.73036300000001
  0
ARC
  5
76
  8
0
 62
     7
 10
68.225781000000012
 20
165.31916100000001
 30
0.0
 40
0.8296469999999999
 50
288.02956399999988
 51
320.98634700000002
  0
ARC
  5
77
  8
0
 62
     7
 10
67.987977999999998
 20
165.8652899999999
 30
0.0
 40
1.423705999999999
 50
269.45369199999999
 51
290.32793500000002
  0
ARC
  5
78
  8
0
 62
     7
 10
67.976555000000005
 20
165.848827
 30
0.0
 40
1.407179999999999
 50
237.01658399999991
 51
269.912372
  0
ARC
  5
79
  8
0
 62
     7
 10
67.549426999999994
 20
165.13614799999999
 30
0.0
 40
0.5776020000000001
 50
185.47267999999991
 51
234.069909
  0
ARC
  5
7A
  8
0
 62
     7
 10
67.420637999999997
 20
165.07896199999999
 30
0.0
 40
0.446186
 50
140.08952500000001
 51
179.730343
  0
ARC
  5
7B
  8
0
 62
     7
 10
67.723025000000007
 20
164.842963
 30
0.0
 40
0.8296469999999999
 50
108.0295439999999
 51
140.9863269999999
  0
ARC
  5
7C
  8
0
 62
     7
 10
67.960828000000006
 20
164.29683399999999
 30
0.0
 40
1.423705999999999
 50
89.453671999999983
 51
110.3279149999999
  0
ARC
  5
7D
  8
0
 62
     7
 10
67.972251
 20
164.31329700000001
 30
0.0
 40
1.407179999999999
 50
57.016564000000002
 51
89.912352999999996
  0
ARC
  5
7E
  8
0
 62
     7
 10
68.39937900000001
 20
165.02597600000001
 30
0.0
 40
0.5776020000000001
 50
5.4726599999999994
 51
54.069889000000011
  0
LINE
  5
7F
  8
0
  6
AIGENLINE002
 62
     7
 10
65.610900000000001
 20
165.0809999999999
 30
0.0
 11
70.406499999999994
 21
165.0809999999999
 31
0.0
  0
ARC
  5
80
  8
0
  6
AIGENLINE001
 62
     7
 10
67.974316999999999
 20
104.9047679999999
 30
0.0
 40
1.000032
 50
270.004954
 51
0.004925
  0
ARC
  5
81
  8
0
  6
AIGENLINE001
 62
     7
 10
67.974489000000005
 20
104.9047679999999
 30
0.0
 40
1.000030999999999
 50
179.995036
 51
269.99508500000002
  0
ARC
  5
82
  8
0
  6
AIGENLINE001
 62
     7
 10
67.974489000000005
 20
104.9049399999999
 30
0.0
 40
1.000032
 50
90.004935000000003
 51
180.00494499999991
  0
ARC
  5
83
  8
0
  6
AIGENLINE001
 62
     7
 10
67.974316999999999
 20
104.9049399999999
 30
0.0
 40
1.000032
 50
359.99507499999999
 51
89.995045999999988
  0
ARC
  5
84
  8
0
  6
AIGENLINE001
 62
     7
 10
69.263777000000005
 20
118.618801
 30
0.0
 40
21.386413999999998
 50
277.28097000000002
 51
328.37595199999993
  0
ARC
  5
85
  8
0
  6
AIGENLINE001
 62
     7
 10
144.75117800000001
 20
118.6189759999999
 30
0.0
 40
21.386601999999989
 50
277.28121099999993
 51
328.37571099999991
  0
ARC
  5
86
  8
0
  6
AIGENLINE001
 62
     7
 10
142.17196799999991
 20
118.6189759999999
 30
0.0
 40
21.386601999999989
 50
211.6243089999999
 51
262.71880800000002
  0
LINE
  5
87
  8
0
  6
AIGENLINE001
 62
     7
 10
152.11899999999989
 20
90.904899999999998
 30
0.0
 11
152.56200000000001
 21
93.304799999999986
 31
0.0
  0
LINE
  5
88
  8
0
  6
AIGENLINE001
 62
     7
 10
151.6049999999999
 20
95.404899999999998
 30
0.0
 11
151.51099999999991
 21
91.404799999999994
 31
0.0
  0
LINE
  5
89
  8
0
  6
AIGENLINE001
 62
     7
 10
134.80500000000001
 20
90.904899999999998
 30
0.0
 11
134.3609999999999
 21
93.304799999999986
 31
0.0
  0
LINE
  5
8A
  8
0
 62
     7
 10
143.46199999999999
 20
90.404700000000005
 30
0.0
 11
152.29699999999991
 21
90.404700000000005
 31
0.0
  0
ARC
  5
8B
  8
0
 62
     7
 10
152.29074
 20
90.610189999999989
 30
0.0
 40
0.205594
 50
271.81894499999999
 51
353.50857000000002
  0
LINE
  5
8C
  8
0
 62
     7
 10
152.495
 20
90.5869
 30
0.0
 11
152.9439999999999
 21
93.013999999999996
 31
0.0
  0
ARC
  5
8D
  8
0
 62
     7
 10
153.4062999999999
 20
92.971997999999985
 30
0.0
 40
0.464636
 50
134.25317699999991
 51
174.80955800000001
  0
LINE
  5
8E
  8
0
 62
     7
 10
153.46199999999999
 20
93.604900000000001
 30
0.0
 11
153.46199999999999
 21
93.304799999999986
 31
0.0
  0
LINE
  5
8F
  8
0
 62
     7
 10
143.46199999999999
 20
93.304799999999986
 30
0.0
 11
153.46199999999999
 21
93.304799999999986
 31
0.0
  0
LINE
  5
90
  8
0
 62
     7
 10
143.46199999999999
 20
93.604900000000001
 30
0.0
 11
153.46199999999999
 21
93.604900000000001
 31
0.0
  0
LINE
  5
91
  8
0
  6
AIGENLINE001
 62
     7
 10
135.3189999999999
 20
95.404899999999998
 30
0.0
 11
135.4129999999999
 21
91.404799999999994
 31
0.0
  0
LINE
  5
92
  8
0
 62
     7
 10
143.46199999999999
 20
90.404700000000005
 30
0.0
 11
134.626
 21
90.404700000000005
 31
0.0
  0
ARC
  5
93
  8
0
 62
     7
 10
134.63228499999991
 20
90.610058999999993
 30
0.0
 40
0.205458
 50
186.45881799999989
 51
268.213706
  0
LINE
  5
94
  8
0
 62
     7
 10
134.42799999999991
 20
90.5869
 30
0.0
 11
133.9799999999999
 21
93.013999999999996
 31
0.0
  0
ARC
  5
95
  8
0
 62
     7
 10
133.521535
 20
92.974988999999994
 30
0.0
 40
0.4597030000000001
 50
4.8719950000000001
 51
45.843693999999992
  0
LINE
  5
96
  8
0
 62
     7
 10
133.46100000000001
 20
93.604900000000001
 30
0.0
 11
133.46100000000001
 21
93.304799999999986
 31
0.0
  0
LINE
  5
97
  8
0
 62
     7
 10
143.46199999999999
 20
93.304799999999986
 30
0.0
 11
133.46100000000001
 21
93.304799999999986
 31
0.0
  0
LINE
  5
98
  8
0
 62
     7
 10
143.46199999999999
 20
93.604900000000001
 30
0.0
 11
133.46100000000001
 21
93.604900000000001
 31
0.0
  0
LINE
  5
99
  8
0
  6
AIGENLINE002
 62
     7
 10
147.96199999999999
 20
91.642200000000003
 30
0.0
 11
147.96199999999999
 21
87.152500000000003
 31
0.0
  0
LINE
  5
9A
  8
0
 62
     7
 10
147.66200000000001
 20
88.704899999999995
 30
0.0
 11
147.66200000000001
 21
90.204899999999995
 31
0.0
  0
LINE
  5
9B
  8
0
 62
     7
 10
147.66200000000001
 20
88.704899999999995
 30
0.0
 11
147.96199999999999
 21
88.704899999999995
 31
0.0
  0
LINE
  5
9C
  8
0
 62
     7
 10
147.48699999999991
 20
90.204899999999995
 30
0.0
 11
147.48699999999991
 21
90.404700000000005
 31
0.0
  0
LINE
  5
9D
  8
0
 62
     7
 10
147.48699999999991
 20
90.204899999999995
 30
0.0
 11
147.96199999999999
 21
90.204899999999995
 31
0.0
  0
LINE
  5
9E
  8
0
 62
     7
 10
148.43700000000001
 20
90.204899999999995
 30
0.0
 11
148.43700000000001
 21
90.404700000000005
 31
0.0
  0
LINE
  5
9F
  8
0
 62
     7
 10
148.43700000000001
 20
90.204899999999995
 30
0.0
 11
147.96199999999999
 21
90.204899999999995
 31
0.0
  0
LINE
  5
A0
  8
0
 62
     7
 10
148.262
 20
88.704899999999995
 30
0.0
 11
148.262
 21
90.204899999999995
 31
0.0
  0
LINE
  5
A1
  8
0
 62
     7
 10
148.262
 20
88.704899999999995
 30
0.0
 11
147.96199999999999
 21
88.704899999999995
 31
0.0
  0
LINE
  5
A2
  8
0
  6
AIGENLINE002
 62
     7
 10
135.16200000000001
 20
91.642200000000003
 30
0.0
 11
135.16200000000001
 21
87.152500000000003
 31
0.0
  0
LINE
  5
A3
  8
0
  6
AIGENLINE001
 62
     7
 10
152.11899999999989
 20
90.904899999999998
 30
0.0
 11
134.80500000000001
 21
90.904899999999998
 31
0.0
  0
LINE
  5
A4
  8
0
  6
AIGENLINE001
 62
     7
 10
151.51099999999991
 20
91.404799999999994
 30
0.0
 11
135.4129999999999
 21
91.404799999999994
 31
0.0
  0
LINE
  5
A5
  8
0
 62
     7
 10
135.46199999999999
 20
88.704899999999995
 30
0.0
 11
135.46199999999999
 21
90.204899999999995
 31
0.0
  0
LINE
  5
A6
  8
0
 62
     7
 10
135.46199999999999
 20
88.704899999999995
 30
0.0
 11
135.16200000000001
 21
88.704899999999995
 31
0.0
  0
LINE
  5
A7
  8
0
 62
     7
 10
135.637
 20
90.204899999999995
 30
0.0
 11
135.637
 21
90.404700000000005
 31
0.0
  0
LINE
  5
A8
  8
0
 62
     7
 10
135.637
 20
90.204899999999995
 30
0.0
 11
135.16200000000001
 21
90.204899999999995
 31
0.0
  0
LINE
  5
A9
  8
0
 62
     7
 10
134.68700000000001
 20
90.204899999999995
 30
0.0
 11
134.68700000000001
 21
90.404700000000005
 31
0.0
  0
LINE
  5
AA
  8
0
 62
     7
 10
134.68700000000001
 20
90.204899999999995
 30
0.0
 11
135.16200000000001
 21
90.204899999999995
 31
0.0
  0
LINE
  5
AB
  8
0
 62
     7
 10
134.86199999999991
 20
88.704899999999995
 30
0.0
 11
134.86199999999991
 21
90.204899999999995
 31
0.0
  0
LINE
  5
AC
  8
0
 62
     7
 10
134.86199999999991
 20
88.704899999999995
 30
0.0
 11
135.16200000000001
 21
88.704899999999995
 31
0.0
  0
LINE
  5
AD
  8
0
  6
AIGENLINE003
 62
     7
 10
161.83899999999991
 20
93.604900000000001
 30
0.0
 11
125.0839999999999
 21
93.604900000000001
 31
0.0
  0
LINE
  5
AE
  8
0
  6
AIGENLINE003
 62
     7
 10
161.83899999999991
 20
95.404899999999998
 30
0.0
 11
125.0839999999999
 21
95.404899999999998
 31
0.0
  0
LINE
  5
AF
  8
0
  6
AIGENLINE002
 62
     7
 10
143.46199999999999
 20
109.3429999999999
 30
0.0
 11
143.46199999999999
 21
88.245300000000015
 31
0.0
  0
ARC
  5
B0
  8
0
 62
     7
 10
162.03617700000001
 20
107.44781500000001
 30
0.0
 40
2.980442
 50
340.65987100000001
 51
347.05267500000002
  0
ARC
  5
B1
  8
0
 62
     7
 10
156.4957949999999
 20
109.256196
 30
0.0
 40
8.8080039999999986
 50
331.45506799999998
 51
341.49582599999991
  0
ARC
  5
B2
  8
0
 62
     7
 10
151.72758300000001
 20
111.7092449999999
 30
0.0
 40
14.169328999999999
 50
316.12900500000001
 51
331.95493699999997
  0
ARC
  5
B3
  8
0
 62
     7
 10
147.934833
 20
114.96994599999989
 30
0.0
 40
19.165330999999991
 50
311.100819
 51
316.95974399999989
  0
ARC
  5
B4
  8
0
 62
     7
 10
145.6296439999999
 20
117.566221
 30
0.0
 40
22.637184000000001
 50
291.50540599999999
 51
311.17758400000002
  0
LINE
  5
B5
  8
0
 62
     7
 10
153.69099999999989
 20
95.596500000000006
 30
0.0
 11
153.71600000000001
 21
96.064999999999998
 31
0.0
  0
LINE
  5
B6
  8
0
 62
     7
 10
153.49000000000001
 20
95.404899999999998
 30
0.0
 11
143.46600000000001
 21
95.404899999999998
 31
0.0
  0
LINE
  5
B7
  8
0
 62
     7
 10
153.40199999999999
 20
96.405100000000004
 30
0.0
 11
143.46600000000001
 21
96.405100000000004
 31
0.0
  0
LINE
  5
B8
  8
0
 62
     7
 10
164.94099999999989
 20
106.78
 30
0.0
 11
143.46600000000001
 21
106.78
 31
0.0
  0
LINE
  5
B9
  8
0
 62
     7
 10
143.46399999999991
 20
107.4049999999999
 30
0.0
 11
164.06499999999991
 21
107.4049999999999
 31
0.0
  0
LINE
  5
BA
  8
0
 62
     7
 10
164.06499999999991
 20
107.4049999999999
 30
0.0
 11
164.14400000000001
 21
107.4049999999999
 31
0.0
  0
LINE
  5
BB
  8
0
 62
     7
 10
164.14400000000001
 20
107.4049999999999
 30
0.0
 11
164.30299999999991
 21
107.401
 31
0.0
  0
LINE
  5
BC
  8
0
 62
     7
 10
164.30299999999991
 20
107.401
 30
0.0
 11
164.4609999999999
 21
107.39100000000001
 31
0.0
  0
LINE
  5
BD
  8
0
 62
     7
 10
164.4609999999999
 20
107.39100000000001
 30
0.0
 11
164.59999999999991
 21
107.3779999999999
 31
0.0
  0
ARC
  5
BE
  8
0
 62
     7
 10
164.5707699999999
 20
107.0656129999999
 30
0.0
 40
0.313556
 50
61.791955000000009
 51
84.565208999999996
  0
ARC
  5
BF
  8
0
 62
     7
 10
164.5720739999999
 20
107.0563149999999
 30
0.0
 40
0.321182
 50
40.546570000000003
 51
62.780924000000013
  0
ARC
  5
C0
  8
0
 62
     7
 10
168.8738469999999
 20
110.569881
 30
0.0
 40
5.2332210000000003
 50
219.16087099999999
 51
220.49188199999989
  0
ARC
  5
C1
  8
0
 62
     7
 10
164.64823299999989
 20
106.971555
 30
0.0
 40
0.316973
 50
16.679349999999989
 51
39.165000999999997
  0
ARC
  5
C2
  8
0
 62
     7
 10
164.63849599999989
 20
106.9633169999999
 30
0.0
 40
0.328705
 50
355.85192799999999
 51
17.567744000000001
  0
ARC
  5
C3
  8
0
 62
     7
 10
167.60807299999991
 20
106.664779
 30
0.0
 40
2.6559829999999991
 50
174.06209899999999
 51
175.73353199999991
  0
ARC
  5
C4
  8
0
 62
     7
 10
164.69023899999991
 20
106.889612
 30
0.0
 40
0.270585
 50
347.04527999999988
 51
354.22170199999988
  0
ARC
  5
C5
  8
0
 62
     7
 10
164.412835
 20
106.947542
 30
0.0
 40
0.5539450000000001
 50
342.39844399999993
 51
347.63829399999992
  0
ARC
  5
C6
  8
0
 62
     7
 10
154.07217600000001
 20
96.212842000000009
 30
0.0
 40
0.325687
 50
116.23900500000001
 51
138.860468
  0
ARC
  5
C7
  8
0
 62
     7
 10
154.08673400000001
 20
96.197905000000006
 30
0.0
 40
0.346482
 50
138.58409099999989
 51
159.85886599999989
  0
ARC
  5
C8
  8
0
 62
     7
 10
163.978137
 20
92.757202000000007
 30
0.0
 40
10.819175
 50
160.78908699999999
 51
161.294511
  0
ARC
  5
C9
  8
0
 62
     7
 10
153.98788400000001
 20
96.132047
 30
0.0
 40
0.274384
 50
159.76506299999991
 51
173.47782000000001
  0
ARC
  5
CA
  8
0
 62
     7
 10
154.063886
 20
96.119444000000001
 30
0.0
 40
0.351347
 50
172.84361699999991
 51
183.538905
  0
ARC
  5
CB
  8
0
 62
     7
 10
152.4240429999999
 20
95.972715000000008
 30
0.0
 40
1.2952149999999989
 50
4.0870689999999996
 51
5.5400320000000001
  0
ARC
  5
CC
  8
0
 62
     7
 10
154.69855100000001
 20
95.530860000000004
 30
0.0
 40
1.0095270000000001
 50
176.27243000000001
 51
177.780069
  0
ARC
  5
CD
  8
0
 62
     7
 10
153.5610209999999
 20
95.576237000000006
 30
0.0
 40
0.128913
 50
333.11530399999992
 51
357.21088199999991
  0
ARC
  5
CE
  8
0
 62
     7
 10
153.56042099999991
 20
95.569058999999996
 30
0.0
 40
0.126379
 50
311.58706899999987
 51
336.14218599999998
  0
ARC
  5
CF
  8
0
 62
     7
 10
112.8182409999999
 20
140.798722
 30
0.0
 40
61.000405999999998
 50
311.96327400000001
 51
312.01116200000001
  0
ARC
  5
D0
  8
0
 62
     7
 10
153.51660100000001
 20
95.540678
 30
0.0
 40
0.134595
 50
290.47884299999998
 51
311.85551600000002
  0
ARC
  5
D1
  8
0
 62
     7
 10
153.50310200000001
 20
95.591095999999993
 30
0.0
 40
0.186616
 50
265.96315099999998
 51
288.94546500000001
  0
ARC
  5
D2
  8
0
 62
     7
 10
124.891792
 20
107.44781500000001
 30
0.0
 40
2.980442
 50
192.9473449999999
 51
199.34014899999991
  0
ARC
  5
D3
  8
0
 62
     7
 10
130.432174
 20
109.256196
 30
0.0
 40
8.8080039999999986
 50
198.5041939999999
 51
208.54495199999991
  0
ARC
  5
D4
  8
0
 62
     7
 10
135.20038700000001
 20
111.7092449999999
 30
0.0
 40
14.169328999999999
 50
208.04508300000001
 51
223.871015
  0
ARC
  5
D5
  8
0
 62
     7
 10
138.99313699999999
 20
114.96994599999989
 30
0.0
 40
19.165330999999991
 50
223.04027600000001
 51
228.89920099999989
  0
ARC
  5
D6
  8
0
 62
     7
 10
141.30116699999991
 20
117.56946499999999
 30
0.0
 40
22.641496
 50
228.82242799999989
 51
248.48931099999999
  0
LINE
  5
D7
  8
0
 62
     7
 10
133.2359999999999
 20
95.596500000000006
 30
0.0
 11
133.21199999999999
 21
96.064999999999998
 31
0.0
  0
LINE
  5
D8
  8
0
 62
     7
 10
133.4379999999999
 20
95.404899999999998
 30
0.0
 11
143.46199999999999
 21
95.404899999999998
 31
0.0
  0
LINE
  5
D9
  8
0
 62
     7
 10
133.52600000000001
 20
96.405100000000004
 30
0.0
 11
143.46199999999999
 21
96.405100000000004
 31
0.0
  0
LINE
  5
DA
  8
0
  6
AIGENLINE001
 62
     7
 10
147.46199999999999
 20
97.404799999999994
 30
0.0
 11
147.46199999999999
 21
96.630399999999995
 31
0.0
  0
LINE
  5
DB
  8
0
  6
AIGENLINE001
 62
     7
 10
145.762
 20
94.904700000000005
 30
0.0
 11
147.292
 21
96.255499999999998
 31
0.0
  0
ARC
  5
DC
  8
0
  6
AIGENLINE001
 62
     7
 10
146.95782299999991
 20
96.632487999999995
 30
0.0
 40
0.5038800000000001
 50
311.57516099999992
 51
359.75931899999989
  0
LINE
  5
DD
  8
0
  6
AIGENLINE001
 62
     7
 10
139.63099999999989
 20
96.255499999999998
 30
0.0
 11
141.16200000000001
 21
94.904700000000005
 31
0.0
  0
LINE
  5
DE
  8
0
  6
AIGENLINE001
 62
     7
 10
139.46100000000001
 20
97.404799999999994
 30
0.0
 11
139.46100000000001
 21
96.630399999999995
 31
0.0
  0
ARC
  5
DF
  8
0
  6
AIGENLINE001
 62
     7
 10
139.96741900000001
 20
96.633436000000003
 30
0.0
 40
0.5059810000000001
 50
180.3470299999999
 51
228.31852900000001
  0
LINE
  5
E0
  8
0
  6
AIGENLINE001
 62
     7
 10
139.46100000000001
 20
97.404799999999994
 30
0.0
 11
147.46199999999999
 21
97.404799999999994
 31
0.0
  0
LINE
  5
E1
  8
0
  6
AIGENLINE001
 62
     7
 10
145.762
 20
94.904700000000005
 30
0.0
 11
145.762
 21
91.404799999999994
 31
0.0
  0
LINE
  5
E2
  8
0
  6
AIGENLINE001
 62
     7
 10
141.16200000000001
 20
94.904700000000005
 30
0.0
 11
141.16200000000001
 21
91.404799999999994
 31
0.0
  0
LINE
  5
E3
  8
0
  6
AIGENLINE001
 62
     7
 10
141.16200000000001
 20
94.904700000000005
 30
0.0
 11
145.762
 21
94.904700000000005
 31
0.0
  0
LINE
  5
E4
  8
0
 62
     7
 10
140.80199999999999
 20
99.615900000000011
 30
0.0
 11
141.39400000000001
 21
97.404799999999994
 31
0.0
  0
LINE
  5
E5
  8
0
 62
     7
 10
141.39400000000001
 20
97.404799999999994
 30
0.0
 11
141.98699999999991
 21
99.615900000000011
 31
0.0
  0
LINE
  5
E6
  8
0
 62
     7
 10
141.98699999999991
 20
99.615900000000011
 30
0.0
 11
140.80199999999999
 21
99.615900000000011
 31
0.0
  0
LINE
  5
E7
  8
0
 62
     7
 10
141.97200000000001
 20
105.193
 30
0.0
 11
141.37999999999991
 21
107.4049999999999
 31
0.0
  0
LINE
  5
E8
  8
0
 62
     7
 10
141.37999999999991
 20
107.4049999999999
 30
0.0
 11
140.78700000000001
 21
105.193
 31
0.0
  0
LINE
  5
E9
  8
0
 62
     7
 10
140.78700000000001
 20
105.193
 30
0.0
 11
141.97200000000001
 21
105.193
 31
0.0
  0
LINE
  5
EA
  8
0
 62
     7
 10
141.387
 20
97.405500000000004
 30
0.0
 11
141.387
 21
107.4039999999999
 31
0.0
  0
LINE
  5
EB
  8
0
 62
     7
 10
121.98699999999999
 20
106.78
 30
0.0
 11
143.46199999999999
 21
106.78
 31
0.0
  0
LINE
  5
EC
  8
0
 62
     7
 10
143.46399999999991
 20
107.4049999999999
 30
0.0
 11
122.86199999999999
 21
107.4049999999999
 31
0.0
  0
LINE
  5
ED
  8
0
 62
     7
 10
122.86199999999999
 20
107.4049999999999
 30
0.0
 11
122.7829999999999
 21
107.4049999999999
 31
0.0
  0
ARC
  5
EE
  8
0
 62
     7
 10
122.7849879999999
 20
104.0040819999999
 30
0.0
 40
3.4008940000000001
 50
90.034404000000023
 51
92.705286999999984
  0
ARC
  5
EF
  8
0
 62
     7
 10
122.783869
 20
103.87528
 30
0.0
 40
3.5295070000000002
 50
92.588442999999984
 51
95.155922000000004
  0
LINE
  5
F0
  8
0
 62
     7
 10
122.467
 20
107.39100000000001
 30
0.0
 11
122.327
 21
107.3779999999999
 31
0.0
  0
ARC
  5
F1
  8
0
 62
     7
 10
122.35363099999999
 20
107.075137
 30
0.0
 40
0.303809
 50
95.064328000000003
 51
118.578468
  0
ARC
  5
F2
  8
0
 62
     7
 10
122.35298999999991
 20
107.0612829999999
 30
0.0
 40
0.31575
 50
117.273802
 51
139.79580499999989
  0
ARC
  5
F3
  8
0
 62
     7
 10
152.472487
 20
81.866742999999985
 30
0.0
 40
39.583402999999997
 50
140.0856409999999
 51
140.261607
  0
ARC
  5
F4
  8
0
 62
     7
 10
122.271455
 20
106.97407800000001
 30
0.0
 40
0.308976
 50
140.22787999999991
 51
163.36476099999999
  0
ARC
  5
F5
  8
0
 62
     7
 10
122.278451
 20
106.96630999999999
 30
0.0
 40
0.31795
 50
162.384309
 51
184.82963000000001
  0
ARC
  5
F6
  8
0
 62
     7
 10
128.907061
 20
107.520775
 30
0.0
 40
6.969708999999999
 50
184.78372300000001
 51
185.42064599999989
  0
ARC
  5
F7
  8
0
 62
     7
 10
122.242457
 20
106.88485
 30
0.0
 40
0.274858
 50
184.69143399999999
 51
191.73416399999999
  0
ARC
  5
F8
  8
0
 62
     7
 10
122.494596
 20
106.949383
 30
0.0
 40
0.5349840000000001
 50
193.0093929999999
 51
198.45465300000001
  0
ARC
  5
F9
  8
0
 62
     7
 10
132.861683
 20
96.221399000000005
 30
0.0
 40
0.315111
 50
40.75459699999999
 51
64.145890000000009
  0
ARC
  5
FA
  8
0
 62
     7
 10
132.856312
 20
96.207295000000016
 30
0.0
 40
0.328465
 50
19.550256999999998
 51
42.00674699999999
  0
ARC
  5
FB
  8
0
 62
     7
 10
144.8010129999999
 20
100.352148
 30
0.0
 40
12.314949
 50
199.125946
 51
199.571033
  0
ARC
  5
FC
  8
0
 62
     7
 10
132.8933669999999
 20
96.124384000000006
 30
0.0
 40
0.320995
 50
6.9478739999999997
 51
18.633882
  0
ARC
  5
FD
  8
0
 62
     7
 10
132.952259
 20
96.122249999999994
 30
0.0
 40
0.262956
 50
354.65534300000002
 51
8.9621359999999992
  0
LINE
  5
FE
  8
0
 62
     7
 10
133.214
 20
96.097800000000007
 30
0.0
 11
133.21199999999999
 21
96.064999999999998
 31
0.0
  0
ARC
  5
FF
  8
0
 62
     7
 10
132.22872899999999
 20
95.530860000000004
 30
0.0
 40
1.0095270000000001
 50
2.219911999999999
 51
3.727549999999999
  0
ARC
  5
100
  8
0
 62
     7
 10
133.3830199999999
 20
95.580676999999994
 30
0.0
 40
0.145916
 50
184.21039300000001
 51
205.463461
  0
ARC
  5
101
  8
0
 62
     7
 10
133.378229
 20
95.577360999999996
 30
0.0
 40
0.140167
 50
205.08164799999989
 51
227.18913699999999
  0
ARC
  5
102
  8
0
 62
     7
 10
131.820131
 20
93.811046999999988
 30
0.0
 40
2.2151969999999999
 50
47.353417
 51
48.672146999999988
  0
ARC
  5
103
  8
0
 62
     7
 10
133.412229
 20
95.544527999999985
 30
0.0
 40
0.138503
 50
228.72970799999999
 51
249.74487999999991
  0
LINE
  5
104
  8
0
 62
     7
 10
133.364
 20
95.414599999999979
 30
0.0
 11
133.4379999999999
 21
95.404899999999998
 31
0.0
  0
ARC
  5
105
  8
0
  6
AIGENLINE001
 62
     7
 10
66.684685000000002
 20
118.618801
 30
0.0
 40
21.386413999999998
 50
211.62406799999999
 51
262.71904999999992
  0
LINE
  5
106
  8
0
  6
AIGENLINE001
 62
     7
 10
76.631299999999996
 20
90.904899999999998
 30
0.0
 11
77.074700000000007
 21
93.304799999999986
 31
0.0
  0
LINE
  5
107
  8
0
  6
AIGENLINE001
 62
     7
 10
76.1173
 20
95.404899999999998
 30
0.0
 11
76.023600000000002
 21
91.404799999999994
 31
0.0
  0
LINE
  5
108
  8
0
  6
AIGENLINE001
 62
     7
 10
59.317500000000003
 20
90.904899999999998
 30
0.0
 11
58.874099999999999
 21
93.304799999999986
 31
0.0
  0
LINE
  5
109
  8
0
 62
     7
 10
67.974400000000003
 20
90.404700000000005
 30
0.0
 11
76.810100000000006
 21
90.404700000000005
 31
0.0
  0
ARC
  5
10A
  8
0
 62
     7
 10
76.803504000000004
 20
90.610262000000006
 30
0.0
 40
0.205667
 50
271.83661899999993
 51
353.49089700000002
  0
LINE
  5
10B
  8
0
 62
     7
 10
77.007800000000003
 20
90.5869
 30
0.0
 11
77.456400000000002
 21
93.013999999999996
 31
0.0
  0
ARC
  5
10C
  8
0
 62
     7
 10
77.916775000000001
 20
92.973500999999999
 30
0.0
 40
0.4621570000000001
 50
134.20471099999989
 51
174.96874199999991
  0
LINE
  5
10D
  8
0
 62
     7
 10
77.974500000000006
 20
93.604900000000001
 30
0.0
 11
77.974500000000006
 21
93.304799999999986
 31
0.0
  0
LINE
  5
10E
  8
0
 62
     7
 10
67.974400000000003
 20
93.304799999999986
 30
0.0
 11
77.974500000000006
 21
93.304799999999986
 31
0.0
  0
LINE
  5
10F
  8
0
 62
     7
 10
67.974400000000003
 20
93.604900000000001
 30
0.0
 11
77.974500000000006
 21
93.604900000000001
 31
0.0
  0
LINE
  5
110
  8
0
  6
AIGENLINE001
 62
     7
 10
59.831499999999998
 20
95.404899999999998
 30
0.0
 11
59.92519999999999
 21
91.404799999999994
 31
0.0
  0
LINE
  5
111
  8
0
 62
     7
 10
67.974400000000003
 20
90.404700000000005
 30
0.0
 11
59.1387
 21
90.404700000000005
 31
0.0
  0
ARC
  5
112
  8
0
 62
     7
 10
59.145110000000003
 20
90.610053000000008
 30
0.0
 40
0.205452
 50
186.45739800000001
 51
268.21512599999988
  0
LINE
  5
113
  8
0
 62
     7
 10
58.941000000000003
 20
90.5869
 30
0.0
 11
58.492400000000004
 21
93.013999999999996
 31
0.0
  0
ARC
  5
114
  8
0
 62
     7
 10
58.032031000000011
 20
92.973500999999999
 30
0.0
 40
0.4621570000000001
 50
5.0312380000000001
 51
45.795268999999998
  0
LINE
  5
115
  8
0
 62
     7
 10
57.974299999999999
 20
93.604900000000001
 30
0.0
 11
57.974299999999999
 21
93.304799999999986
 31
0.0
  0
LINE
  5
116
  8
0
 62
     7
 10
67.974400000000003
 20
93.304799999999986
 30
0.0
 11
57.974299999999999
 21
93.304799999999986
 31
0.0
  0
LINE
  5
117
  8
0
 62
     7
 10
67.974400000000003
 20
93.604900000000001
 30
0.0
 11
57.974299999999999
 21
93.604900000000001
 31
0.0
  0
LINE
  5
118
  8
0
  6
AIGENLINE002
 62
     7
 10
76.274000000000001
 20
91.642200000000003
 30
0.0
 11
76.274000000000001
 21
87.152500000000003
 31
0.0
  0
LINE
  5
119
  8
0
 62
     7
 10
75.97399999999999
 20
88.704899999999995
 30
0.0
 11
75.97399999999999
 21
90.204899999999995
 31
0.0
  0
LINE
  5
11A
  8
0
 62
     7
 10
75.97399999999999
 20
88.704899999999995
 30
0.0
 11
76.274000000000001
 21
88.704899999999995
 31
0.0
  0
LINE
  5
11B
  8
0
 62
     7
 10
75.798999999999992
 20
90.204899999999995
 30
0.0
 11
75.798999999999992
 21
90.404700000000005
 31
0.0
  0
LINE
  5
11C
  8
0
 62
     7
 10
75.798999999999992
 20
90.204899999999995
 30
0.0
 11
76.274000000000001
 21
90.204899999999995
 31
0.0
  0
LINE
  5
11D
  8
0
 62
     7
 10
76.748800000000003
 20
90.204899999999995
 30
0.0
 11
76.748800000000003
 21
90.404700000000005
 31
0.0
  0
LINE
  5
11E
  8
0
 62
     7
 10
76.749099999999999
 20
90.204899999999995
 30
0.0
 11
76.274000000000001
 21
90.204899999999995
 31
0.0
  0
LINE
  5
11F
  8
0
 62
     7
 10
76.574100000000001
 20
88.704899999999995
 30
0.0
 11
76.574100000000001
 21
90.204899999999995
 31
0.0
  0
LINE
  5
120
  8
0
 62
     7
 10
76.574100000000001
 20
88.704899999999995
 30
0.0
 11
76.274000000000001
 21
88.704899999999995
 31
0.0
  0
LINE
  5
121
  8
0
  6
AIGENLINE002
 62
     7
 10
59.674799999999998
 20
91.642200000000003
 30
0.0
 11
59.674799999999998
 21
87.152500000000003
 31
0.0
  0
LINE
  5
122
  8
0
  6
AIGENLINE001
 62
     7
 10
76.631299999999996
 20
90.904899999999998
 30
0.0
 11
59.317500000000003
 21
90.904899999999998
 31
0.0
  0
LINE
  5
123
  8
0
  6
AIGENLINE001
 62
     7
 10
76.023600000000002
 20
91.404799999999994
 30
0.0
 11
59.92519999999999
 21
91.404799999999994
 31
0.0
  0
LINE
  5
124
  8
0
 62
     7
 10
68.274500000000003
 20
88.704899999999995
 30
0.0
 11
68.274500000000003
 21
90.204899999999995
 31
0.0
  0
LINE
  5
125
  8
0
 62
     7
 10
68.274500000000003
 20
88.704899999999995
 30
0.0
 11
67.974400000000003
 21
88.704899999999995
 31
0.0
  0
LINE
  5
126
  8
0
 62
     7
 10
68.4495
 20
90.204899999999995
 30
0.0
 11
68.4495
 21
90.404700000000005
 31
0.0
  0
LINE
  5
127
  8
0
 62
     7
 10
68.4495
 20
90.204899999999995
 30
0.0
 11
67.974400000000003
 21
90.204899999999995
 31
0.0
  0
LINE
  5
128
  8
0
 62
     7
 10
67.499700000000004
 20
90.204899999999995
 30
0.0
 11
67.499700000000004
 21
90.404700000000005
 31
0.0
  0
LINE
  5
129
  8
0
 62
     7
 10
67.499300000000005
 20
90.204899999999995
 30
0.0
 11
67.974400000000003
 21
90.204899999999995
 31
0.0
  0
LINE
  5
12A
  8
0
 62
     7
 10
67.674300000000002
 20
88.704899999999995
 30
0.0
 11
67.674300000000002
 21
90.204899999999995
 31
0.0
  0
LINE
  5
12B
  8
0
 62
     7
 10
67.674300000000002
 20
88.704899999999995
 30
0.0
 11
67.974400000000003
 21
88.704899999999995
 31
0.0
  0
LINE
  5
12C
  8
0
 62
     7
 10
59.974800000000002
 20
88.704899999999995
 30
0.0
 11
59.974800000000002
 21
90.204899999999995
 31
0.0
  0
LINE
  5
12D
  8
0
 62
     7
 10
59.974800000000002
 20
88.704899999999995
 30
0.0
 11
59.674799999999998
 21
88.704899999999995
 31
0.0
  0
LINE
  5
12E
  8
0
 62
     7
 10
60.149900000000002
 20
90.204899999999995
 30
0.0
 11
60.149900000000002
 21
90.404700000000005
 31
0.0
  0
LINE
  5
12F
  8
0
 62
     7
 10
60.149900000000002
 20
90.204899999999995
 30
0.0
 11
59.674799999999998
 21
90.204899999999995
 31
0.0
  0
LINE
  5
130
  8
0
 62
     7
 10
59.200000000000003
 20
90.204899999999995
 30
0.0
 11
59.200000000000003
 21
90.404700000000005
 31
0.0
  0
LINE
  5
131
  8
0
 62
     7
 10
59.1997
 20
90.204899999999995
 30
0.0
 11
59.674799999999998
 21
90.204899999999995
 31
0.0
  0
LINE
  5
132
  8
0
 62
     7
 10
59.374699999999997
 20
88.704899999999995
 30
0.0
 11
59.374699999999997
 21
90.204899999999995
 31
0.0
  0
LINE
  5
133
  8
0
 62
     7
 10
59.374699999999997
 20
88.704899999999995
 30
0.0
 11
59.674799999999998
 21
88.704899999999995
 31
0.0
  0
LINE
  5
134
  8
0
  6
AIGENLINE003
 62
     7
 10
86.351699999999994
 20
93.604900000000001
 30
0.0
 11
49.597099999999998
 21
93.604900000000001
 31
0.0
  0
LINE
  5
135
  8
0
  6
AIGENLINE003
 62
     7
 10
86.351699999999994
 20
95.404899999999998
 30
0.0
 11
49.597099999999998
 21
95.404899999999998
 31
0.0
  0
LINE
  5
136
  8
0
  6
AIGENLINE002
 62
     7
 10
67.974400000000003
 20
108.6429999999999
 30
0.0
 11
67.974400000000003
 21
87.545299999999997
 31
0.0
  0
ARC
  5
137
  8
0
 62
     7
 10
86.548661999999979
 20
107.44781500000001
 30
0.0
 40
2.980442
 50
340.65987100000001
 51
347.05267500000002
  0
ARC
  5
138
  8
0
 62
     7
 10
81.010159000000002
 20
109.25537799999999
 30
0.0
 40
8.8059639999999995
 50
331.45390099999992
 51
341.49699199999992
  0
ARC
  5
139
  8
0
 62
     7
 10
76.240168000000011
 20
111.70918999999989
 30
0.0
 40
14.169214999999991
 50
316.12887000000001
 51
331.95494400000001
  0
ARC
  5
13A
  8
0
 62
     7
 10
72.446600000000004
 20
114.97063300000001
 30
0.0
 40
19.166321
 50
311.1010849999999
 51
316.95969600000001
  0
ARC
  5
13B
  8
0
 62
     7
 10
70.13573199999999
 20
117.5760139999999
 30
0.0
 40
22.648766999999999
 50
291.51219200000003
 51
311.17345399999999
  0
LINE
  5
13C
  8
0
 62
     7
 10
78.203999999999994
 20
95.596500000000006
 30
0.0
 11
78.228399999999993
 21
96.064999999999998
 31
0.0
  0
LINE
  5
13D
  8
0
 62
     7
 10
78.002499999999998
 20
95.404899999999998
 30
0.0
 11
67.978499999999997
 21
95.404899999999998
 31
0.0
  0
LINE
  5
13E
  8
0
 62
     7
 10
77.914299999999997
 20
96.405100000000004
 30
0.0
 11
67.978499999999997
 21
96.405100000000004
 31
0.0
  0
LINE
  5
13F
  8
0
 62
     7
 10
89.453299999999999
 20
106.78
 30
0.0
 11
67.978499999999997
 21
106.78
 31
0.0
  0
LINE
  5
140
  8
0
 62
     7
 10
67.976500000000001
 20
107.4049999999999
 30
0.0
 11
88.577899999999985
 21
107.4049999999999
 31
0.0
  0
LINE
  5
141
  8
0
 62
     7
 10
88.577899999999985
 20
107.4049999999999
 30
0.0
 11
88.657200000000003
 21
107.4049999999999
 31
0.0
  0
LINE
  5
142
  8
0
 62
     7
 10
88.657200000000003
 20
107.4049999999999
 30
0.0
 11
88.815600000000003
 21
107.401
 31
0.0
  0
LINE
  5
143
  8
0
 62
     7
 10
88.815600000000003
 20
107.401
 30
0.0
 11
88.973799999999997
 21
107.39100000000001
 31
0.0
  0
LINE
  5
144
  8
0
 62
     7
 10
88.973799999999997
 20
107.39100000000001
 30
0.0
 11
89.113299999999995
 21
107.3779999999999
 31
0.0
  0
ARC
  5
145
  8
0
 62
     7
 10
89.083192000000011
 20
107.064262
 30
0.0
 40
0.3149389999999999
 50
61.842649999999999
 51
84.514514000000005
  0
ARC
  5
146
  8
0
 62
     7
 10
89.087136000000001
 20
107.060222
 30
0.0
 40
0.316686
 50
40.312534999999997
 51
62.816822000000002
  0
ARC
  5
147
  8
0
 62
     7
 10
98.913535999999993
 20
115.179284
 30
0.0
 40
12.43
 50
219.54619299999999
 51
220.10655899999989
  0
ARC
  5
148
  8
0
 62
     7
 10
89.164621999999994
 20
106.972678
 30
0.0
 40
0.313242
 50
16.669484000000001
 51
39.456719999999997
  0
ARC
  5
149
  8
0
 62
     7
 10
89.156577999999996
 20
106.9648379999999
 30
0.0
 40
0.323238
 50
355.51124299999998
 51
17.591725
  0
ARC
  5
14A
  8
0
 62
     7
 10
98.013526000000013
 20
106.1386209999999
 30
0.0
 40
8.5721990000000012
 50
174.63888799999989
 51
175.15674300000001
  0
ARC
  5
14B
  8
0
 62
     7
 10
89.203124999999986
 20
106.88683
 30
0.0
 40
0.26992
 50
347.61818099999988
 51
354.80073499999997
  0
ARC
  5
14C
  8
0
 62
     7
 10
88.935842000000008
 20
106.9484639999999
 30
0.0
 40
0.5442100000000001
 50
341.97093699999999
 51
347.31407999999988
  0
ARC
  5
14D
  8
0
 62
     7
 10
78.581094999999991
 20
96.217928999999998
 30
0.0
 40
0.319398
 50
116.0132709999999
 51
139.08620300000001
  0
ARC
  5
14E
  8
0
 62
     7
 10
78.59150600000001
 20
96.202705000000009
 30
0.0
 40
0.3372679999999999
 50
138.28997899999999
 51
160.15297799999991
  0
ARC
  5
14F
  8
0
 62
     7
 10
253.78006999999999
 20
35.308514000000002
 30
0.0
 40
185.80728400000001
 50
160.831692
 51
160.86115599999991
  0
ARC
  5
150
  8
0
 62
     7
 10
78.521771999999984
 20
96.128544999999988
 30
0.0
 40
0.295706
 50
160.56272799999999
 51
173.2671159999999
  0
ARC
  5
151
  8
0
 62
     7
 10
78.525829999999999
 20
96.121050999999994
 30
0.0
 40
0.300695
 50
171.93948299999991
 51
184.443039
  0
ARC
  5
152
  8
0
 62
     7
 10
75.889840000000007
 20
95.909161999999995
 30
0.0
 40
2.343798
 50
3.8130529999999991
 51
4.615302999999999
  0
ARC
  5
153
  8
0
 62
     7
 10
79.146515000000008
 20
95.534229999999994
 30
0.0
 40
0.94458
 50
176.220596
 51
177.83190300000001
  0
ARC
  5
154
  8
0
 62
     7
 10
78.065990999999997
 20
95.578318999999993
 30
0.0
 40
0.136876
 50
333.82573400000001
 51
356.500452
  0
ARC
  5
155
  8
0
 62
     7
 10
78.067852000000002
 20
95.573002000000002
 30
0.0
 40
0.132919
 50
312.19993899999997
 51
335.52931599999988
  0
ARC
  5
156
  8
0
 62
     7
 10
82.124390000000005
 20
91.028368
 30
0.0
 40
5.9588169999999989
 50
131.74208300000001
 51
132.23231299999989
  0
ARC
  5
157
  8
0
 62
     7
 10
78.029268999999999
 20
95.541572999999985
 30
0.0
 40
0.13537
 50
290.27380799999997
 51
311.65371800000003
  0
ARC
  5
158
  8
0
 62
     7
 10
78.016023000000004
 20
95.587768000000025
 30
0.0
 40
0.183328
 50
265.75416899999988
 51
289.15444699999989
  0
ARC
  5
159
  8
0
 62
     7
 10
49.404278000000012
 20
107.44781500000001
 30
0.0
 40
2.980442
 50
192.9473449999999
 51
199.34014899999991
  0
ARC
  5
15A
  8
0
 62
     7
 10
54.942780999999997
 20
109.25537799999999
 30
0.0
 40
8.8059639999999995
 50
198.50302799999989
 51
208.54611800000001
  0
ARC
  5
15B
  8
0
 62
     7
 10
59.712771999999987
 20
111.70918999999989
 30
0.0
 40
14.169214999999991
 50
208.04507599999999
 51
223.871149
  0
ARC
  5
15C
  8
0
 62
     7
 10
63.506340000000002
 20
114.97063300000001
 30
0.0
 40
19.166321
 50
223.040324
 51
228.89893499999999
  0
ARC
  5
15D
  8
0
 62
     7
 10
65.817207999999994
 20
117.5760139999999
 30
0.0
 40
22.648766999999999
 50
228.8265659999999
 51
248.48782799999989
  0
LINE
  5
15E
  8
0
 62
     7
 10
57.748999999999988
 20
95.596500000000006
 30
0.0
 11
57.724499999999999
 21
96.064999999999998
 31
0.0
  0
LINE
  5
15F
  8
0
 62
     7
 10
57.950499999999991
 20
95.404899999999998
 30
0.0
 11
67.974400000000003
 21
95.404899999999998
 31
0.0
  0
LINE
  5
160
  8
0
 62
     7
 10
58.038699999999992
 20
96.405100000000004
 30
0.0
 11
67.974400000000003
 21
96.405100000000004
 31
0.0
  0
LINE
  5
161
  8
0
  6
AIGENLINE001
 62
     7
 10
71.974199999999996
 20
97.404799999999994
 30
0.0
 11
71.974199999999996
 21
96.630399999999995
 31
0.0
  0
LINE
  5
162
  8
0
  6
AIGENLINE001
 62
     7
 10
70.2744
 20
94.904700000000005
 30
0.0
 11
71.805000000000007
 21
96.255499999999998
 31
0.0
  0
ARC
  5
163
  8
0
  6
AIGENLINE001
 62
     7
 10
71.46973100000001
 20
96.632441
 30
0.0
 40
0.504457
 50
311.65704399999993
 51
359.76490799999999
  0
LINE
  5
164
  8
0
  6
AIGENLINE001
 62
     7
 10
64.1434
 20
96.255499999999998
 30
0.0
 11
65.674400000000006
 21
94.904700000000005
 31
0.0
  0
LINE
  5
165
  8
0
  6
AIGENLINE001
 62
     7
 10
63.974299999999992
 20
97.404799999999994
 30
0.0
 11
63.974299999999992
 21
96.630399999999995
 31
0.0
  0
ARC
  5
166
  8
0
  6
AIGENLINE001
 62
     7
 10
64.480931999999996
 20
96.633434999999992
 30
0.0
 40
0.506664
 50
180.34643299999991
 51
228.23165399999999
  0
LINE
  5
167
  8
0
  6
AIGENLINE002
 62
     7
 10
123.605
 20
104.905
 30
0.0
 11
128.40100000000001
 21
104.905
 31
0.0
  0
LINE
  5
168
  8
0
  6
AIGENLINE002
 62
     7
 10
65.610900000000001
 20
104.905
 30
0.0
 11
70.406499999999994
 21
104.905
 31
0.0
  0
LINE
  5
169
  8
0
  6
AIGENLINE001
 62
     7
 10
63.974299999999992
 20
97.404799999999994
 30
0.0
 11
71.974199999999996
 21
97.404799999999994
 31
0.0
  0
LINE
  5
16A
  8
0
  6
AIGENLINE001
 62
     7
 10
70.2744
 20
94.904700000000005
 30
0.0
 11
70.2744
 21
91.404799999999994
 31
0.0
  0
LINE
  5
16B
  8
0
  6
AIGENLINE001
 62
     7
 10
65.674400000000006
 20
94.904700000000005
 30
0.0
 11
65.674400000000006
 21
91.404799999999994
 31
0.0
  0
LINE
  5
16C
  8
0
  6
AIGENLINE001
 62
     7
 10
65.674400000000006
 20
94.904700000000005
 30
0.0
 11
70.2744
 21
94.904700000000005
 31
0.0
  0
LINE
  5
16D
  8
0
 62
     7
 10
151.98500000000001
 20
174.39500000000001
 30
0.0
 11
150.0029999999999
 21
175.53999999999991
 31
0.0
  0
LINE
  5
16E
  8
0
 62
     7
 10
150.0029999999999
 20
175.53999999999991
 30
0.0
 11
151.14699999999999
 21
173.55699999999999
 31
0.0
  0
LINE
  5
16F
  8
0
 62
     7
 10
151.14699999999999
 20
173.55699999999999
 30
0.0
 11
151.98500000000001
 21
174.39500000000001
 31
0.0
  0
LINE
  5
170
  8
0
 62
     7
 10
134.93899999999991
 20
189.76699999999991
 30
0.0
 11
136.92099999999999
 21
188.62200000000001
 31
0.0
  0
LINE
  5
171
  8
0
 62
     7
 10
136.92099999999999
 20
188.62200000000001
 30
0.0
 11
135.77699999999999
 21
190.60499999999999
 31
0.0
  0
LINE
  5
172
  8
0
 62
     7
 10
135.77699999999999
 20
190.60499999999999
 30
0.0
 11
134.93899999999991
 21
189.76699999999991
 31
0.0
  0
LINE
  5
173
  8
0
 62
     7
 10
133.77499999999989
 20
191.768
 30
0.0
 11
152.47200000000001
 21
173.071
 31
0.0
  0
LINE
  5
174
  8
0
  6
AIGENLINE002
 62
     7
 10
154.78
 20
182.0809999999999
 30
0.0
 11
131.93899999999999
 21
182.0809999999999
 31
0.0
  0
LINE
  5
175
  8
0
  6
AIGENLINE002
 62
     7
 10
143.46199999999999
 20
193.63099999999989
 30
0.0
 11
143.46199999999999
 21
170.78999999999991
 31
0.0
  0
ARC
  5
176
  8
0
 62
     7
 10
143.461916
 20
182.081164
 30
0.0
 40
9.2501410000000011
 50
0.00001
 51
89.999980000000008
  0
ARC
  5
177
  8
0
 62
     7
 10
143.46191899999999
 20
182.081164
 30
0.0
 40
9.2501410000000011
 50
90.0
 51
179.99996999999991
  0
ARC
  5
178
  8
0
 62
     7
 10
143.46182999999991
 20
182.08125000000001
 30
0.0
 40
9.2500520000000002
 50
180.00054299999999
 51
270.00055299999991
  0
ARC
  5
179
  8
0
 62
     7
 10
143.46200200000001
 20
182.08125299999989
 30
0.0
 40
9.2500549999999997
 50
269.99948599999988
 51
359.99945700000001
  0
LINE
  5
17A
  8
0
 62
     7
 10
133.77499999999989
 20
191.768
 30
0.0
 11
128.167
 21
191.768
 31
0.0
  0
LINE
  5
17B
  8
0
 62
     7
 10
78.622200000000007
 20
177.39400000000001
 30
0.0
 11
72.661100000000005
 21
177.39400000000001
 31
0.0
  0
LINE
  5
17C
  8
0
 62
     7
 10
71.583200000000005
 20
179.31
 30
0.0
 11
69.600499999999997
 21
180.45500000000001
 31
0.0
  0
LINE
  5
17D
  8
0
 62
     7
 10
69.600499999999997
 20
180.45500000000001
 30
0.0
 11
70.7453
 21
178.47200000000001
 31
0.0
  0
LINE
  5
17E
  8
0
 62
     7
 10
70.7453
 20
178.47200000000001
 30
0.0
 11
71.583200000000005
 21
179.31
 31
0.0
  0
LINE
  5
17F
  8
0
 62
     7
 10
64.365300000000005
 20
184.852
 30
0.0
 11
66.347999999999999
 21
183.70699999999991
 31
0.0
  0
LINE
  5
180
  8
0
 62
     7
 10
66.347999999999999
 20
183.70699999999991
 30
0.0
 11
65.203500000000005
 21
185.68999999999991
 31
0.0
  0
LINE
  5
181
  8
0
 62
     7
 10
65.203500000000005
 20
185.68999999999991
 30
0.0
 11
64.365300000000005
 21
184.852
 31
0.0
  0
LINE
  5
182
  8
0
 62
     7
 10
63.454799999999999
 20
186.59999999999991
 30
0.0
 11
72.661100000000005
 21
177.39400000000001
 31
0.0
  0
LINE
  5
183
  8
0
 62
     7
 10
87.474500000000006
 20
142.03100000000001
 30
0.0
 11
87.474500000000006
 21
177.26699999999991
 31
0.0
  0
LINE
  5
184
  8
0
 62
     7
 10
48.474400000000003
 20
142.03100000000001
 30
0.0
 11
48.474400000000003
 21
177.26699999999991
 31
0.0
  0
LINE
  5
185
  8
0
 62
     7
 10
50.685099999999991
 20
143.31599999999989
 30
0.0
 11
48.473300000000002
 21
142.7229999999999
 31
0.0
  0
LINE
  5
186
  8
0
 62
     7
 10
48.473300000000002
 20
142.7229999999999
 30
0.0
 11
50.685099999999991
 21
142.131
 31
0.0
  0
LINE
  5
187
  8
0
 62
     7
 10
50.685099999999991
 20
142.131
 30
0.0
 11
50.685099999999991
 21
143.31599999999989
 31
0.0
  0
LINE
  5
188
  8
0
 62
     7
 10
85.2637
 20
142.14500000000001
 30
0.0
 11
87.475499999999997
 21
142.738
 31
0.0
  0
LINE
  5
189
  8
0
 62
     7
 10
87.475499999999997
 20
142.738
 30
0.0
 11
85.2637
 21
143.33000000000001
 31
0.0
  0
LINE
  5
18A
  8
0
 62
     7
 10
85.2637
 20
143.33000000000001
 30
0.0
 11
85.2637
 21
142.14500000000001
 31
0.0
  0
LINE
  5
18B
  8
0
 62
     7
 10
48.474400000000003
 20
142.73099999999999
 30
0.0
 11
87.474500000000006
 21
142.73099999999999
 31
0.0
  0
LINE
  5
18C
  8
0
 62
     7
 10
78.224299999999999
 20
80.286000000000001
 30
0.0
 11
78.224299999999999
 21
91.486099999999993
 31
0.0
  0
LINE
  5
18D
  8
0
 62
     7
 10
57.7241
 20
80.286000000000001
 30
0.0
 11
57.7241
 21
91.486099999999993
 31
0.0
  0
LINE
  5
18E
  8
0
 62
     7
 10
59.9345
 20
81.571399999999997
 30
0.0
 11
57.723500000000001
 21
80.978899999999996
 31
0.0
  0
LINE
  5
18F
  8
0
 62
     7
 10
57.723500000000001
 20
80.978899999999996
 30
0.0
 11
59.9345
 21
80.386300000000006
 31
0.0
  0
LINE
  5
190
  8
0
 62
     7
 10
59.9345
 20
80.386300000000006
 30
0.0
 11
59.9345
 21
81.571399999999997
 31
0.0
  0
LINE
  5
191
  8
0
 62
     7
 10
76.013599999999997
 20
80.400800000000004
 30
0.0
 11
78.225300000000004
 21
80.993300000000005
 31
0.0
  0
LINE
  5
192
  8
0
 62
     7
 10
78.225300000000004
 20
80.993300000000005
 30
0.0
 11
76.013599999999997
 21
81.585899999999995
 31
0.0
  0
LINE
  5
193
  8
0
 62
     7
 10
76.013599999999997
 20
81.585899999999995
 30
0.0
 11
76.013599999999997
 21
80.400800000000004
 31
0.0
  0
LINE
  5
194
  8
0
 62
     7
 10
57.7241
 20
80.986099999999979
 30
0.0
 11
78.224299999999999
 21
80.986099999999979
 31
0.0
  0
LINE
  5
195
  8
0
 62
     7
 10
89.474299999999999
 20
135.71000000000001
 30
0.0
 11
89.474299999999999
 21
177.26699999999991
 31
0.0
  0
LINE
  5
196
  8
0
 62
     7
 10
46.474099999999993
 20
135.71000000000001
 30
0.0
 11
46.474099999999993
 21
177.26699999999991
 31
0.0
  0
LINE
  5
197
  8
0
 62
     7
 10
48.684800000000003
 20
136.99600000000001
 30
0.0
 11
46.473100000000002
 21
136.40299999999991
 31
0.0
  0
LINE
  5
198
  8
0
 62
     7
 10
46.473100000000002
 20
136.40299999999991
 30
0.0
 11
48.684800000000003
 21
135.81100000000001
 31
0.0
  0
LINE
  5
199
  8
0
 62
     7
 10
48.684800000000003
 20
135.81100000000001
 30
0.0
 11
48.684800000000003
 21
136.99600000000001
 31
0.0
  0
LINE
  5
19A
  8
0
 62
     7
 10
87.263999999999996
 20
135.8249999999999
 30
0.0
 11
89.474999999999994
 21
136.41800000000001
 31
0.0
  0
LINE
  5
19B
  8
0
 62
     7
 10
89.474999999999994
 20
136.41800000000001
 30
0.0
 11
87.263999999999996
 21
137.00999999999991
 31
0.0
  0
LINE
  5
19C
  8
0
 62
     7
 10
87.263999999999996
 20
137.00999999999991
 30
0.0
 11
87.263999999999996
 21
135.8249999999999
 31
0.0
  0
LINE
  5
19D
  8
0
 62
     7
 10
46.474099999999993
 20
136.41
 30
0.0
 11
89.474299999999999
 21
136.41
 31
0.0
  0
LINE
  5
19E
  8
0
  6
AIGENLINE002
 62
     7
 10
92.072999999999993
 20
182.0809999999999
 30
0.0
 11
43.814500000000002
 21
182.0809999999999
 31
0.0
  0
LINE
  5
19F
  8
0
  6
AIGENLINE002
 62
     7
 10
67.974400000000003
 20
205.65999999999991
 30
0.0
 11
67.974400000000003
 21
158.309
 31
0.0
  0
LINE
  5
1A0
  8
0
 62
     7
 10
46.499600000000001
 20
106.78
 30
0.0
 11
67.974400000000003
 21
106.78
 31
0.0
  0
LINE
  5
1A1
  8
0
 62
     7
 10
67.976500000000001
 20
107.4049999999999
 30
0.0
 11
47.374999999999993
 21
107.4049999999999
 31
0.0
  0
ARC
  5
1A2
  8
0
 62
     7
 10
47.335394000000001
 20
-20.933564000000001
 30
0.0
 40
128.33854600000001
 50
89.982303000000016
 51
90.017677999999989
  0
ARC
  5
1A3
  8
0
 62
     7
 10
47.297687000000003
 20
104.0095629999999
 30
0.0
 40
3.3954129999999991
 50
90.032247999999981
 51
92.707443000000026
  0
ARC
  5
1A4
  8
0
 62
     7
 10
47.297983000000002
 20
103.8460189999999
 30
0.0
 40
3.5587960000000001
 50
92.587830999999994
 51
95.139712000000017
  0
LINE
  5
1A5
  8
0
 62
     7
 10
46.979199999999992
 20
107.39100000000001
 30
0.0
 11
46.83959999999999
 21
107.3779999999999
 31
0.0
  0
ARC
  5
1A6
  8
0
 62
     7
 10
46.866038000000003
 20
107.076533
 30
0.0
 40
0.302381
 50
95.008004000000014
 51
118.634792
  0
ARC
  5
1A7
  8
0
 62
     7
 10
46.867558000000002
 20
107.05801200000001
 30
0.0
 40
0.319454
 50
117.281899
 51
139.58870400000001
  0
ARC
  5
1A8
  8
0
 62
     7
 10
37.60427399999999
 20
114.708212
 30
0.0
 40
11.694490999999999
 50
319.87583899999998
 51
320.47144900000001
  0
ARC
  5
1A9
  8
0
 62
     7
 10
46.788145999999998
 20
106.972769
 30
0.0
 40
0.313051
 50
140.53621100000001
 51
163.337546
  0
ARC
  5
1AA
  8
0
 62
     7
 10
46.79636099999999
 20
106.9648379999999
 30
0.0
 40
0.323237
 50
162.40823599999999
 51
184.48879699999989
  0
ARC
  5
1AB
  8
0
 62
     7
 10
37.939413999999999
 20
106.1386209999999
 30
0.0
 40
8.5721990000000012
 50
4.8432370000000002
 51
5.3610920000000002
  0
ARC
  5
1AC
  8
0
 62
     7
 10
46.749814999999998
 20
106.88683
 30
0.0
 40
0.26992
 50
185.199285
 51
192.3818389999999
  0
ARC
  5
1AD
  8
0
 62
     7
 10
47.017098999999988
 20
106.9484639999999
 30
0.0
 40
0.5442100000000001
 50
192.6859399999999
 51
198.02908300000001
  0
ARC
  5
1AE
  8
0
 62
     7
 10
57.370499000000002
 20
96.216177999999999
 30
0.0
 40
0.321562
 50
40.992468999999993
 51
63.908017000000001
  0
ARC
  5
1AF
  8
0
 62
     7
 10
57.361782999999988
 20
96.202911999999998
 30
0.0
 40
0.33687
 50
19.833911999999991
 51
41.723091999999987
  0
ARC
  5
1B0
  8
0
 62
     7
 10
-117.82713
 20
35.308514000000002
 30
0.0
 40
185.80728400000001
 50
19.138824
 51
19.168288
  0
ARC
  5
1B1
  8
0
 62
     7
 10
57.431168000000007
 20
96.128544999999988
 30
0.0
 40
0.295706
 50
6.7328640000000002
 51
19.437252999999991
  0
ARC
  5
1B2
  8
0
 62
     7
 10
57.427108999999987
 20
96.121050999999994
 30
0.0
 40
0.300696
 50
355.5570009999999
 51
8.0604770000000006
  0
ARC
  5
1B3
  8
0
 62
     7
 10
60.063099999999999
 20
95.909161999999995
 30
0.0
 40
2.343798
 50
175.38467800000001
 51
176.186927
  0
ARC
  5
1B4
  8
0
 62
     7
 10
56.806424999999997
 20
95.534229999999994
 30
0.0
 40
0.94458
 50
2.1680769999999998
 51
3.7793839999999999
  0
ARC
  5
1B5
  8
0
 62
     7
 10
57.886949000000001
 20
95.578318999999993
 30
0.0
 40
0.136876
 50
183.4995679999999
 51
206.17428599999991
  0
ARC
  5
1B6
  8
0
 62
     7
 10
57.885089000000001
 20
95.573002000000002
 30
0.0
 40
0.132919
 50
204.47070400000001
 51
227.80008099999989
  0
ARC
  5
1B7
  8
0
 62
     7
 10
54.404764999999998
 20
91.668606999999994
 30
0.0
 40
5.0974740000000001
 50
47.726249000000003
 51
48.299315999999997
  0
ARC
  5
1B8
  8
0
 62
     7
 10
57.924185000000001
 20
95.54243000000001
 30
0.0
 40
0.136352
 50
228.42420599999991
 51
249.64830799999999
  0
LINE
  5
1B9
  8
0
 62
     7
 10
57.876800000000003
 20
95.414599999999979
 30
0.0
 11
57.950499999999991
 21
95.404899999999998
 31
0.0
  0
ARC
  5
1BA
  8
0
 62
     7
 10
67.974230000000006
 20
182.08133699999999
 30
0.0
 40
3.9999539999999998
 50
359.99754300000001
 51
89.997512999999984
  0
ARC
  5
1BB
  8
0
 62
     7
 10
67.974404000000007
 20
182.08116499999991
 30
0.0
 40
4.000125999999999
 50
90.0
 51
179.99996999999991
  0
ARC
  5
1BC
  8
0
 62
     7
 10
67.974316000000002
 20
182.08125100000001
 30
0.0
 40
4.0000390000000001
 50
180.0012439999999
 51
270.00125400000002
  0
ARC
  5
1BD
  8
0
 62
     7
 10
67.974316000000002
 20
182.08107999999999
 30
0.0
 40
3.9998680000000002
 50
270.00125400000002
 51
0.001224
  0
ARC
  5
1BE
  8
0
 62
     7
 10
67.974403000000009
 20
182.08116499999991
 30
0.0
 40
2.2999610000000001
 50
0.00001
 51
89.999980000000008
  0
ARC
  5
1BF
  8
0
 62
     7
 10
67.974403000000009
 20
182.08116499999991
 30
0.0
 40
2.2999610000000001
 50
90.0
 51
179.99996999999991
  0
ARC
  5
1C0
  8
0
 62
     7
 10
67.974403000000009
 20
182.08116499999991
 30
0.0
 40
2.29996
 50
179.99996999999991
 51
270.00002000000001
  0
ARC
  5
1C1
  8
0
 62
     7
 10
67.974403000000009
 20
182.081166
 30
0.0
 40
2.2999610000000001
 50
270.00002000000001
 51
359.99998999999991
  0
LINE
  5
1C2
  8
0
 62
     7
 10
107.00700000000001
 20
105.193
 30
0.0
 11
106.41500000000001
 21
107.4049999999999
 31
0.0
  0
LINE
  5
1C3
  8
0
 62
     7
 10
106.41500000000001
 20
107.4049999999999
 30
0.0
 11
105.8219999999999
 21
105.193
 31
0.0
  0
LINE
  5
1C4
  8
0
 62
     7
 10
105.8219999999999
 20
105.193
 30
0.0
 11
107.00700000000001
 21
105.193
 31
0.0
  0
LINE
  5
1C5
  8
0
 62
     7
 10
105.837
 20
93.616600000000005
 30
0.0
 11
106.4289999999999
 21
91.404799999999994
 31
0.0
  0
LINE
  5
1C6
  8
0
 62
     7
 10
106.4289999999999
 20
91.404799999999994
 30
0.0
 11
107.02200000000001
 21
93.616600000000005
 31
0.0
  0
LINE
  5
1C7
  8
0
 62
     7
 10
107.02200000000001
 20
93.616600000000005
 30
0.0
 11
105.837
 21
93.616600000000005
 31
0.0
  0
LINE
  5
1C8
  8
0
 62
     7
 10
106.41500000000001
 20
107.4039999999999
 30
0.0
 11
106.41500000000001
 21
91.405199999999994
 31
0.0
  0
LINE
  5
1C9
  8
0
 62
     7
 10
100.992
 20
105.193
 30
0.0
 11
100.40000000000001
 21
107.4049999999999
 31
0.0
  0
LINE
  5
1CA
  8
0
 62
     7
 10
100.40000000000001
 20
107.4049999999999
 30
0.0
 11
99.807300000000012
 21
105.193
 31
0.0
  0
LINE
  5
1CB
  8
0
 62
     7
 10
99.807300000000012
 20
105.193
 30
0.0
 11
100.992
 21
105.193
 31
0.0
  0
LINE
  5
1CC
  8
0
 62
     7
 10
99.821799999999996
 20
97.616699999999994
 30
0.0
 11
100.414
 21
95.404899999999998
 31
0.0
  0
LINE
  5
1CD
  8
0
 62
     7
 10
100.414
 20
95.404899999999998
 30
0.0
 11
101.00700000000001
 21
97.616699999999994
 31
0.0
  0
LINE
  5
1CE
  8
0
 62
     7
 10
101.00700000000001
 20
97.616699999999994
 30
0.0
 11
99.821799999999996
 21
97.616699999999994
 31
0.0
  0
LINE
  5
1CF
  8
0
 62
     7
 10
100.40000000000001
 20
107.4039999999999
 30
0.0
 11
100.40000000000001
 21
95.405299999999997
 31
0.0
  0
LINE
  5
1D0
  8
0
 62
     7
 10
94.835300000000004
 20
93.192800000000005
 30
0.0
 11
94.242699999999985
 21
95.404899999999998
 31
0.0
  0
LINE
  5
1D1
  8
0
 62
     7
 10
94.242699999999985
 20
95.404899999999998
 30
0.0
 11
93.650199999999984
 21
93.192800000000005
 31
0.0
  0
LINE
  5
1D2
  8
0
 62
     7
 10
93.650199999999984
 20
93.192800000000005
 30
0.0
 11
94.835300000000004
 21
93.192800000000005
 31
0.0
  0
LINE
  5
1D3
  8
0
 62
     7
 10
93.664599999999993
 20
98.616100000000003
 30
0.0
 11
94.257199999999997
 21
96.404399999999995
 31
0.0
  0
LINE
  5
1D4
  8
0
 62
     7
 10
94.257199999999997
 20
96.404399999999995
 30
0.0
 11
94.849800000000002
 21
98.616100000000003
 31
0.0
  0
LINE
  5
1D5
  8
0
 62
     7
 10
94.849800000000002
 20
98.616100000000003
 30
0.0
 11
93.664599999999993
 21
98.616100000000003
 31
0.0
  0
LINE
  5
1D6
  8
0
 62
     7
 10
94.242699999999985
 20
102.0049999999999
 30
0.0
 11
94.242699999999985
 21
92.036299999999997
 31
0.0
  0
LINE
  5
1D7
  8
0
 62
     7
 10
107.12899999999991
 20
91.404799999999994
 30
0.0
 11
77.817800000000005
 21
91.404799999999994
 31
0.0
  0
LINE
  5
1D8
  8
0
 62
     7
 10
101.1139999999999
 20
95.404899999999998
 30
0.0
 11
87.051699999999997
 21
95.404899999999998
 31
0.0
  0
LINE
  5
1D9
  8
0
 62
     7
 10
107.11499999999999
 20
107.4049999999999
 30
0.0
 11
90.364199999999997
 21
107.4049999999999
 31
0.0
  0
LINE
  5
1DA
  8
0
 62
     7
 10
94.942800000000005
 20
96.405100000000004
 30
0.0
 11
79.633399999999995
 21
96.405100000000004
 31
0.0
  0
LINE
  5
1DB
  8
0
 62
     7
 10
129.51300000000001
 20
91.317999999999998
 30
0.0
 11
129.63499999999991
 21
93.604900000000001
 31
0.0
  0
LINE
  5
1DC
  8
0
 62
     7
 10
129.63499999999991
 20
93.604900000000001
 30
0.0
 11
128.38599999999991
 21
91.685299999999998
 31
0.0
  0
LINE
  5
1DD
  8
0
 62
     7
 10
128.38599999999991
 20
91.685299999999998
 30
0.0
 11
129.51300000000001
 21
91.317999999999998
 31
0.0
  0
LINE
  5
1DE
  8
0
 62
     7
 10
125.1279999999999
 20
79.778899999999993
 30
0.0
 11
129.63499999999991
 21
93.604900000000001
 31
0.0
  0
LINE
  5
1DF
  8
0
 62
     7
 10
125.1279999999999
 20
79.778899999999993
 30
0.0
 11
110.206
 21
79.778899999999993
 31
0.0
  0
LINE
  5
1E0
  8
_________2
 62
     7
 10
205.30099999999999
 20
127.411
 30
0.0
 11
183.55099999999999
 21
127.411
 31
0.0
  0
LINE
  5
1E1
  8
_________2
 62
     7
 10
100.2999999999999
 20
-4.0910799999999998
 30
0.0
 11
100.2999999999999
 21
-21.071400000000001
 31
0.0
  0
LINE
  5
1E2
  8
_________2
 62
     7
 10
100.2999999999999
 20
275.93099999999993
 30
0.0
 11
100.2999999999999
 21
258.911
 31
0.0
  0
LINE
  5
1E3
  8
_________2
 62
     7
 10
17.049499999999998
 20
127.411
 30
0.0
 11
-4.7008599999999987
 21
127.411
 31
0.0
  0
LINE
  5
1E4
  8
_________2
 62
     7
 10
76.741
 20
29.8047
 30
0.0
 11
74.554699999999997
 21
29.8047
 31
0.0
  0
LINE
  5
1E5
  8
_________2
 62
     7
 10
77.233699999999999
 20
29.8047
 30
0.0
 11
76.981499999999997
 21
29.8047
 31
0.0
  0
LINE
  5
1E6
  8
_________2
 62
     7
 10
77.726299999999995
 20
29.8047
 30
0.0
 11
80.651200000000003
 21
29.8047
 31
0.0
  0
LINE
  5
1E7
  8
_________2
 62
     7
 10
77.233699999999999
 20
29.8047
 30
0.0
 11
77.485900000000001
 21
29.8047
 31
0.0
  0
LINE
  5
1E8
  8
_________2
 62
     7
 10
70.837500000000006
 20
29.8047
 30
0.0
 11
68.650499999999994
 21
29.8047
 31
0.0
  0
LINE
  5
1E9
  8
_________2
 62
     7
 10
71.329400000000007
 20
29.8047
 30
0.0
 11
71.0779
 21
29.8047
 31
0.0
  0
LINE
  5
1EA
  8
_________2
 62
     7
 10
71.329400000000007
 20
30.2974
 30
0.0
 11
71.329400000000007
 21
32.484400000000001
 31
0.0
  0
LINE
  5
1EB
  8
_________2
 62
     7
 10
71.329400000000007
 20
29.8047
 30
0.0
 11
71.329400000000007
 21
30.056899999999992
 31
0.0
  0
LINE
  5
1EC
  8
_________2
 62
     7
 10
71.822100000000006
 20
29.8047
 30
0.0
 11
74.009
 21
29.8047
 31
0.0
  0
LINE
  5
1ED
  8
_________2
 62
     7
 10
71.329400000000007
 20
29.8047
 30
0.0
 11
71.581599999999995
 21
29.8047
 31
0.0
  0
LINE
  5
1EE
  8
_________2
 62
     7
 10
71.329400000000007
 20
29.312799999999999
 30
0.0
 11
71.329400000000007
 21
27.125800000000002
 31
0.0
  0
LINE
  5
1EF
  8
_________2
 62
     7
 10
71.329400000000007
 20
29.8047
 30
0.0
 11
71.329400000000007
 21
29.5532
 31
0.0
  0
LINE
  5
1F0
  8
_________2
 62
     7
 10
75.040499999999994
 20
28.5852
 30
0.0
 11
80.218500000000006
 21
27.720400000000001
 31
0.0
  0
LINE
  5
1F1
  8
_________2
 62
     7
 10
75.040499999999994
 20
31.0243
 30
0.0
 11
80.218500000000006
 21
31.889700000000001
 31
0.0
  0
LINE
  5
1F2
  8
_________2
 62
     7
 10
80.218500000000006
 20
27.720400000000001
 30
0.0
 11
80.218500000000006
 21
31.889700000000001
 31
0.0
  0
LINE
  5
1F3
  8
_________2
 62
     7
 10
75.040499999999994
 20
28.5852
 30
0.0
 11
75.040499999999994
 21
31.0243
 31
0.0
  0
ARC
  5
1F4
  8
_________2
 62
     7
 10
71.283190000000005
 20
29.757787
 30
0.0
 40
1.2673709999999989
 50
2.1232950000000002
 51
87.909056000000007
  0
ARC
  5
1F5
  8
_________2
 62
     7
 10
71.375959999999992
 20
29.758213000000001
 30
0.0
 40
1.2669559999999991
 50
92.104701000000006
 51
177.8952689999999
  0
ARC
  5
1F6
  8
_________2
 62
     7
 10
71.376357999999996
 20
29.851671
 30
0.0
 40
1.2673680000000001
 50
182.12203600000001
 51
267.877993
  0
ARC
  5
1F7
  8
_________2
 62
     7
 10
71.282541000000009
 20
29.852347999999999
 30
0.0
 40
1.2680439999999991
 50
272.11916400000001
 51
357.84848499999993
  0
ARC
  5
1F8
  8
_________2
 62
     7
 10
71.329430000000002
 20
29.804742999999998
 30
0.0
 40
2.0849849999999992
 50
0.00001
 51
89.999980000000008
  0
ARC
  5
1F9
  8
_________2
 62
     7
 10
71.409075999999999
 20
29.725812999999992
 30
0.0
 40
2.165379999999999
 50
92.107876000000005
 51
177.91103200000001
  0
ARC
  5
1FA
  8
_________2
 62
     7
 10
71.409439000000006
 20
29.884751999999999
 30
0.0
 40
2.1657829999999998
 50
182.117133
 51
267.88289700000001
  0
ARC
  5
1FB
  8
_________2
 62
     7
 10
71.249459000000002
 20
29.885429999999989
 30
0.0
 40
2.1664590000000001
 50
272.11546800000002
 51
357.86560400000002
  0
TEXT
  5
1FC
  8
_________2
 62
     7
 10
104.605
 20
1.6794899999999999
 30
0.0
 40
3.0923400000000001
  1
図番
 41
0.5
  0
LINE
  5
1FD
  8
_________2
 62
     7
 10
103.55
 20
5.9087199999999989
 30
0.0
 11
183.55099999999999
 21
5.9087199999999989
 31
0.0
  0
TEXT
  5
1FE
  8
_________2
 62
     7
 10
104.605
 20
11.679299999999991
 30
0.0
 40
3.0923400000000001
  1
品番
 41
0.5
  0
TEXT
  5
1FF
  8
_________2
 62
     7
 10
104.605
 20
31.818100000000001
 30
0.0
 40
3.0923400000000001
  1
名称
 41
0.5
  0
TEXT
  5
200
  8
_________2
 62
     7
 10
91.845058333333341
 20
26.821999999999989
 30
0.0
 40
3.6545800000000002
  1
mm
 41
0.5
 72
     1
 11
93.367800000000003
 21
26.821999999999989
 31
0.0
  0
TEXT
  5
201
  8
_________2
 62
     7
 10
85.643199999999993
 20
31.818100000000001
 30
0.0
 40
3.0923400000000001
  1
単位
 41
0.5
  0
TEXT
  5
202
  8
_________2
 62
     7
 10
85.643199999999993
 20
19.410799999999991
 30
0.0
 40
3.0923400000000001
  1
尺度
 41
0.5
  0
TEXT
  5
203
  8
_________2
 62
     7
 10
90.09193616666667
 20
13.2179
 30
0.0
 40
3.6545800000000002
  1
1 ： 10
 41
0.5
 72
     1
 11
93.959699999999998
 21
13.2179
 31
0.0
  0
TEXT
  5
204
  8
_________2
 62
     7
 10
136.33455000000001
 20
9.1078600000000005
 30
0.0
 40
3.9357000000000002
  1
VB514400
 41
0.5
 72
     1
 11
143.55000000000001
 21
9.1078600000000005
 31
0.0
  0
TEXT
  5
205
  8
_________2
 62
     7
 10
136.33455000000001
 20
-0.8926299999999999
 30
0.0
 40
3.9357000000000002
  1
VB514400
 41
0.5
 72
     1
 11
143.55000000000001
 21
-0.8926299999999999
 31
0.0
  0
TEXT
  5
206
  8
_________2
 62
     7
 10
24.5868
 20
0.707283
 30
0.0
 40
3.9357000000000002
  1
実容量：2.6L、重量:8.0kg、オーバーフロー付
 41
0.5
  0
TEXT
  5
207
  8
_________2
 62
     7
 10
24.190799999999999
 20
40.528399999999991
 30
0.0
 40
4.2168199999999993
  1
・排水ヘッド部にはCET324をセットしてください。
 41
0.5
  0
TEXT
  5
208
  8
_________2
 62
     7
 10
109.179
 20
24.2257
 30
0.0
 40
3.9357000000000002
  1
ループ&フレンズ 洗面器
 41
0.5
  0
TEXT
  5
209
  8
_________2
 62
     7
 10
39.425300333333333
 20
13.603
 30
0.0
 40
3.6545800000000002
  1
早川
 41
0.5
 72
     1
 11
41.313499999999998
 21
13.603
 31
0.0
  0
TEXT
  5
20A
  8
_________2
 62
     7
 10
20.851300333333331
 20
13.603
 30
0.0
 40
3.6545800000000002
  1
福田
 41
0.5
 72
     1
 11
22.7395
 21
13.603
 31
0.0
  0
TEXT
  5
20B
  8
_________2
 62
     7
 10
67.785799999999995
 20
13.2179
 30
0.0
 40
3.6545800000000002
  1
13.10.01
 41
0.5
  0
TEXT
  5
20C
  8
_________2
 62
     7
 10
66.593100000000007
 20
19.410799999999991
 30
0.0
 40
3.0923400000000001
  1
日付
 41
0.5
  0
TEXT
  5
20D
  8
_________2
 62
     7
 10
29.639399999999998
 20
19.410799999999991
 30
0.0
 40
3.0923400000000001
  1
検図
 41
0.5
  0
TEXT
  5
20E
  8
_________2
 62
     7
 10
18.021100000000001
 20
5.21143
 30
0.0
 40
3.0923400000000001
  1
備考
 41
0.5
  0
TEXT
  5
20F
  8
_________2
 62
     7
 10
18.021100000000001
 20
19.410799999999991
 30
0.0
 40
3.0923400000000001
  1
製図
 41
0.5
  0
TEXT
  5
210
  8
_________2
 62
     7
 10
23.788465333333338
 20
27.936800000000002
 30
0.0
 40
4.4979399999999989
  1
セラトレーディング株式会社
 41
0.5
 72
     1
 11
41.180500000000002
 21
27.936800000000002
 31
0.0
  0
LINE
  5
211
  8
_________2
 62
     7
 10
183.55099999999999
 20
-4.0910799999999998
 30
0.0
 11
17.049499999999998
 21
-4.0910799999999998
 31
0.0
  0
LINE
  5
212
  8
_________2
 62
     7
 10
17.049499999999998
 20
-4.0910799999999998
 30
0.0
 11
17.049499999999998
 21
258.911
 31
0.0
  0
LINE
  5
213
  8
_________2
 62
     7
 10
17.049499999999998
 20
258.911
 30
0.0
 11
183.55099999999999
 21
258.911
 31
0.0
  0
LINE
  5
214
  8
_________2
 62
     7
 10
183.55099999999999
 20
258.911
 30
0.0
 11
183.55099999999999
 21
-4.0910799999999998
 31
0.0
  0
LINE
  5
215
  8
_________2
 62
     7
 10
65.549899999999994
 20
9.4089600000000004
 30
0.0
 11
65.549899999999994
 21
35.908799999999999
 31
0.0
  0
LINE
  5
216
  8
_________2
 62
     7
 10
84.549700000000016
 20
9.4089600000000004
 30
0.0
 11
84.549700000000016
 21
35.908799999999999
 31
0.0
  0
LINE
  5
217
  8
_________2
 62
     7
 10
103.55
 20
-4.0910799999999998
 30
0.0
 11
103.55
 21
35.908799999999999
 31
0.0
  0
LINE
  5
218
  8
_________2
 62
     7
 10
28.549299999999992
 20
9.4089600000000004
 30
0.0
 11
28.549299999999992
 21
23.409199999999998
 31
0.0
  0
LINE
  5
219
  8
_________2
 62
     7
 10
17.049499999999998
 20
9.4089600000000004
 30
0.0
 11
103.55
 21
9.4089600000000004
 31
0.0
  0
LINE
  5
21A
  8
_________2
 62
     7
 10
17.049499999999998
 20
23.409199999999998
 30
0.0
 11
103.55
 21
23.409199999999998
 31
0.0
  0
LINE
  5
21B
  8
_________2
 62
     7
 10
103.55
 20
15.9085
 30
0.0
 11
183.55099999999999
 21
15.9085
 31
0.0
  0
LINE
  5
21C
  8
_________2
 62
     7
 10
17.049499999999998
 20
35.908799999999999
 30
0.0
 11
183.55099999999999
 21
35.908799999999999
 31
0.0
  0
ENDSEC
  0
EOF
