  0
SECTION
  2
HEADER
  9
$ACADVER
  1
AC1009
  9
$INSBASE
 10
0.0
 20
0.0
 30
0.0
  9
$EXTMIN
 10
-4.7008599999999987
 20
-21.071400000000001
 30
0.0
  9
$EXTMAX
 10
205.30099999999999
 20
275.93099999999993
 30
0.0
  9
$LIMMIN
 10
0.0
 20
0.0
  9
$LIMMAX
 10
12.0
 20
9.0
  9
$ORTHOMODE
 70
     0
  9
$REGENMODE
 70
     1
  9
$FILLMODE
 70
     1
  9
$QTEXTMODE
 70
     0
  9
$MIRRTEXT
 70
     1
  9
$DRAGMODE
 70
     2
  9
$LTSCALE
 40
1.0
  9
$OSMODE
 70
    37
  9
$ATTMODE
 70
     1
  9
$TEXTSIZE
 40
0.0
  9
$TRACEWID
 40
0.05
  9
$TEXTSTYLE
  7
STANDARD
  9
$CLAYER
  8
0
  9
$CELTYPE
  6
CONTINUOUS
  9
$CECOLOR
 62
   256
  9
$DIMSCALE
 40
1.0
  9
$DIMASZ
 40
0.18
  9
$DIMEXO
 40
0.0625
  9
$DIMDLI
 40
0.38
  9
$DIMRND
 40
0.0
  9
$DIMDLE
 40
0.0
  9
$DIMEXE
 40
0.18
  9
$DIMTP
 40
0.0
  9
$DIMTM
 40
0.0
  9
$DIMTXT
 40
0.18
  9
$DIMCEN
 40
0.09
  9
$DIMTSZ
 40
0.0
  9
$DIMTOL
 70
     0
  9
$DIMLIM
 70
     0
  9
$DIMTIH
 70
     1
  9
$DIMTOH
 70
     1
  9
$DIMSE1
 70
     0
  9
$DIMSE2
 70
     0
  9
$DIMTAD
 70
     0
  9
$DIMZIN
 70
     0
  9
$DIMBLK
  1

  9
$DIMASO
 70
     1
  9
$DIMSHO
 70
     1
  9
$DIMPOST
  1

  9
$DIMAPOST
  1

  9
$DIMALT
 70
     0
  9
$DIMALTD
 70
     2
  9
$DIMALTF
 40
25.399999999999999
  9
$DIMLFAC
 40
1.0
  9
$DIMTOFL
 70
     0
  9
$DIMTVP
 40
0.0
  9
$DIMTIX
 70
     0
  9
$DIMSOXD
 70
     0
  9
$DIMSAH
 70
     0
  9
$DIMBLK1
  1

  9
$DIMBLK2
  1

  9
$DIMSTYLE
  2
STANDARD
  9
$DIMCLRD
 70
     0
  9
$DIMCLRE
 70
     0
  9
$DIMCLRT
 70
     0
  9
$DIMTFAC
 40
1.0
  9
$DIMGAP
 40
0.09
  9
$LUNITS
 70
     2
  9
$LUPREC
 70
     4
  9
$SKETCHINC
 40
0.1
  9
$FILLETRAD
 40
0.0
  9
$AUNITS
 70
     0
  9
$AUPREC
 70
     0
  9
$MENU
  1
.
  9
$ELEVATION
 40
0.0
  9
$PELEVATION
 40
0.0
  9
$THICKNESS
 40
0.0
  9
$LIMCHECK
 70
     0
  9
$BLIPMODE
 70
     0
  9
$CHAMFERA
 40
0.0
  9
$CHAMFERB
 40
0.0
  9
$SKPOLY
 70
     0
  9
$TDCREATE
 40
2444972.375
  9
$TDUPDATE
 40
2456571.2489578822
  9
$TDINDWG
 40
0.0000061343
  9
$TDUSRTIMER
 40
0.0000061343
  9
$USRTIMER
 70
     1
  9
$ANGBASE
 50
0.0
  9
$ANGDIR
 70
     0
  9
$PDMODE
 70
     0
  9
$PDSIZE
 40
0.0
  9
$PLINEWID
 40
0.0
  9
$COORDS
 70
     1
  9
$SPLFRAME
 70
     0
  9
$SPLINETYPE
 70
     6
  9
$SPLINESEGS
 70
     8
  9
$ATTDIA
 70
     0
  9
$ATTREQ
 70
     1
  9
$HANDLING
 70
     1
  9
$HANDSEED
  5
245
  9
$SURFTAB1
 70
     6
  9
$SURFTAB2
 70
     6
  9
$SURFTYPE
 70
     6
  9
$SURFU
 70
     6
  9
$SURFV
 70
     6
  9
$UCSNAME
  2

  9
$UCSORG
 10
0.0
 20
0.0
 30
0.0
  9
$UCSXDIR
 10
1.0
 20
0.0
 30
0.0
  9
$UCSYDIR
 10
0.0
 20
1.0
 30
0.0
  9
$PUCSNAME
  2

  9
$PUCSORG
 10
0.0
 20
0.0
 30
0.0
  9
$PUCSXDIR
 10
1.0
 20
0.0
 30
0.0
  9
$PUCSYDIR
 10
0.0
 20
1.0
 30
0.0
  9
$USERI1
 70
     0
  9
$USERI2
 70
     0
  9
$USERI3
 70
     0
  9
$USERI4
 70
     0
  9
$USERI5
 70
     0
  9
$USERR1
 40
0.0
  9
$USERR2
 40
0.0
  9
$USERR3
 40
0.0
  9
$USERR4
 40
0.0
  9
$USERR5
 40
0.0
  9
$WORLDVIEW
 70
     1
  9
$SHADEDGE
 70
     3
  9
$SHADEDIF
 70
    70
  9
$TILEMODE
 70
     1
  9
$MAXACTVP
 70
    48
  9
$PLIMCHECK
 70
     0
  9
$PEXTMIN
 10
1.0000000000000000E+020
 20
1.0000000000000000E+020
 30
1.0000000000000000E+020
  9
$PEXTMAX
 10
-1.0000000000000000E+020
 20
-1.0000000000000000E+020
 30
-1.0000000000000000E+020
  9
$PLIMMIN
 10
0.0
 20
0.0
  9
$PLIMMAX
 10
12.0
 20
9.0
  9
$UNITMODE
 70
     0
  9
$VISRETAIN
 70
     1
  9
$PLINEGEN
 70
     0
  9
$PSLTSCALE
 70
     1
  0
ENDSEC
  0
SECTION
  2
TABLES
  0
TABLE
  2
VPORT
 70
     2
  0
VPORT
  2
*ACTIVE
 70
     0
 10
0.0
 20
0.0
 11
1.0
 21
1.0
 12
202.00661374696719
 22
127.4298
 13
0.0
 23
0.0
 14
1.0
 24
1.0
 15
0.0
 25
0.0
 16
0.0
 26
0.0
 36
1.0
 17
0.0
 27
0.0
 37
0.0
 40
299.45358899587342
 41
2.2894736842105261
 42
50.0
 43
0.0
 44
0.0
 50
0.0
 51
0.0
 71
     0
 72
   100
 73
     1
 74
     1
 75
     0
 76
     0
 77
     0
 78
     0
  0
ENDTAB
  0
TABLE
  2
LTYPE
 70
     4
  0
LTYPE
  2
CONTINUOUS
 70
     0
  3
Solid line
 72
    65
 73
     0
 40
0.0
  0
LTYPE
  2
AIGENLINE001
 70
     0
  3
generate AI->DXF Converter
 72
    65
 73
     2
 40
1.5522299999999991
 49
0.776115
 49
-0.776115
  0
LTYPE
  2
AIGENLINE002
 70
     0
  3
generate AI->DXF Converter
 72
    65
 73
     6
 40
7.4083750000000004
 49
3.5278
 49
-0.776115
 49
0.776115
 49
-0.776115
 49
0.776115
 49
-0.776115
  0
LTYPE
  2
AIGENLINE003
 70
     0
  3
generate AI->DXF Converter
 72
    65
 73
     4
 40
5.8561449999999988
 49
3.5278
 49
-0.776115
 49
0.776115
 49
-0.776115
  0
ENDTAB
  0
TABLE
  2
LAYER
 70
     2
  0
LAYER
  2
0
 70
     0
 62
     7
  6
CONTINUOUS
  0
LAYER
  2
_________2
 70
     0
 62
     7
  6
CONTINUOUS
  0
ENDTAB
  0
TABLE
  2
STYLE
 70
     1
  0
STYLE
  2
STANDARD
 70
     0
 40
0.0
 41
0.0
 50
0.0
 71
     0
 42
0.0
  3
TXT
  4
EXTFONT.SHX
  0
ENDTAB
  0
TABLE
  2
VIEW
 70
     0
  0
ENDTAB
  0
TABLE
  2
UCS
 70
     0
  0
ENDTAB
  0
TABLE
  2
APPID
 70
     1
  0
APPID
  2
ACAD
 70
     0
  0
ENDTAB
  0
TABLE
  2
DIMSTYLE
 70
     1
  0
DIMSTYLE
  2
STANDARD
 70
     0
  3

  4

  5

  6

  7

 40
1.0
 41
0.18
 42
0.0625
 43
0.38
 44
0.18
 45
0.0
 46
0.0
 47
0.0
 48
0.0
140
0.18
141
0.09
142
0.0
143
25.399999999999999
144
1.0
145
0.0
146
1.0
147
0.09
 71
     0
 72
     0
 73
     1
 74
     1
 75
     0
 76
     0
 77
     0
 78
     0
170
     0
171
     2
172
     0
173
     0
174
     0
175
     0
176
     0
177
     0
178
     0
  0
ENDTAB
  0
ENDSEC
  0
SECTION
  2
BLOCKS
  0
BLOCK
  8
0
  2
$MODEL_SPACE
 70
     0
 10
0.0
 20
0.0
 30
0.0
  3
$MODEL_SPACE
  1

  0
ENDBLK
  5
1A
  8
0
  0
BLOCK
 67
     1
  8
0
  2
$PAPER_SPACE
 70
     0
 10
0.0
 20
0.0
 30
0.0
  3
$PAPER_SPACE
  1

  0
ENDBLK
  5
17
 67
     1
  8
0
  0
ENDSEC
  0
SECTION
  2
ENTITIES
  0
TEXT
  5
24
  8
0
 62
     7
 10
43.015700000000002
 20
226.67399999999989
 30
0.0
 40
3.0923400000000001
  1
※40%%d範囲内には、ポップアップ引棒付水栓・
 41
0.5
  0
TEXT
  5
25
  8
0
 62
     7
 10
43.015700000000002
 20
222.80799999999991
 30
0.0
 40
3.0923400000000001
  1
　引棒部は設置できません。
 41
0.5
  0
TEXT
  5
26
  8
0
 62
     7
 10
46.316884999999999
 20
184.386
 30
0.0
 40
3.0923400000000001
  1
120%%d
 41
0.5
 72
     2
 11
50.697699999999998
 21
184.386
 31
0.0
  0
TEXT
  5
27
  8
0
 62
     7
 10
76.676900000000003
 20
187.40899999999999
 30
0.0
 40
3.0923400000000001
  1
120%%d
 41
0.5
  0
TEXT
  5
28
  8
0
 62
     7
 10
24.76896099999999
 20
155.26599999999991
 30
0.0
 40
3.0923400000000001
  1
※40%%d
 41
0.5
 72
     2
 11
29.974399999999999
 21
155.26599999999991
 31
0.0
  0
TEXT
  5
29
  8
0
 62
     7
 10
96.894300000000015
 20
153.43299999999991
 30
0.0
 40
3.0923400000000001
  1
※40%%d
 41
0.5
  0
TEXT
  5
2A
  8
0
 62
     7
 10
61.596263499999992
 20
216.142
 30
0.0
 40
3.0923400000000001
  1
※40%%d
 41
0.5
 72
     1
 11
64.3536
 21
216.142
 31
0.0
  0
TEXT
  5
2B
  8
0
 62
     7
 10
142.96876
 20
161.68000000000001
 30
0.0
 40
3.0923400000000001
  1
カウンター切込寸法
 41
0.5
 72
     1
 11
151.215
 21
161.68000000000001
 31
0.0
  0
TEXT
  5
2C
  8
0
 62
     7
 10
132.71700000000001
 20
169.87799999999999
 30
0.0
 40
3.0923400000000001
  1
%%c185
 41
0.5
  0
TEXT
  5
2D
  8
0
 62
     7
 10
117.691
 20
86.214100000000002
 30
0.0
 40
3.0923400000000001
  1
カウンタ－
 41
0.5
  0
TEXT
  5
2E
  8
0
 62
     7
 10
117.691
 20
82.348600000000005
 30
0.0
 40
3.0923400000000001
  1
（t＝10～30）
 41
0.5
  0
TEXT
  5
2F
  8
0
 62
     7
 10
159.80513500000001
 20
119.4079999999999
 30
0.0
 40
3.0923400000000001
  1
215
 41
0.5
 72
     1
 11
161.6089999999999
 21
119.4079999999999
 31
0.0
  0
TEXT
  5
30
  8
0
 62
     7
 10
149.43698249999991
 20
81.983800000000002
 30
0.0
 40
3.0923400000000001
  1
210
 41
0.5
 72
     1
 11
151.11199999999999
 21
81.983800000000002
 31
0.0
  0
TEXT
  5
31
  8
0
 62
     7
 10
62.549235000000003
 20
81.983800000000002
 30
0.0
 40
3.0923400000000001
  1
300
 41
0.5
 72
     1
 11
64.353099999999998
 21
81.983800000000002
 31
0.0
  0
TEXT
  5
32
  8
0
 62
     7
 10
97.465000000000003
 20
102.0901349999999
 30
0.0
 40
3.0923400000000001
  1
10
 50
90.0
 41
0.5
 72
     2
 11
97.465000000000003
 21
103.89399999999991
 31
0.0
  0
TEXT
  5
33
  8
0
 62
     7
 10
110.949
 20
99.118982500000001
 30
0.0
 40
3.0923400000000001
  1
160
 50
90.0
 41
0.5
 72
     1
 11
110.949
 21
100.794
 31
0.0
  0
TEXT
  5
34
  8
0
 62
     7
 10
104.03100000000001
 20
101.1189824999999
 30
0.0
 40
3.0923400000000001
  1
120
 50
90.0
 41
0.5
 72
     1
 11
104.03100000000001
 21
102.794
 31
0.0
  0
TEXT
  5
35
  8
0
 62
     7
 10
148.42500000000001
 20
102.24782999999989
 30
0.0
 40
3.0923400000000001
  1
100
 50
90.0
 41
0.5
 72
     1
 11
148.42500000000001
 21
103.794
 31
0.0
  0
TEXT
  5
36
  8
0
 62
     7
 10
52.820399999999999
 20
185.76699999999991
 30
0.0
 40
3.0923400000000001
  1
%%c46
 41
0.5
  0
TEXT
  5
37
  8
0
 62
     7
 10
115.64399999999991
 20
177.50828749999991
 30
0.0
 40
3.0923400000000001
  1
430
 50
90.0
 41
0.5
 72
     1
 11
115.64399999999991
 21
179.44099999999989
 31
0.0
  0
TEXT
  5
38
  8
0
 62
     7
 10
108.6429999999999
 20
177.50828749999991
 30
0.0
 40
3.0923400000000001
  1
390
 50
90.0
 41
0.5
 72
     1
 11
108.6429999999999
 21
179.44099999999989
 31
0.0
  0
TEXT
  5
39
  8
0
 62
     7
 10
62.420687499999993
 20
139.1989999999999
 30
0.0
 40
3.0923400000000001
  1
630
 41
0.5
 72
     1
 11
64.353399999999993
 21
139.1989999999999
 31
0.0
  0
TEXT
  5
3A
  8
0
 62
     7
 10
62.420687499999993
 20
146.1989999999999
 30
0.0
 40
3.0923400000000001
  1
590
 41
0.5
 72
     1
 11
64.353399999999993
 21
146.1989999999999
 31
0.0
  0
LINE
  5
3B
  8
0
  6
AIGENLINE001
 62
     7
 10
155.10799999999989
 20
98.794200000000004
 30
0.0
 11
155.10799999999989
 21
98.019800000000004
 31
0.0
  0
LINE
  5
3C
  8
0
  6
AIGENLINE001
 62
     7
 10
153.40899999999991
 20
96.294499999999999
 30
0.0
 11
154.93899999999999
 21
97.644999999999996
 31
0.0
  0
ARC
  5
3D
  8
0
  6
AIGENLINE001
 62
     7
 10
154.60273000000001
 20
98.022751999999997
 30
0.0
 40
0.50576
 50
311.67034899999999
 51
359.66413099999988
  0
LINE
  5
3E
  8
0
  6
AIGENLINE001
 62
     7
 10
147.27799999999999
 20
97.644999999999996
 30
0.0
 11
148.80899999999991
 21
96.294499999999999
 31
0.0
  0
LINE
  5
3F
  8
0
  6
AIGENLINE001
 62
     7
 10
147.108
 20
98.794200000000004
 30
0.0
 11
147.108
 21
98.019800000000004
 31
0.0
  0
ARC
  5
40
  8
0
  6
AIGENLINE001
 62
     7
 10
147.61427399999999
 20
98.022885000000016
 30
0.0
 40
0.506053
 50
180.35070099999999
 51
228.31485900000001
  0
LINE
  5
41
  8
0
  6
AIGENLINE001
 62
     7
 10
147.108
 20
98.794200000000004
 30
0.0
 11
155.10799999999989
 21
98.794200000000004
 31
0.0
  0
LINE
  5
42
  8
0
  6
AIGENLINE001
 62
     7
 10
153.40899999999991
 20
96.294499999999999
 30
0.0
 11
153.40899999999991
 21
92.794200000000004
 31
0.0
  0
LINE
  5
43
  8
0
  6
AIGENLINE001
 62
     7
 10
148.80899999999991
 20
96.294499999999999
 30
0.0
 11
148.80899999999991
 21
92.794200000000004
 31
0.0
  0
LINE
  5
44
  8
0
  6
AIGENLINE001
 62
     7
 10
148.80899999999991
 20
96.294499999999999
 30
0.0
 11
153.40899999999991
 21
96.294499999999999
 31
0.0
  0
LINE
  5
45
  8
0
  6
AIGENLINE001
 62
     7
 10
68.353200000000001
 20
98.794200000000004
 30
0.0
 11
68.353200000000001
 21
98.019800000000004
 31
0.0
  0
LINE
  5
46
  8
0
  6
AIGENLINE001
 62
     7
 10
66.653400000000005
 20
96.294499999999999
 30
0.0
 11
68.183999999999997
 21
97.644999999999996
 31
0.0
  0
ARC
  5
47
  8
0
  6
AIGENLINE001
 62
     7
 10
67.846858999999995
 20
98.022705999999985
 30
0.0
 40
0.5063430000000001
 50
311.75226299999991
 51
359.66968900000001
  0
LINE
  5
48
  8
0
  6
AIGENLINE001
 62
     7
 10
60.522399999999998
 20
97.644999999999996
 30
0.0
 11
62.0535
 21
96.294499999999999
 31
0.0
  0
LINE
  5
49
  8
0
  6
AIGENLINE001
 62
     7
 10
60.353299999999997
 20
98.794200000000004
 30
0.0
 11
60.353299999999997
 21
98.019800000000004
 31
0.0
  0
ARC
  5
4A
  8
0
  6
AIGENLINE001
 62
     7
 10
60.860014
 20
98.022884000000005
 30
0.0
 40
0.5067370000000001
 50
180.35010199999991
 51
228.22798599999999
  0
LINE
  5
4B
  8
0
  6
AIGENLINE001
 62
     7
 10
60.353299999999997
 20
98.794200000000004
 30
0.0
 11
68.353200000000001
 21
98.794200000000004
 31
0.0
  0
LINE
  5
4C
  8
0
  6
AIGENLINE001
 62
     7
 10
66.653400000000005
 20
96.294499999999999
 30
0.0
 11
66.653400000000005
 21
92.794200000000004
 31
0.0
  0
LINE
  5
4D
  8
0
  6
AIGENLINE001
 62
     7
 10
62.0535
 20
96.294499999999999
 30
0.0
 11
62.0535
 21
92.794200000000004
 31
0.0
  0
LINE
  5
4E
  8
0
  6
AIGENLINE001
 62
     7
 10
62.0535
 20
96.294499999999999
 30
0.0
 11
66.653400000000005
 21
96.294499999999999
 31
0.0
  0
ARC
  5
4F
  8
0
 62
     7
 10
64.343126999999996
 20
179.439345
 30
0.0
 40
14.628951999999989
 50
330.02684799999992
 51
0.007832
  0
ARC
  5
50
  8
0
 62
     7
 10
64.353409999999997
 20
179.44099700000001
 30
0.0
 40
14.618669000000001
 50
0.00136
 51
90.00133000000001
  0
ARC
  5
51
  8
0
 62
     7
 10
64.353414999999984
 20
179.441686
 30
0.0
 40
14.61797999999999
 50
90.001350000000002
 51
180.00135999999989
  0
ARC
  5
52
  8
0
 62
     7
 10
64.450586000000001
 20
179.46215799999999
 30
0.0
 40
14.71516499999999
 50
180.08106100000001
 51
209.880608
  0
LINE
  5
53
  8
0
 62
     7
 10
62.187800000000003
 20
193.321
 30
0.0
 11
64.354100000000003
 21
194.06
 31
0.0
  0
LINE
  5
54
  8
0
 62
     7
 10
64.354100000000003
 20
194.06
 30
0.0
 11
62.107900000000001
 21
194.5029999999999
 31
0.0
  0
LINE
  5
55
  8
0
 62
     7
 10
62.107900000000001
 20
194.5029999999999
 30
0.0
 11
62.187800000000003
 21
193.321
 31
0.0
  0
LINE
  5
56
  8
0
 62
     7
 10
50.1571
 20
173.83000000000001
 30
0.0
 11
51.691600000000001
 21
172.13099999999989
 31
0.0
  0
LINE
  5
57
  8
0
 62
     7
 10
51.691600000000001
 20
172.13099999999989
 30
0.0
 11
51.212400000000002
 21
174.369
 31
0.0
  0
LINE
  5
58
  8
0
 62
     7
 10
51.212400000000002
 20
174.369
 30
0.0
 11
50.1571
 21
173.83000000000001
 31
0.0
  0
LINE
  5
59
  8
0
 62
     7
 10
66.519400000000005
 20
193.31999999999999
 30
0.0
 11
64.353099999999998
 21
194.06
 31
0.0
  0
LINE
  5
5A
  8
0
 62
     7
 10
64.353099999999998
 20
194.06
 30
0.0
 11
66.599299999999999
 21
194.5029999999999
 31
0.0
  0
LINE
  5
5B
  8
0
 62
     7
 10
66.599299999999999
 20
194.5029999999999
 30
0.0
 11
66.519400000000005
 21
193.31999999999999
 31
0.0
  0
LINE
  5
5C
  8
0
 62
     7
 10
78.5501
 20
173.82900000000001
 30
0.0
 11
77.015600000000006
 21
172.13099999999989
 31
0.0
  0
LINE
  5
5D
  8
0
 62
     7
 10
77.015600000000006
 20
172.13099999999989
 30
0.0
 11
77.494799999999998
 21
174.369
 31
0.0
  0
LINE
  5
5E
  8
0
 62
     7
 10
77.494799999999998
 20
174.369
 30
0.0
 11
78.5501
 21
173.82900000000001
 31
0.0
  0
ARC
  5
5F
  8
0
 62
     7
 10
64.295622999999992
 20
179.3524239999999
 30
0.0
 40
39.165554999999991
 50
209.93007499999999
 51
229.980976
  0
ARC
  5
60
  8
0
 62
     7
 10
64.630549000000002
 20
179.57580400000001
 30
0.0
 40
39.567276
 50
190.121489
 51
209.96842000000001
  0
LINE
  5
61
  8
0
 62
     7
 10
25.596
 20
170.33500000000001
 30
0.0
 11
25.678999999999998
 21
172.62200000000001
 31
0.0
  0
LINE
  5
62
  8
0
 62
     7
 10
25.678999999999998
 20
172.62200000000001
 30
0.0
 11
26.7515
 21
170.59899999999999
 31
0.0
  0
LINE
  5
63
  8
0
 62
     7
 10
26.7515
 20
170.59899999999999
 30
0.0
 11
25.596
 21
170.33500000000001
 31
0.0
  0
LINE
  5
64
  8
0
 62
     7
 10
37.055700000000002
 20
150.36799999999991
 30
0.0
 11
39.110500000000002
 21
149.358
 31
0.0
  0
LINE
  5
65
  8
0
 62
     7
 10
39.110500000000002
 20
149.358
 30
0.0
 11
37.835500000000003
 21
151.25999999999991
 31
0.0
  0
LINE
  5
66
  8
0
 62
     7
 10
37.835500000000003
 20
151.25999999999991
 30
0.0
 11
37.055700000000002
 21
150.36799999999991
 31
0.0
  0
LINE
  5
67
  8
0
 62
     7
 10
25.0929
 20
172.51799999999989
 30
0.0
 11
29.123000000000001
 21
173.22900000000001
 31
0.0
  0
LINE
  5
68
  8
0
 62
     7
 10
38.501300000000001
 20
148.63200000000001
 30
0.0
 11
41.131799999999991
 21
151.767
 31
0.0
  0
LINE
  5
69
  8
0
  6
AIGENLINE002
 62
     7
 10
41.581699999999998
 20
152.303
 30
0.0
 11
64.353399999999993
 21
179.44099999999989
 31
0.0
  0
LINE
  5
6A
  8
0
  6
AIGENLINE002
 62
     7
 10
30.0624
 20
173.39400000000001
 30
0.0
 11
64.353399999999993
 21
179.44099999999989
 31
0.0
  0
LINE
  5
6B
  8
0
  6
AIGENLINE003
 62
     7
 10
64.353399999999993
 20
179.44099999999989
 30
0.0
 11
94.947400000000002
 21
161.77799999999991
 31
0.0
  0
LINE
  5
6C
  8
0
  6
AIGENLINE003
 62
     7
 10
64.353399999999993
 20
179.44099999999989
 30
0.0
 11
34.471200000000003
 21
162.1879999999999
 31
0.0
  0
ARC
  5
6D
  8
0
 62
     7
 10
64.420364000000006
 20
179.448421
 30
0.0
 40
39.204864999999998
 50
329.9410529999999
 51
349.97153999999989
  0
ARC
  5
6E
  8
0
 62
     7
 10
64.113844
 20
179.603342
 30
0.0
 40
39.547764000000001
 50
310.1131049999999
 51
329.96922699999988
  0
LINE
  5
6F
  8
0
 62
     7
 10
91.617399999999989
 20
150.43000000000001
 30
0.0
 11
89.594399999999979
 21
149.358
 31
0.0
  0
LINE
  5
70
  8
0
 62
     7
 10
89.594399999999979
 20
149.358
 30
0.0
 11
90.810500000000005
 21
151.29900000000001
 31
0.0
  0
LINE
  5
71
  8
0
 62
     7
 10
90.810500000000005
 20
151.29900000000001
 30
0.0
 11
91.617399999999989
 21
150.43000000000001
 31
0.0
  0
LINE
  5
72
  8
0
 62
     7
 10
103.18000000000001
 20
170.33699999999999
 30
0.0
 11
103.026
 21
172.6209999999999
 31
0.0
  0
LINE
  5
73
  8
0
 62
     7
 10
103.026
 20
172.6209999999999
 30
0.0
 11
102.017
 21
170.56700000000001
 31
0.0
  0
LINE
  5
74
  8
0
 62
     7
 10
102.017
 20
170.56700000000001
 30
0.0
 11
103.18000000000001
 21
170.33699999999999
 31
0.0
  0
LINE
  5
75
  8
0
 62
     7
 10
89.894099999999995
 20
149.00399999999999
 30
0.0
 11
87.263400000000004
 21
152.13900000000001
 31
0.0
  0
LINE
  5
76
  8
0
 62
     7
 10
103.44799999999989
 20
172.55000000000001
 30
0.0
 11
99.418499999999995
 21
173.25999999999991
 31
0.0
  0
LINE
  5
77
  8
0
  6
AIGENLINE002
 62
     7
 10
98.729500000000016
 20
173.38200000000001
 30
0.0
 11
64.352699999999999
 21
179.44099999999989
 31
0.0
  0
LINE
  5
78
  8
0
  6
AIGENLINE002
 62
     7
 10
86.652600000000007
 20
152.86699999999999
 30
0.0
 11
64.352699999999999
 21
179.44099999999989
 31
0.0
  0
ARC
  5
79
  8
0
 62
     7
 10
64.396271999999996
 20
179.52056499999989
 30
0.0
 40
35.862851999999997
 50
70.025405000000006
 51
90.067913000000004
  0
ARC
  5
7A
  8
0
 62
     7
 10
64.364992999999998
 20
179.21461199999999
 30
0.0
 40
36.168781000000003
 50
90.017789000000008
 51
109.89456199999999
  0
LINE
  5
7B
  8
0
 62
     7
 10
54.338500000000003
 20
213.417
 30
0.0
 11
52.057099999999991
 21
213.22499999999991
 31
0.0
  0
LINE
  5
7C
  8
0
 62
     7
 10
52.057099999999991
 20
213.22499999999991
 30
0.0
 11
53.936799999999991
 21
214.53200000000001
 31
0.0
  0
LINE
  5
7D
  8
0
 62
     7
 10
53.936799999999991
 20
214.53200000000001
 30
0.0
 11
54.338500000000003
 21
213.417
 31
0.0
  0
LINE
  5
7E
  8
0
 62
     7
 10
74.365799999999993
 20
213.41800000000001
 30
0.0
 11
76.647099999999995
 21
213.226
 31
0.0
  0
LINE
  5
7F
  8
0
 62
     7
 10
76.647099999999995
 20
213.226
 30
0.0
 11
74.767499999999998
 21
214.53399999999999
 31
0.0
  0
LINE
  5
80
  8
0
 62
     7
 10
74.767499999999998
 20
214.53399999999999
 30
0.0
 11
74.365799999999993
 21
213.41800000000001
 31
0.0
  0
LINE
  5
81
  8
0
 62
     7
 10
76.910300000000007
 20
213.94099999999989
 30
0.0
 11
75.510900000000007
 21
210.09599999999989
 31
0.0
  0
LINE
  5
82
  8
0
  6
AIGENLINE002
 62
     7
 10
75.271199999999993
 20
209.43799999999999
 30
0.0
 11
64.353399999999993
 21
179.44099999999989
 31
0.0
  0
LINE
  5
83
  8
0
 62
     7
 10
51.796300000000002
 20
213.94099999999989
 30
0.0
 11
53.196100000000001
 21
210.09599999999989
 31
0.0
  0
LINE
  5
84
  8
0
  6
AIGENLINE002
 62
     7
 10
53.435499999999998
 20
209.43799999999999
 30
0.0
 11
64.353399999999993
 21
179.44099999999989
 31
0.0
  0
LINE
  5
85
  8
0
  6
AIGENLINE001
 62
     7
 10
73.010300000000001
 20
92.294300000000007
 30
0.0
 11
73.453699999999984
 21
94.694199999999995
 31
0.0
  0
LINE
  5
86
  8
0
  6
AIGENLINE001
 62
     7
 10
72.496300000000005
 20
96.794399999999996
 30
0.0
 11
72.402600000000007
 21
92.794200000000004
 31
0.0
  0
LINE
  5
87
  8
0
  6
AIGENLINE001
 62
     7
 10
55.6965
 20
92.294300000000007
 30
0.0
 11
55.253100000000011
 21
94.694199999999995
 31
0.0
  0
LINE
  5
88
  8
0
 62
     7
 10
64.353399999999993
 20
91.7941
 30
0.0
 11
73.189099999999996
 21
91.7941
 31
0.0
  0
ARC
  5
89
  8
0
 62
     7
 10
73.182513
 20
91.999677000000005
 30
0.0
 40
0.205667
 50
271.83661899999993
 51
353.49089700000002
  0
LINE
  5
8A
  8
0
 62
     7
 10
73.386899999999983
 20
91.976399999999984
 30
0.0
 11
73.835400000000007
 21
94.403400000000005
 31
0.0
  0
ARC
  5
8B
  8
0
 62
     7
 10
74.295784999999995
 20
94.36291700000001
 30
0.0
 40
0.4621570000000001
 50
134.20471099999989
 51
174.96874199999991
  0
LINE
  5
8C
  8
0
 62
     7
 10
74.3536
 20
94.994299999999996
 30
0.0
 11
74.3536
 21
94.694199999999995
 31
0.0
  0
LINE
  5
8D
  8
0
 62
     7
 10
64.353399999999993
 20
94.694199999999995
 30
0.0
 11
74.3536
 21
94.694199999999995
 31
0.0
  0
LINE
  5
8E
  8
0
 62
     7
 10
64.353399999999993
 20
94.994299999999996
 30
0.0
 11
74.3536
 21
94.994299999999996
 31
0.0
  0
LINE
  5
8F
  8
0
  6
AIGENLINE001
 62
     7
 10
56.210500000000003
 20
96.794399999999996
 30
0.0
 11
56.304200000000002
 21
92.794200000000004
 31
0.0
  0
LINE
  5
90
  8
0
 62
     7
 10
64.353399999999993
 20
91.7941
 30
0.0
 11
55.517699999999998
 21
91.7941
 31
0.0
  0
ARC
  5
91
  8
0
 62
     7
 10
55.524118999999992
 20
91.999468999999976
 30
0.0
 40
0.205452
 50
186.45739800000001
 51
268.21512599999988
  0
LINE
  5
92
  8
0
 62
     7
 10
55.32
 20
91.976399999999984
 30
0.0
 11
54.871400000000001
 21
94.403400000000005
 31
0.0
  0
ARC
  5
93
  8
0
 62
     7
 10
54.41104
 20
94.36291700000001
 30
0.0
 40
0.4621570000000001
 50
5.0312380000000001
 51
45.795268999999998
  0
LINE
  5
94
  8
0
 62
     7
 10
54.353299999999997
 20
94.994299999999996
 30
0.0
 11
54.353299999999997
 21
94.694199999999995
 31
0.0
  0
LINE
  5
95
  8
0
 62
     7
 10
64.353399999999993
 20
94.694199999999995
 30
0.0
 11
54.353299999999997
 21
94.694199999999995
 31
0.0
  0
LINE
  5
96
  8
0
 62
     7
 10
64.353399999999993
 20
94.994299999999996
 30
0.0
 11
54.353299999999997
 21
94.994299999999996
 31
0.0
  0
LINE
  5
97
  8
0
  6
AIGENLINE003
 62
     7
 10
72.653000000000006
 20
93.031599999999997
 30
0.0
 11
72.653000000000006
 21
88.541899999999998
 31
0.0
  0
LINE
  5
98
  8
0
 62
     7
 10
72.353000000000009
 20
90.094300000000004
 30
0.0
 11
72.353000000000009
 21
91.594300000000004
 31
0.0
  0
LINE
  5
99
  8
0
 62
     7
 10
72.353000000000009
 20
90.094300000000004
 30
0.0
 11
72.653000000000006
 21
90.094300000000004
 31
0.0
  0
LINE
  5
9A
  8
0
 62
     7
 10
72.177999999999997
 20
91.594300000000004
 30
0.0
 11
72.177999999999997
 21
91.7941
 31
0.0
  0
LINE
  5
9B
  8
0
 62
     7
 10
72.177999999999997
 20
91.594300000000004
 30
0.0
 11
72.653000000000006
 21
91.594300000000004
 31
0.0
  0
LINE
  5
9C
  8
0
 62
     7
 10
73.127799999999993
 20
91.594300000000004
 30
0.0
 11
73.127799999999993
 21
91.7941
 31
0.0
  0
LINE
  5
9D
  8
0
 62
     7
 10
73.128100000000003
 20
91.594300000000004
 30
0.0
 11
72.653000000000006
 21
91.594300000000004
 31
0.0
  0
LINE
  5
9E
  8
0
 62
     7
 10
72.953100000000006
 20
90.094300000000004
 30
0.0
 11
72.953100000000006
 21
91.594300000000004
 31
0.0
  0
LINE
  5
9F
  8
0
 62
     7
 10
72.953100000000006
 20
90.094300000000004
 30
0.0
 11
72.653000000000006
 21
90.094300000000004
 31
0.0
  0
LINE
  5
A0
  8
0
  6
AIGENLINE003
 62
     7
 10
56.053800000000003
 20
93.031599999999997
 30
0.0
 11
56.053800000000003
 21
88.541899999999998
 31
0.0
  0
LINE
  5
A1
  8
0
  6
AIGENLINE001
 62
     7
 10
73.010300000000001
 20
92.294300000000007
 30
0.0
 11
55.6965
 21
92.294300000000007
 31
0.0
  0
LINE
  5
A2
  8
0
 62
     7
 10
112.3489999999999
 20
92.794200000000004
 30
0.0
 11
74.375900000000001
 21
92.794200000000004
 31
0.0
  0
LINE
  5
A3
  8
0
  6
AIGENLINE001
 62
     7
 10
72.402600000000007
 20
92.794200000000004
 30
0.0
 11
56.304200000000002
 21
92.794200000000004
 31
0.0
  0
LINE
  5
A4
  8
0
 62
     7
 10
64.653499999999994
 20
90.094300000000004
 30
0.0
 11
64.653499999999994
 21
91.594300000000004
 31
0.0
  0
LINE
  5
A5
  8
0
 62
     7
 10
64.653499999999994
 20
90.094300000000004
 30
0.0
 11
64.353399999999993
 21
90.094300000000004
 31
0.0
  0
LINE
  5
A6
  8
0
 62
     7
 10
64.828500000000005
 20
91.594300000000004
 30
0.0
 11
64.828500000000005
 21
91.7941
 31
0.0
  0
LINE
  5
A7
  8
0
 62
     7
 10
64.828500000000005
 20
91.594300000000004
 30
0.0
 11
64.353399999999993
 21
91.594300000000004
 31
0.0
  0
LINE
  5
A8
  8
0
 62
     7
 10
63.878700000000002
 20
91.594300000000004
 30
0.0
 11
63.878700000000002
 21
91.7941
 31
0.0
  0
LINE
  5
A9
  8
0
 62
     7
 10
63.87830000000001
 20
91.594300000000004
 30
0.0
 11
64.353399999999993
 21
91.594300000000004
 31
0.0
  0
LINE
  5
AA
  8
0
 62
     7
 10
64.053299999999993
 20
90.094300000000004
 30
0.0
 11
64.053299999999993
 21
91.594300000000004
 31
0.0
  0
LINE
  5
AB
  8
0
 62
     7
 10
64.053299999999993
 20
90.094300000000004
 30
0.0
 11
64.353399999999993
 21
90.094300000000004
 31
0.0
  0
LINE
  5
AC
  8
0
 62
     7
 10
56.35390000000001
 20
90.094300000000004
 30
0.0
 11
56.35390000000001
 21
91.594300000000004
 31
0.0
  0
LINE
  5
AD
  8
0
 62
     7
 10
56.35390000000001
 20
90.094300000000004
 30
0.0
 11
56.053800000000003
 21
90.094300000000004
 31
0.0
  0
LINE
  5
AE
  8
0
 62
     7
 10
56.5289
 20
91.594300000000004
 30
0.0
 11
56.5289
 21
91.7941
 31
0.0
  0
LINE
  5
AF
  8
0
 62
     7
 10
56.5289
 20
91.594300000000004
 30
0.0
 11
56.053800000000003
 21
91.594300000000004
 31
0.0
  0
LINE
  5
B0
  8
0
 62
     7
 10
55.579000000000001
 20
91.594300000000004
 30
0.0
 11
55.579000000000001
 21
91.7941
 31
0.0
  0
LINE
  5
B1
  8
0
 62
     7
 10
55.578699999999998
 20
91.594300000000004
 30
0.0
 11
56.053800000000003
 21
91.594300000000004
 31
0.0
  0
LINE
  5
B2
  8
0
 62
     7
 10
55.753700000000002
 20
90.094300000000004
 30
0.0
 11
55.753700000000002
 21
91.594300000000004
 31
0.0
  0
LINE
  5
B3
  8
0
 62
     7
 10
55.753700000000002
 20
90.094300000000004
 30
0.0
 11
56.053800000000003
 21
90.094300000000004
 31
0.0
  0
LINE
  5
B4
  8
0
  6
AIGENLINE001
 62
     7
 10
159.76599999999991
 20
92.294300000000007
 30
0.0
 11
160.209
 21
94.694199999999995
 31
0.0
  0
LINE
  5
B5
  8
0
  6
AIGENLINE001
 62
     7
 10
159.25200000000001
 20
96.794399999999996
 30
0.0
 11
159.1579999999999
 21
92.794200000000004
 31
0.0
  0
LINE
  5
B6
  8
0
  6
AIGENLINE001
 62
     7
 10
142.452
 20
92.294300000000007
 30
0.0
 11
142.0079999999999
 21
94.694199999999995
 31
0.0
  0
LINE
  5
B7
  8
0
 62
     7
 10
140.846
 20
169.178
 30
0.0
 11
132.71700000000001
 21
169.178
 31
0.0
  0
LINE
  5
B8
  8
0
 62
     7
 10
145.494
 20
174.49700000000001
 30
0.0
 11
144.57900000000001
 21
172.91099999999989
 31
0.0
  0
LINE
  5
B9
  8
0
 62
     7
 10
144.57900000000001
 20
172.91099999999989
 30
0.0
 11
146.1639999999999
 21
173.82599999999991
 31
0.0
  0
LINE
  5
BA
  8
0
 62
     7
 10
146.1639999999999
 20
173.82599999999991
 30
0.0
 11
145.494
 21
174.49700000000001
 31
0.0
  0
LINE
  5
BB
  8
0
 62
     7
 10
156.73500000000001
 20
184.3959999999999
 30
0.0
 11
157.65000000000001
 21
185.982
 31
0.0
  0
LINE
  5
BC
  8
0
 62
     7
 10
157.65000000000001
 20
185.982
 30
0.0
 11
156.0629999999999
 21
185.06700000000001
 31
0.0
  0
LINE
  5
BD
  8
0
 62
     7
 10
156.0629999999999
 20
185.06700000000001
 30
0.0
 11
156.73500000000001
 21
184.3959999999999
 31
0.0
  0
LINE
  5
BE
  8
0
 62
     7
 10
140.846
 20
169.178
 30
0.0
 11
157.65000000000001
 21
185.982
 31
0.0
  0
LINE
  5
BF
  8
0
  6
AIGENLINE002
 62
     7
 10
82.730699999999999
 20
94.994299999999996
 30
0.0
 11
45.976100000000002
 21
94.994299999999996
 31
0.0
  0
LINE
  5
C0
  8
0
  6
AIGENLINE002
 62
     7
 10
82.730699999999999
 20
96.794399999999996
 30
0.0
 11
45.976100000000002
 21
96.794399999999996
 31
0.0
  0
LINE
  5
C1
  8
0
  6
AIGENLINE002
 62
     7
 10
169.48599999999999
 20
94.994299999999996
 30
0.0
 11
132.73099999999991
 21
94.994299999999996
 31
0.0
  0
LINE
  5
C2
  8
0
  6
AIGENLINE002
 62
     7
 10
169.48599999999999
 20
96.794399999999996
 30
0.0
 11
132.73099999999991
 21
96.794399999999996
 31
0.0
  0
LINE
  5
C3
  8
0
 62
     7
 10
149.7179999999999
 20
106.583
 30
0.0
 11
149.12499999999989
 21
108.7939999999999
 31
0.0
  0
LINE
  5
C4
  8
0
 62
     7
 10
149.12499999999989
 20
108.7939999999999
 30
0.0
 11
148.5329999999999
 21
106.583
 31
0.0
  0
LINE
  5
C5
  8
0
 62
     7
 10
148.5329999999999
 20
106.583
 30
0.0
 11
149.7179999999999
 21
106.583
 31
0.0
  0
LINE
  5
C6
  8
0
 62
     7
 10
148.547
 20
101.0059999999999
 30
0.0
 11
149.1399999999999
 21
98.794200000000004
 31
0.0
  0
LINE
  5
C7
  8
0
 62
     7
 10
149.1399999999999
 20
98.794200000000004
 30
0.0
 11
149.732
 21
101.0059999999999
 31
0.0
  0
LINE
  5
C8
  8
0
 62
     7
 10
149.732
 20
101.0059999999999
 30
0.0
 11
148.547
 21
101.0059999999999
 31
0.0
  0
LINE
  5
C9
  8
0
 62
     7
 10
149.12499999999989
 20
108.7939999999999
 30
0.0
 11
149.12499999999989
 21
98.794600000000017
 31
0.0
  0
LINE
  5
CA
  8
0
 62
     7
 10
112.2419999999999
 20
106.583
 30
0.0
 11
111.6489999999999
 21
108.7939999999999
 31
0.0
  0
LINE
  5
CB
  8
0
 62
     7
 10
111.6489999999999
 20
108.7939999999999
 30
0.0
 11
111.0559999999999
 21
106.583
 31
0.0
  0
LINE
  5
CC
  8
0
 62
     7
 10
111.0559999999999
 20
106.583
 30
0.0
 11
112.2419999999999
 21
106.583
 31
0.0
  0
LINE
  5
CD
  8
0
 62
     7
 10
111.0559999999999
 20
95.006
 30
0.0
 11
111.6489999999999
 21
92.794200000000004
 31
0.0
  0
LINE
  5
CE
  8
0
 62
     7
 10
111.6489999999999
 20
92.794200000000004
 30
0.0
 11
112.2419999999999
 21
95.006
 31
0.0
  0
LINE
  5
CF
  8
0
 62
     7
 10
112.2419999999999
 20
95.006
 30
0.0
 11
111.0559999999999
 21
95.006
 31
0.0
  0
LINE
  5
D0
  8
0
 62
     7
 10
111.6489999999999
 20
108.7939999999999
 30
0.0
 11
111.6489999999999
 21
92.794200000000004
 31
0.0
  0
LINE
  5
D1
  8
0
 62
     7
 10
105.32299999999989
 20
106.583
 30
0.0
 11
104.73099999999999
 21
108.7939999999999
 31
0.0
  0
LINE
  5
D2
  8
0
 62
     7
 10
104.73099999999999
 20
108.7939999999999
 30
0.0
 11
104.13799999999991
 21
106.583
 31
0.0
  0
LINE
  5
D3
  8
0
 62
     7
 10
104.13799999999991
 20
106.583
 30
0.0
 11
105.32299999999989
 21
106.583
 31
0.0
  0
LINE
  5
D4
  8
0
 62
     7
 10
104.15299999999991
 20
99.006100000000004
 30
0.0
 11
104.74499999999991
 21
96.794399999999996
 31
0.0
  0
LINE
  5
D5
  8
0
 62
     7
 10
104.74499999999991
 20
96.794399999999996
 30
0.0
 11
105.33799999999989
 21
99.006100000000004
 31
0.0
  0
LINE
  5
D6
  8
0
 62
     7
 10
105.33799999999989
 20
99.006100000000004
 30
0.0
 11
104.15299999999991
 21
99.006100000000004
 31
0.0
  0
LINE
  5
D7
  8
0
 62
     7
 10
104.73099999999999
 20
108.7939999999999
 30
0.0
 11
104.73099999999999
 21
96.79470000000002
 31
0.0
  0
LINE
  5
D8
  8
0
 62
     7
 10
98.757599999999996
 20
95.082099999999997
 30
0.0
 11
98.165000000000006
 21
97.294200000000004
 31
0.0
  0
LINE
  5
D9
  8
0
 62
     7
 10
98.165000000000006
 20
97.294200000000004
 30
0.0
 11
97.572400000000016
 21
95.082099999999997
 31
0.0
  0
LINE
  5
DA
  8
0
 62
     7
 10
97.572400000000016
 20
95.082099999999997
 30
0.0
 11
98.757599999999996
 21
95.082099999999997
 31
0.0
  0
LINE
  5
DB
  8
0
 62
     7
 10
97.586900000000014
 20
100.5049999999999
 30
0.0
 11
98.179500000000004
 21
98.293700000000001
 31
0.0
  0
LINE
  5
DC
  8
0
 62
     7
 10
98.179500000000004
 20
98.293700000000001
 30
0.0
 11
98.772000000000006
 21
100.5049999999999
 31
0.0
  0
LINE
  5
DD
  8
0
 62
     7
 10
98.772000000000006
 20
100.5049999999999
 30
0.0
 11
97.586900000000014
 21
100.5049999999999
 31
0.0
  0
LINE
  5
DE
  8
0
 62
     7
 10
98.165000000000006
 20
103.89399999999991
 30
0.0
 11
98.165000000000006
 21
94.366900000000001
 31
0.0
  0
LINE
  5
DF
  8
0
 62
     7
 10
170.36799999999999
 20
118.1159999999999
 30
0.0
 11
172.58000000000001
 21
118.7079999999999
 31
0.0
  0
LINE
  5
E0
  8
0
 62
     7
 10
172.58000000000001
 20
118.7079999999999
 30
0.0
 11
170.36799999999999
 21
119.301
 31
0.0
  0
LINE
  5
E1
  8
0
 62
     7
 10
170.36799999999999
 20
119.301
 30
0.0
 11
170.36799999999999
 21
118.1159999999999
 31
0.0
  0
LINE
  5
E2
  8
0
 62
     7
 10
153.31999999999991
 20
119.286
 30
0.0
 11
151.10900000000001
 21
118.694
 31
0.0
  0
LINE
  5
E3
  8
0
 62
     7
 10
151.10900000000001
 20
118.694
 30
0.0
 11
153.31999999999991
 21
118.101
 31
0.0
  0
LINE
  5
E4
  8
0
 62
     7
 10
153.31999999999991
 20
118.101
 30
0.0
 11
153.31999999999991
 21
119.286
 31
0.0
  0
LINE
  5
E5
  8
0
 62
     7
 10
172.58000000000001
 20
118.7079999999999
 30
0.0
 11
151.10900000000001
 21
118.7079999999999
 31
0.0
  0
LINE
  5
E6
  8
0
 62
     7
 10
159.40100000000001
 20
80.691199999999995
 30
0.0
 11
161.613
 21
81.283799999999985
 31
0.0
  0
LINE
  5
E7
  8
0
 62
     7
 10
161.613
 20
81.283799999999985
 30
0.0
 11
159.40100000000001
 21
81.876300000000001
 31
0.0
  0
LINE
  5
E8
  8
0
 62
     7
 10
159.40100000000001
 20
81.876300000000001
 30
0.0
 11
159.40100000000001
 21
80.691199999999995
 31
0.0
  0
LINE
  5
E9
  8
0
 62
     7
 10
136.99700000000001
 20
92.707400000000007
 30
0.0
 11
137.119
 21
94.994299999999996
 31
0.0
  0
LINE
  5
EA
  8
0
 62
     7
 10
137.119
 20
94.994299999999996
 30
0.0
 11
135.87100000000001
 21
93.074700000000007
 31
0.0
  0
LINE
  5
EB
  8
0
 62
     7
 10
135.87100000000001
 20
93.074700000000007
 30
0.0
 11
136.99700000000001
 21
92.707400000000007
 31
0.0
  0
LINE
  5
EC
  8
0
 62
     7
 10
132.613
 20
81.168300000000002
 30
0.0
 11
137.119
 21
94.994299999999996
 31
0.0
  0
LINE
  5
ED
  8
0
 62
     7
 10
142.8239999999999
 20
81.861800000000002
 30
0.0
 11
140.61199999999999
 21
81.269299999999987
 31
0.0
  0
LINE
  5
EE
  8
0
 62
     7
 10
140.61199999999999
 20
81.269299999999987
 30
0.0
 11
142.8239999999999
 21
80.676699999999997
 31
0.0
  0
LINE
  5
EF
  8
0
 62
     7
 10
142.8239999999999
 20
80.676699999999997
 30
0.0
 11
142.8239999999999
 21
81.861800000000002
 31
0.0
  0
LINE
  5
F0
  8
0
 62
     7
 10
132.613
 20
81.168300000000002
 30
0.0
 11
117.691
 21
81.168300000000002
 31
0.0
  0
LINE
  5
F1
  8
0
 62
     7
 10
161.61199999999999
 20
81.283799999999985
 30
0.0
 11
140.61199999999999
 21
81.283799999999985
 31
0.0
  0
LINE
  5
F2
  8
0
 62
     7
 10
77.141300000000001
 20
80.691199999999995
 30
0.0
 11
79.353099999999998
 21
81.283799999999985
 31
0.0
  0
LINE
  5
F3
  8
0
 62
     7
 10
79.353099999999998
 20
81.283799999999985
 30
0.0
 11
77.141300000000001
 21
81.876300000000001
 31
0.0
  0
LINE
  5
F4
  8
0
 62
     7
 10
77.141300000000001
 20
81.876300000000001
 30
0.0
 11
77.141300000000001
 21
80.691199999999995
 31
0.0
  0
LINE
  5
F5
  8
0
 62
     7
 10
51.564599999999999
 20
81.861800000000002
 30
0.0
 11
49.352899999999998
 21
81.269299999999987
 31
0.0
  0
LINE
  5
F6
  8
0
 62
     7
 10
49.352899999999998
 20
81.269299999999987
 30
0.0
 11
51.564599999999999
 21
80.676699999999997
 31
0.0
  0
LINE
  5
F7
  8
0
 62
     7
 10
51.564599999999999
 20
80.676699999999997
 30
0.0
 11
51.564599999999999
 21
81.861800000000002
 31
0.0
  0
LINE
  5
F8
  8
0
 62
     7
 10
79.352800000000002
 20
81.283799999999985
 30
0.0
 11
49.353200000000001
 21
81.283799999999985
 31
0.0
  0
LINE
  5
F9
  8
0
 62
     7
 10
79.353300000000004
 20
80.569199999999995
 30
0.0
 11
79.353300000000004
 21
96.282399999999996
 31
0.0
  0
LINE
  5
FA
  8
0
 62
     7
 10
49.353200000000001
 20
80.569199999999995
 30
0.0
 11
49.353200000000001
 21
96.282399999999996
 31
0.0
  0
LINE
  5
FB
  8
0
 62
     7
 10
58.605400000000003
 20
185.06700000000001
 30
0.0
 11
52.820399999999999
 21
185.06700000000001
 31
0.0
  0
LINE
  5
FC
  8
0
 62
     7
 10
67.502600000000001
 20
176.84099999999989
 30
0.0
 11
65.917199999999994
 21
177.75599999999989
 31
0.0
  0
LINE
  5
FD
  8
0
 62
     7
 10
65.917199999999994
 20
177.75599999999989
 30
0.0
 11
66.832300000000004
 21
176.17099999999991
 31
0.0
  0
LINE
  5
FE
  8
0
 62
     7
 10
66.832300000000004
 20
176.17099999999991
 30
0.0
 11
67.502600000000001
 21
176.84099999999989
 31
0.0
  0
LINE
  5
FF
  8
0
 62
     7
 10
61.083799999999997
 20
181.91800000000001
 30
0.0
 11
62.6691
 21
181.0029999999999
 31
0.0
  0
LINE
  5
100
  8
0
 62
     7
 10
62.6691
 20
181.0029999999999
 30
0.0
 11
61.753700000000002
 21
182.589
 31
0.0
  0
LINE
  5
101
  8
0
 62
     7
 10
61.753700000000002
 20
182.589
 30
0.0
 11
61.083799999999997
 21
181.91800000000001
 31
0.0
  0
LINE
  5
102
  8
0
 62
     7
 10
58.605400000000003
 20
185.06700000000001
 30
0.0
 11
67.827500000000001
 21
175.845
 31
0.0
  0
LINE
  5
103
  8
0
 62
     7
 10
116.93600000000001
 20
198.72900000000001
 30
0.0
 11
116.34399999999999
 21
200.94099999999989
 31
0.0
  0
LINE
  5
104
  8
0
 62
     7
 10
116.34399999999999
 20
200.94099999999989
 30
0.0
 11
115.751
 21
198.72900000000001
 31
0.0
  0
LINE
  5
105
  8
0
 62
     7
 10
115.751
 20
198.72900000000001
 30
0.0
 11
116.93600000000001
 21
198.72900000000001
 31
0.0
  0
LINE
  5
106
  8
0
 62
     7
 10
115.76600000000001
 20
160.15299999999991
 30
0.0
 11
116.3579999999999
 21
157.941
 31
0.0
  0
LINE
  5
107
  8
0
 62
     7
 10
116.3579999999999
 20
157.941
 30
0.0
 11
116.95099999999999
 21
160.15299999999991
 31
0.0
  0
LINE
  5
108
  8
0
 62
     7
 10
116.95099999999999
 20
160.15299999999991
 30
0.0
 11
115.76600000000001
 21
160.15299999999991
 31
0.0
  0
LINE
  5
109
  8
0
 62
     7
 10
116.34399999999999
 20
200.94099999999989
 30
0.0
 11
116.34399999999999
 21
157.941
 31
0.0
  0
LINE
  5
10A
  8
0
 62
     7
 10
109.93600000000001
 20
196.72900000000001
 30
0.0
 11
109.34399999999989
 21
198.94099999999989
 31
0.0
  0
LINE
  5
10B
  8
0
 62
     7
 10
109.34399999999989
 20
198.94099999999989
 30
0.0
 11
108.75099999999991
 21
196.72900000000001
 31
0.0
  0
LINE
  5
10C
  8
0
 62
     7
 10
108.75099999999991
 20
196.72900000000001
 30
0.0
 11
109.93600000000001
 21
196.72900000000001
 31
0.0
  0
LINE
  5
10D
  8
0
 62
     7
 10
108.765
 20
162.15299999999991
 30
0.0
 11
109.358
 21
159.94099999999989
 31
0.0
  0
LINE
  5
10E
  8
0
 62
     7
 10
109.358
 20
159.94099999999989
 30
0.0
 11
109.95099999999999
 21
162.15299999999991
 31
0.0
  0
LINE
  5
10F
  8
0
 62
     7
 10
109.95099999999999
 20
162.15299999999991
 30
0.0
 11
108.765
 21
162.15299999999991
 31
0.0
  0
LINE
  5
110
  8
0
 62
     7
 10
109.34399999999989
 20
198.94099999999989
 30
0.0
 11
109.34399999999989
 21
159.94099999999989
 31
0.0
  0
LINE
  5
111
  8
0
 62
     7
 10
93.641900000000007
 20
137.90600000000001
 30
0.0
 11
95.853700000000003
 21
138.49899999999991
 31
0.0
  0
LINE
  5
112
  8
0
 62
     7
 10
95.853700000000003
 20
138.49899999999991
 30
0.0
 11
93.641900000000007
 21
139.09200000000001
 31
0.0
  0
LINE
  5
113
  8
0
 62
     7
 10
93.641900000000007
 20
139.09200000000001
 30
0.0
 11
93.641900000000007
 21
137.90600000000001
 31
0.0
  0
LINE
  5
114
  8
0
 62
     7
 10
35.065100000000001
 20
139.077
 30
0.0
 11
32.853299999999997
 21
138.48500000000001
 31
0.0
  0
LINE
  5
115
  8
0
 62
     7
 10
32.853299999999997
 20
138.48500000000001
 30
0.0
 11
35.065100000000001
 21
137.89199999999991
 31
0.0
  0
LINE
  5
116
  8
0
 62
     7
 10
35.065100000000001
 20
137.89199999999991
 30
0.0
 11
35.065100000000001
 21
139.077
 31
0.0
  0
LINE
  5
117
  8
0
 62
     7
 10
95.853499999999997
 20
138.49899999999991
 30
0.0
 11
32.853700000000003
 21
138.49899999999991
 31
0.0
  0
LINE
  5
118
  8
0
 62
     7
 10
91.641799999999989
 20
144.90600000000001
 30
0.0
 11
93.8536
 21
145.499
 31
0.0
  0
LINE
  5
119
  8
0
 62
     7
 10
93.8536
 20
145.499
 30
0.0
 11
91.641799999999989
 21
146.09200000000001
 31
0.0
  0
LINE
  5
11A
  8
0
 62
     7
 10
91.641799999999989
 20
146.09200000000001
 30
0.0
 11
91.641799999999989
 21
144.90600000000001
 31
0.0
  0
LINE
  5
11B
  8
0
 62
     7
 10
37.06519999999999
 20
146.07699999999991
 30
0.0
 11
34.853400000000001
 21
145.48500000000001
 31
0.0
  0
LINE
  5
11C
  8
0
 62
     7
 10
34.853400000000001
 20
145.48500000000001
 30
0.0
 11
37.06519999999999
 21
144.892
 31
0.0
  0
LINE
  5
11D
  8
0
 62
     7
 10
37.06519999999999
 20
144.892
 30
0.0
 11
37.06519999999999
 21
146.07699999999991
 31
0.0
  0
LINE
  5
11E
  8
0
 62
     7
 10
93.853399999999993
 20
145.499
 30
0.0
 11
34.853700000000003
 21
145.499
 31
0.0
  0
LINE
  5
11F
  8
0
 62
     7
 10
93.8536
 20
144.78399999999999
 30
0.0
 11
93.8536
 21
174.685
 31
0.0
  0
LINE
  5
120
  8
0
 62
     7
 10
95.853700000000003
 20
137.785
 30
0.0
 11
95.853700000000003
 21
174.54099999999991
 31
0.0
  0
LINE
  5
121
  8
0
 62
     7
 10
105.44499999999989
 20
96.794399999999996
 30
0.0
 11
83.707400000000007
 21
96.794399999999996
 31
0.0
  0
LINE
  5
122
  8
0
 62
     7
 10
112.3489999999999
 20
108.7939999999999
 30
0.0
 11
96.6858
 21
108.7939999999999
 31
0.0
  0
LINE
  5
123
  8
0
 62
     7
 10
98.864999999999995
 20
97.794499999999999
 30
0.0
 11
80.821799999999996
 21
97.794499999999999
 31
0.0
  0
LINE
  5
124
  8
0
 62
     7
 10
172.58000000000001
 20
109.59699999999999
 30
0.0
 11
172.58000000000001
 21
119.39400000000001
 31
0.0
  0
LINE
  5
125
  8
0
 62
     7
 10
151.10900000000001
 20
111.375
 30
0.0
 11
151.10900000000001
 21
119.39400000000001
 31
0.0
  0
LINE
  5
126
  8
0
 62
     7
 10
161.613
 20
80.583699999999993
 30
0.0
 11
161.613
 21
96.282399999999996
 31
0.0
  0
LINE
  5
127
  8
0
 62
     7
 10
140.61199999999999
 20
80.583699999999993
 30
0.0
 11
140.61199999999999
 21
96.282399999999996
 31
0.0
  0
LINE
  5
128
  8
0
 62
     7
 10
34.853400000000001
 20
144.78399999999999
 30
0.0
 11
34.853400000000001
 21
174.685
 31
0.0
  0
LINE
  5
129
  8
0
 62
     7
 10
32.853299999999997
 20
137.785
 30
0.0
 11
32.853299999999997
 21
174.54099999999991
 31
0.0
  0
LINE
  5
12A
  8
0
 62
     7
 10
151.10900000000001
 20
91.7941
 30
0.0
 11
159.9439999999999
 21
91.7941
 31
0.0
  0
ARC
  5
12B
  8
0
 62
     7
 10
159.93780100000001
 20
91.999677000000005
 30
0.0
 40
0.205667
 50
271.83661899999993
 51
353.49089700000002
  0
LINE
  5
12C
  8
0
 62
     7
 10
160.142
 20
91.976399999999984
 30
0.0
 11
160.59100000000001
 21
94.403400000000005
 31
0.0
  0
ARC
  5
12D
  8
0
 62
     7
 10
161.051072
 20
94.36291700000001
 30
0.0
 40
0.4621570000000001
 50
134.20471099999989
 51
174.96874199999991
  0
LINE
  5
12E
  8
0
 62
     7
 10
161.10900000000001
 20
94.994299999999996
 30
0.0
 11
161.10900000000001
 21
94.694199999999995
 31
0.0
  0
LINE
  5
12F
  8
0
 62
     7
 10
151.10900000000001
 20
94.694199999999995
 30
0.0
 11
161.10900000000001
 21
94.694199999999995
 31
0.0
  0
LINE
  5
130
  8
0
 62
     7
 10
151.10900000000001
 20
94.994299999999996
 30
0.0
 11
161.10900000000001
 21
94.994299999999996
 31
0.0
  0
LINE
  5
131
  8
0
 62
     7
 10
151.10900000000001
 20
108.7939999999999
 30
0.0
 11
171.98500000000001
 21
108.7939999999999
 31
0.0
  0
ARC
  5
132
  8
0
 62
     7
 10
171.97467700000001
 20
105.727593
 30
0.0
 40
3.0668150000000001
 50
83.509945999999985
 51
89.812119999999993
  0
ARC
  5
133
  8
0
 62
     7
 10
172.2684229999999
 20
108.4712399999999
 30
0.0
 40
0.30809
 50
14.307529000000001
 51
80.113682999999995
  0
ARC
  5
134
  8
0
 62
     7
 10
171.97136499999991
 20
108.3161129999999
 30
0.0
 40
0.638915
 50
342.30401599999988
 51
21.220764999999989
  0
LINE
  5
135
  8
0
 62
     7
 10
172.58000000000001
 20
108.122
 30
0.0
 11
172.56599999999989
 21
108.074
 31
0.0
  0
ARC
  5
136
  8
0
 62
     7
 10
161.90418399999999
 20
97.532131000000007
 30
0.0
 40
0.269623
 50
103.342375
 51
155.86290099999991
  0
ARC
  5
137
  8
0
 62
     7
 10
162.15302199999991
 20
97.371980000000008
 30
0.0
 40
0.563945
 50
151.34789599999999
 51
180.40726100000001
  0
LINE
  5
138
  8
0
 62
     7
 10
161.589
 20
97.367999999999995
 30
0.0
 11
161.57099999999991
 21
96.982500000000016
 31
0.0
  0
ARC
  5
139
  8
0
 62
     7
 10
161.3600209999999
 20
96.991530000000026
 30
0.0
 40
0.21135
 50
291.10619400000002
 51
357.54099699999989
  0
LINE
  5
13A
  8
0
 62
     7
 10
161.43600000000001
 20
96.794399999999996
 30
0.0
 11
151.10900000000001
 21
96.794399999999996
 31
0.0
  0
LINE
  5
13B
  8
0
 62
     7
 10
151.10900000000001
 20
97.794499999999999
 30
0.0
 11
161.84200000000001
 21
97.794499999999999
 31
0.0
  0
LINE
  5
13C
  8
0
  6
AIGENLINE001
 62
     7
 10
142.96600000000001
 20
96.794399999999996
 30
0.0
 11
143.06
 21
92.794200000000004
 31
0.0
  0
ARC
  5
13D
  8
0
  6
AIGENLINE001
 62
     7
 10
160.92021800000001
 20
115.85251100000001
 30
0.0
 40
11.971548
 50
320.83409
 51
323.87318199999987
  0
ARC
  5
13E
  8
0
  6
AIGENLINE001
 62
     7
 10
145.2749729999999
 20
128.27742900000001
 30
0.0
 40
31.949767999999999
 50
303.45798600000001
 51
321.27838199999991
  0
ARC
  5
13F
  8
0
  6
AIGENLINE001
 62
     7
 10
151.66938200000001
 20
119.136411
 30
0.0
 40
20.800198999999989
 50
289.63165099999992
 51
302.64502799999991
  0
ARC
  5
140
  8
0
  6
AIGENLINE001
 62
     7
 10
153.80775099999991
 20
113.7022629999999
 30
0.0
 40
14.96468
 50
274.987773
 51
288.91049099999998
  0
ARC
  5
141
  8
0
  6
AIGENLINE001
 62
     7
 10
142.11857000000001
 20
116.48584099999989
 30
0.0
 40
13.023982
 50
216.19680699999989
 51
219.29638799999989
  0
ARC
  5
142
  8
0
  6
AIGENLINE001
 62
     7
 10
156.952934
 20
128.31089299999999
 30
0.0
 40
31.994115999999991
 50
218.85960099999991
 51
236.53055099999989
  0
ARC
  5
143
  8
0
  6
AIGENLINE001
 62
     7
 10
150.52872500000001
 20
119.136411
 30
0.0
 40
20.800198999999989
 50
237.35499100000001
 51
250.36836899999989
  0
ARC
  5
144
  8
0
  6
AIGENLINE001
 62
     7
 10
148.39035599999991
 20
113.7022629999999
 30
0.0
 40
14.96468
 50
251.089529
 51
265.01224699999989
  0
LINE
  5
145
  8
0
  6
AIGENLINE003
 62
     7
 10
138.26899999999989
 20
104.2939999999999
 30
0.0
 11
133.17699999999999
 21
104.2939999999999
 31
0.0
  0
ARC
  5
146
  8
0
 62
     7
 10
168.16650300000001
 20
110.040952
 30
0.0
 40
4.8127059999999986
 50
331.74629199999998
 51
336.50018599999999
  0
ARC
  5
147
  8
0
 62
     7
 10
159.1012639999999
 20
114.7106669999999
 30
0.0
 40
15.009501
 50
324.77351399999998
 51
332.42543399999988
  0
ARC
  5
148
  8
0
 62
     7
 10
151.980628
 20
119.5506409999999
 30
0.0
 40
23.618438999999999
 50
309.920614
 51
325.146097
  0
ARC
  5
149
  8
0
 62
     7
 10
147.29623599999999
 20
124.61105499999999
 30
0.0
 40
30.507490999999991
 50
298.47609499999999
 51
310.56898999999993
  0
ARC
  5
14A
  8
0
 62
     7
 10
134.05089699999991
 20
110.040952
 30
0.0
 40
4.8127059999999986
 50
203.49983399999999
 51
208.25372699999991
  0
ARC
  5
14B
  8
0
 62
     7
 10
143.11613500000001
 20
114.7106669999999
 30
0.0
 40
15.009501
 50
207.57458600000001
 51
215.226506
  0
ARC
  5
14C
  8
0
 62
     7
 10
150.236772
 20
119.5506409999999
 30
0.0
 40
23.618438999999999
 50
214.85392300000001
 51
230.07940600000001
  0
ARC
  5
14D
  8
0
 62
     7
 10
154.92116399999989
 20
124.61105499999999
 30
0.0
 40
30.507490999999991
 50
229.43102999999991
 51
241.52392499999999
  0
LINE
  5
14E
  8
0
 62
     7
 10
64.353399999999993
 20
108.7939999999999
 30
0.0
 11
94.935699999999997
 21
108.7939999999999
 31
0.0
  0
ARC
  5
14F
  8
0
 62
     7
 10
94.921372000000005
 20
102.18684
 30
0.0
 40
6.6075669999999986
 50
85.579891000000003
 51
89.877084999999994
  0
ARC
  5
150
  8
0
 62
     7
 10
95.388776000000007
 20
108.3079879999999
 30
0.0
 40
0.4686370000000001
 50
30.718349
 51
84.878569999999996
  0
ARC
  5
151
  8
0
 62
     7
 10
95.384570999999994
 20
108.3157439999999
 30
0.0
 40
0.468373
 50
335.55260299999998
 51
29.639894000000002
  0
ARC
  5
152
  8
0
 62
     7
 10
79.786434
 20
97.350531000000004
 30
0.0
 40
0.450889
 50
100.0680279999999
 51
177.78327400000001
  0
LINE
  5
153
  8
0
 62
     7
 10
79.335899999999995
 20
97.367999999999995
 30
0.0
 11
79.309200000000004
 21
96.982500000000016
 31
0.0
  0
ARC
  5
154
  8
0
 62
     7
 10
79.103948000000003
 20
97.000251000000006
 30
0.0
 40
0.206004
 50
271.89057100000002
 51
355.04622399999988
  0
LINE
  5
155
  8
0
 62
     7
 10
79.110699999999994
 20
96.794399999999996
 30
0.0
 11
64.353399999999993
 21
96.794399999999996
 31
0.0
  0
LINE
  5
156
  8
0
 62
     7
 10
64.353399999999993
 20
97.794499999999999
 30
0.0
 11
79.707599999999999
 21
97.794499999999999
 31
0.0
  0
ARC
  5
157
  8
0
  6
AIGENLINE001
 62
     7
 10
86.734048999999985
 20
112.429106
 30
0.0
 40
7.9932410000000003
 50
312.60999299999997
 51
332.95285699999988
  0
ARC
  5
158
  8
0
  6
AIGENLINE001
 62
     7
 10
83.379722000000015
 20
115.77206200000001
 30
0.0
 40
12.72613999999999
 50
304.58242799999999
 51
313.53532300000001
  0
ARC
  5
159
  8
0
  6
AIGENLINE001
 62
     7
 10
82.894019999999998
 20
116.2651629999999
 30
0.0
 40
13.408332
 50
297.893574
 51
305.09522900000002
  0
ARC
  5
15A
  8
0
  6
AIGENLINE001
 62
     7
 10
75.574282999999994
 20
129.583281
 30
0.0
 40
28.604520000000001
 50
290.52374400000002
 51
298.371691
  0
ARC
  5
15B
  8
0
  6
AIGENLINE001
 62
     7
 10
62.949206999999987
 20
161.26485099999991
 30
0.0
 40
62.705551
 50
274.96144900000002
 51
291.17827199999999
  0
ARC
  5
15C
  8
0
  6
AIGENLINE001
 62
     7
 10
44.557171999999987
 20
113.736923
 30
0.0
 40
10.890148999999999
 50
206.99120199999999
 51
218.76465699999989
  0
ARC
  5
15D
  8
0
  6
AIGENLINE001
 62
     7
 10
42.866007000000003
 20
112.60817400000001
 30
0.0
 40
8.8665729999999972
 50
219.91990299999989
 51
235.5742589999999
  0
ARC
  5
15E
  8
0
  6
AIGENLINE001
 62
     7
 10
45.562345000000001
 20
116.2651629999999
 30
0.0
 40
13.408332
 50
234.90479099999999
 51
242.10644500000001
  0
ARC
  5
15F
  8
0
  6
AIGENLINE001
 62
     7
 10
52.88208199999999
 20
129.583281
 30
0.0
 40
28.604520000000001
 50
241.62832899999989
 51
249.4762759999999
  0
ARC
  5
160
  8
0
  6
AIGENLINE001
 62
     7
 10
65.329483999999994
 20
160.81946799999989
 30
0.0
 40
62.226061000000001
 50
248.82614000000001
 51
265.39536699999991
  0
ARC
  5
161
  8
0
 62
     7
 10
93.783411999999984
 20
108.724462
 30
0.0
 40
2.1151800000000001
 50
336.170502
 51
343.44876399999998
  0
ARC
  5
162
  8
0
 62
     7
 10
89.503756999999993
 20
110.4920169999999
 30
0.0
 40
6.7450559999999991
 50
325.98816799999997
 51
337.123425
  0
ARC
  5
163
  8
0
 62
     7
 10
85.133080000000007
 20
113.2778679999999
 30
0.0
 40
11.927082
 50
313.31218699999999
 51
326.63932999999992
  0
ARC
  5
164
  8
0
 62
     7
 10
80.636565999999988
 20
117.710712
 30
0.0
 40
18.238489000000001
 50
303.73367899999988
 51
314.03780199999989
  0
ARC
  5
165
  8
0
 62
     7
 10
76.045201000000006
 20
124.22851900000001
 30
0.0
 40
26.20937
 50
295.66586799999988
 51
304.16816999999998
  0
ARC
  5
166
  8
0
 62
     7
 10
71.054374999999993
 20
134.137079
 30
0.0
 40
37.302515
 50
288.40025800000001
 51
295.983496
  0
ARC
  5
167
  8
0
 62
     7
 10
66.563507000000001
 20
146.72702200000001
 30
0.0
 40
50.667164
 50
285.03569099999999
 51
288.72505000000001
  0
ARC
  5
168
  8
0
 62
     7
 10
34.922459000000003
 20
108.724279
 30
0.0
 40
2.1145439999999991
 50
196.55121199999999
 51
203.83171799999991
  0
ARC
  5
169
  8
0
 62
     7
 10
39.20153599999999
 20
110.4913449999999
 30
0.0
 40
6.7436959999999999
 50
202.875272
 51
214.01275899999999
  0
ARC
  5
16A
  8
0
 62
     7
 10
43.574187000000002
 20
113.278549
 30
0.0
 40
11.928114000000001
 50
213.36134599999991
 51
226.68734699999999
  0
ARC
  5
16B
  8
0
 62
     7
 10
48.068965999999989
 20
117.7094749999999
 30
0.0
 40
18.236937000000001
 50
225.96167299999991
 51
236.266649
  0
ARC
  5
16C
  8
0
 62
     7
 10
52.662176000000002
 20
124.23011799999991
 30
0.0
 40
26.211200000000002
 50
235.83218099999999
 51
244.333899
  0
ARC
  5
16D
  8
0
 62
     7
 10
57.652105000000013
 20
134.137079
 30
0.0
 40
37.302515
 50
244.016524
 51
251.59976199999991
  0
ARC
  5
16E
  8
0
 62
     7
 10
62.142972999999998
 20
146.72702200000001
 30
0.0
 40
50.667164
 50
251.27497
 51
254.96432899999999
  0
LINE
  5
16F
  8
0
 62
     7
 10
151.10900000000001
 20
91.7941
 30
0.0
 11
142.273
 21
91.7941
 31
0.0
  0
ARC
  5
170
  8
0
 62
     7
 10
142.27941200000001
 20
91.999473999999992
 30
0.0
 40
0.205458
 50
186.45881799999989
 51
268.213706
  0
LINE
  5
171
  8
0
 62
     7
 10
142.0749999999999
 20
91.976399999999984
 30
0.0
 11
141.62700000000001
 21
94.403400000000005
 31
0.0
  0
ARC
  5
172
  8
0
 62
     7
 10
141.16632799999991
 20
94.36291700000001
 30
0.0
 40
0.4621570000000001
 50
5.0312380000000001
 51
45.795268999999998
  0
LINE
  5
173
  8
0
 62
     7
 10
141.10900000000001
 20
94.994299999999996
 30
0.0
 11
141.10900000000001
 21
94.694199999999995
 31
0.0
  0
LINE
  5
174
  8
0
 62
     7
 10
151.10900000000001
 20
94.694199999999995
 30
0.0
 11
141.10900000000001
 21
94.694199999999995
 31
0.0
  0
LINE
  5
175
  8
0
 62
     7
 10
151.10900000000001
 20
94.994299999999996
 30
0.0
 11
141.10900000000001
 21
94.994299999999996
 31
0.0
  0
LINE
  5
176
  8
0
  6
AIGENLINE003
 62
     7
 10
159.4079999999999
 20
93.031599999999997
 30
0.0
 11
159.4079999999999
 21
88.541899999999998
 31
0.0
  0
LINE
  5
177
  8
0
 62
     7
 10
159.108
 20
90.094300000000004
 30
0.0
 11
159.108
 21
91.594300000000004
 31
0.0
  0
LINE
  5
178
  8
0
 62
     7
 10
159.108
 20
90.094300000000004
 30
0.0
 11
159.4079999999999
 21
90.094300000000004
 31
0.0
  0
LINE
  5
179
  8
0
 62
     7
 10
158.93299999999991
 20
91.594300000000004
 30
0.0
 11
158.93299999999991
 21
91.7941
 31
0.0
  0
LINE
  5
17A
  8
0
 62
     7
 10
158.93299999999991
 20
91.594300000000004
 30
0.0
 11
159.4079999999999
 21
91.594300000000004
 31
0.0
  0
LINE
  5
17B
  8
0
 62
     7
 10
159.8829999999999
 20
91.594300000000004
 30
0.0
 11
159.8829999999999
 21
91.7941
 31
0.0
  0
LINE
  5
17C
  8
0
 62
     7
 10
159.8829999999999
 20
91.594300000000004
 30
0.0
 11
159.4079999999999
 21
91.594300000000004
 31
0.0
  0
LINE
  5
17D
  8
0
 62
     7
 10
159.708
 20
90.094300000000004
 30
0.0
 11
159.708
 21
91.594300000000004
 31
0.0
  0
LINE
  5
17E
  8
0
 62
     7
 10
159.708
 20
90.094300000000004
 30
0.0
 11
159.4079999999999
 21
90.094300000000004
 31
0.0
  0
LINE
  5
17F
  8
0
  6
AIGENLINE003
 62
     7
 10
146.60900000000001
 20
93.031599999999997
 30
0.0
 11
146.60900000000001
 21
88.541899999999998
 31
0.0
  0
LINE
  5
180
  8
0
  6
AIGENLINE003
 62
     7
 10
151.10900000000001
 20
109.8249999999999
 30
0.0
 11
151.10900000000001
 21
88.041999999999987
 31
0.0
  0
LINE
  5
181
  8
0
  6
AIGENLINE001
 62
     7
 10
159.76599999999991
 20
92.294300000000007
 30
0.0
 11
142.452
 21
92.294300000000007
 31
0.0
  0
LINE
  5
182
  8
0
  6
AIGENLINE001
 62
     7
 10
159.1579999999999
 20
92.794200000000004
 30
0.0
 11
143.06
 21
92.794200000000004
 31
0.0
  0
LINE
  5
183
  8
0
 62
     7
 10
151.10900000000001
 20
108.7939999999999
 30
0.0
 11
130.23299999999989
 21
108.7939999999999
 31
0.0
  0
ARC
  5
184
  8
0
 62
     7
 10
130.23271099999999
 20
105.8992149999999
 30
0.0
 40
2.895176999999999
 50
90.000844999999984
 51
96.677049999999994
  0
ARC
  5
185
  8
0
 62
     7
 10
129.9308429999999
 20
108.51284
 30
0.0
 40
0.264211
 50
97.560589000000007
 51
150.359814
  0
ARC
  5
186
  8
0
 62
     7
 10
130.1114509999999
 20
108.365407
 30
0.0
 40
0.495622
 50
145.8672389999999
 51
158.459722
  0
ARC
  5
187
  8
0
 62
     7
 10
130.24603400000001
 20
108.3161129999999
 30
0.0
 40
0.638915
 50
158.7791949999999
 51
197.696023
  0
LINE
  5
188
  8
0
 62
     7
 10
129.637
 20
108.122
 30
0.0
 11
129.65199999999999
 21
108.074
 31
0.0
  0
ARC
  5
189
  8
0
 62
     7
 10
140.320581
 20
97.559116000000003
 30
0.0
 40
0.241669
 50
48.393662999999997
 51
76.880199000000019
  0
ARC
  5
18A
  8
0
 62
     7
 10
140.22547399999991
 20
97.453491999999983
 30
0.0
 40
0.383799
 50
24.453811000000002
 51
48.247495000000001
  0
ARC
  5
18B
  8
0
 62
     7
 10
140.04455200000001
 20
97.368317000000005
 30
0.0
 40
0.583757
 50
359.96601199999998
 51
24.712911999999989
  0
LINE
  5
18C
  8
0
 62
     7
 10
140.6279999999999
 20
97.367999999999995
 30
0.0
 11
140.64599999999999
 21
96.982500000000016
 31
0.0
  0
ARC
  5
18D
  8
0
 62
     7
 10
140.85737800000001
 20
96.991530000000026
 30
0.0
 40
0.21135
 50
182.45902299999989
 51
248.8938259999999
  0
LINE
  5
18E
  8
0
 62
     7
 10
140.78100000000001
 20
96.794399999999996
 30
0.0
 11
151.10900000000001
 21
96.794399999999996
 31
0.0
  0
LINE
  5
18F
  8
0
 62
     7
 10
151.10900000000001
 20
97.794499999999999
 30
0.0
 11
140.375
 21
97.794499999999999
 31
0.0
  0
LINE
  5
190
  8
0
 62
     7
 10
146.90899999999999
 20
90.094300000000004
 30
0.0
 11
146.90899999999999
 21
91.594300000000004
 31
0.0
  0
LINE
  5
191
  8
0
 62
     7
 10
146.90899999999999
 20
90.094300000000004
 30
0.0
 11
146.60900000000001
 21
90.094300000000004
 31
0.0
  0
LINE
  5
192
  8
0
 62
     7
 10
147.084
 20
91.594300000000004
 30
0.0
 11
147.084
 21
91.7941
 31
0.0
  0
LINE
  5
193
  8
0
 62
     7
 10
147.084
 20
91.594300000000004
 30
0.0
 11
146.60900000000001
 21
91.594300000000004
 31
0.0
  0
LINE
  5
194
  8
0
 62
     7
 10
146.1339999999999
 20
91.594300000000004
 30
0.0
 11
146.1339999999999
 21
91.7941
 31
0.0
  0
LINE
  5
195
  8
0
 62
     7
 10
146.1339999999999
 20
91.594300000000004
 30
0.0
 11
146.60900000000001
 21
91.594300000000004
 31
0.0
  0
LINE
  5
196
  8
0
 62
     7
 10
146.309
 20
90.094300000000004
 30
0.0
 11
146.309
 21
91.594300000000004
 31
0.0
  0
LINE
  5
197
  8
0
 62
     7
 10
146.309
 20
90.094300000000004
 30
0.0
 11
146.60900000000001
 21
90.094300000000004
 31
0.0
  0
ARC
  5
198
  8
0
 62
     7
 10
63.613506000000008
 20
162.68733599999999
 30
0.0
 40
0.260062
 50
125.398962
 51
179.22815499999999
  0
ARC
  5
199
  8
0
 62
     7
 10
63.938009999999991
 20
162.34716399999991
 30
0.0
 40
0.728455
 50
113.602446
 51
130.71299499999989
  0
ARC
  5
19A
  8
0
 62
     7
 10
64.294886000000005
 20
161.52730399999999
 30
0.0
 40
1.62262
 50
87.932948999999994
 51
113.5586449999999
  0
ARC
  5
19B
  8
0
 62
     7
 10
64.354276999999996
 20
161.14811800000001
 30
0.0
 40
2.00075
 50
72.334874999999997
 51
90.024758000000006
  0
ARC
  5
19C
  8
0
 62
     7
 10
64.662883999999991
 20
162.16136099999991
 30
0.0
 40
0.9417329999999999
 50
55.521859000000013
 51
71.518546999999998
  0
ARC
  5
19D
  8
0
 62
     7
 10
65.005162999999996
 20
162.64218700000001
 30
0.0
 40
0.351748
 50
7.950486999999999
 51
57.145054000000009
  0
ARC
  5
19E
  8
0
 62
     7
 10
65.093498999999994
 20
162.694343
 30
0.0
 40
0.260055
 50
305.39668799999993
 51
359.22814899999997
  0
ARC
  5
19F
  8
0
 62
     7
 10
64.768991999999997
 20
163.034539
 30
0.0
 40
0.728466
 50
293.59978699999988
 51
310.71114999999992
  0
ARC
  5
1A0
  8
0
 62
     7
 10
64.412001000000004
 20
163.854772
 30
0.0
 40
1.623019
 50
267.93125199999997
 51
293.55590799999987
  0
ARC
  5
1A1
  8
0
 62
     7
 10
64.352549999999994
 20
164.2327129999999
 30
0.0
 40
1.9999020000000001
 50
252.33112
 51
270.02470899999992
  0
ARC
  5
1A2
  8
0
 62
     7
 10
64.044014000000004
 20
163.22004699999991
 30
0.0
 40
0.9414569999999999
 50
235.51725499999989
 51
251.51689400000001
  0
ARC
  5
1A3
  8
0
 62
     7
 10
63.701856000000006
 20
162.73950199999999
 30
0.0
 40
0.351771
 50
187.951581
 51
237.142224
  0
ARC
  5
1A4
  8
0
  6
AIGENLINE003
 62
     7
 10
64.353325999999996
 20
104.29429399999989
 30
0.0
 40
1.000032
 50
270.004954
 51
0.004925
  0
ARC
  5
1A5
  8
0
  6
AIGENLINE003
 62
     7
 10
64.353412000000006
 20
104.29437900000001
 30
0.0
 40
1.000116999999999
 50
179.99996999999991
 51
270.00002000000001
  0
ARC
  5
1A6
  8
0
  6
AIGENLINE003
 62
     7
 10
64.353413000000003
 20
104.29437900000001
 30
0.0
 40
1.0001180000000001
 50
90.0
 51
179.99996999999991
  0
ARC
  5
1A7
  8
0
  6
AIGENLINE003
 62
     7
 10
64.353325999999996
 20
104.294465
 30
0.0
 40
1.000032
 50
359.99507499999999
 51
89.995045999999988
  0
LINE
  5
1A8
  8
0
  6
AIGENLINE003
 62
     7
 10
64.353399999999993
 20
110.07299999999989
 30
0.0
 11
64.353399999999993
 21
88.434799999999996
 31
0.0
  0
LINE
  5
1A9
  8
0
  6
AIGENLINE003
 62
     7
 10
62.853400000000001
 20
104.2939999999999
 30
0.0
 11
65.853399999999993
 21
104.2939999999999
 31
0.0
  0
LINE
  5
1AA
  8
0
  6
AIGENLINE003
 62
     7
 10
140.322
 20
179.44099999999989
 30
0.0
 11
161.33600000000001
 21
179.44099999999989
 31
0.0
  0
LINE
  5
1AB
  8
0
  6
AIGENLINE003
 62
     7
 10
151.10900000000001
 20
190.178
 30
0.0
 11
151.10900000000001
 21
169.08199999999991
 31
0.0
  0
ARC
  5
1AC
  8
0
 62
     7
 10
151.10852600000001
 20
179.4408259999999
 30
0.0
 40
9.2503139999999995
 50
359.99894299999988
 51
89.998912999999988
  0
ARC
  5
1AD
  8
0
 62
     7
 10
151.10904600000001
 20
179.44099800000001
 30
0.0
 40
9.2501410000000011
 50
90.002133999999984
 51
180.0021439999999
  0
ARC
  5
1AE
  8
0
 62
     7
 10
151.10861199999999
 20
179.44073999999989
 30
0.0
 40
9.249708
 50
180.00054299999999
 51
270.00055299999991
  0
ARC
  5
1AF
  8
0
 62
     7
 10
151.108957
 20
179.4409149999999
 30
0.0
 40
9.2498830000000005
 50
269.99841900000001
 51
359.99838999999992
  0
LINE
  5
1B0
  8
0
  6
AIGENLINE003
 62
     7
 10
67.178399999999996
 20
162.691
 30
0.0
 11
61.298999999999999
 21
162.691
 31
0.0
  0
LINE
  5
1B1
  8
0
  6
AIGENLINE003
 62
     7
 10
31.853200000000001
 20
179.44099999999989
 30
0.0
 11
96.853600000000014
 21
179.44099999999989
 31
0.0
  0
LINE
  5
1B2
  8
0
  6
AIGENLINE003
 62
     7
 10
64.353399999999993
 20
203.97399999999999
 30
0.0
 11
64.353399999999993
 21
156.381
 31
0.0
  0
LINE
  5
1B3
  8
0
 62
     7
 10
64.352900000000005
 20
108.7939999999999
 30
0.0
 11
33.770800000000001
 21
108.7939999999999
 31
0.0
  0
ARC
  5
1B4
  8
0
 62
     7
 10
48.354826000000003
 20
179.4204159999999
 30
0.0
 40
13.501624
 50
151.21807999999999
 51
179.912632
  0
ARC
  5
1B5
  8
0
 62
     7
 10
51.856856999999998
 20
177.71424899999991
 30
0.0
 40
17.39353599999999
 50
134.36757299999991
 51
151.84647899999999
  0
ARC
  5
1B6
  8
0
 62
     7
 10
56.479773999999999
 20
173.385818
 30
0.0
 40
23.722041000000001
 50
121.0125409999999
 51
135.0392379999999
  0
ARC
  5
1B7
  8
0
 62
     7
 10
61.118741999999997
 20
166.2331879999999
 30
0.0
 40
32.243660999999989
 50
105.428758
 51
121.528983
  0
ARC
  5
1B8
  8
0
 62
     7
 10
64.061126000000002
 20
157.34692899999999
 30
0.0
 40
41.59514999999999
 50
89.597610999999986
 51
106.07927099999991
  0
ARC
  5
1B9
  8
0
 62
     7
 10
64.347276000000008
 20
155.722205
 30
0.0
 40
43.218848000000001
 50
71.004351999999983
 51
89.992082999999994
  0
ARC
  5
1BA
  8
0
 62
     7
 10
67.420086999999995
 20
165.8940429999999
 30
0.0
 40
32.603265999999991
 50
54.851151000000002
 51
70.291865000000001
  0
ARC
  5
1BB
  8
0
 62
     7
 10
72.613043000000005
 20
173.84225900000001
 30
0.0
 40
23.117087999999988
 50
40.110955999999987
 51
54.033863000000011
  0
ARC
  5
1BC
  8
0
 62
     7
 10
77.196815000000001
 20
177.9469409999999
 30
0.0
 40
16.967924
 50
22.040570999999989
 51
39.482652999999999
  0
ARC
  5
1BD
  8
0
 62
     7
 10
80.241180999999997
 20
179.37204299999999
 30
0.0
 40
13.612429000000001
 50
0.2902460000000001
 51
21.289165000000001
  0
ARC
  5
1BE
  8
0
 62
     7
 10
80.352677999999983
 20
179.46127899999991
 30
0.0
 40
13.500772
 50
331.2172240000001
 51
359.91393900000003
  0
ARC
  5
1BF
  8
0
 62
     7
 10
76.849039000000005
 20
181.1682769999999
 30
0.0
 40
17.394492
 50
314.36797300000001
 51
331.845932
  0
ARC
  5
1C0
  8
0
 62
     7
 10
72.227087999999995
 20
185.49588700000001
 30
0.0
 40
23.721733999999991
 50
301.0123549999999
 51
315.039267
  0
ARC
  5
1C1
  8
0
 62
     7
 10
67.585387999999995
 20
192.65507500000001
 30
0.0
 40
32.250371999999999
 50
285.43000699999988
 51
301.52690200000001
  0
ARC
  5
1C2
  8
0
 62
     7
 10
64.646146000000002
 20
201.53057100000001
 30
0.0
 40
41.590654999999991
 50
269.59649599999989
 51
286.08008699999988
  0
ARC
  5
1C3
  8
0
 62
     7
 10
64.359208999999993
 20
203.15986499999991
 30
0.0
 40
43.218918000000002
 50
251.00456299999999
 51
269.992096
  0
ARC
  5
1C4
  8
0
 62
     7
 10
61.286469999999987
 20
192.987798
 30
0.0
 40
32.603144
 50
234.851191
 51
250.291887
  0
ARC
  5
1C5
  8
0
 62
     7
 10
56.091299999999997
 20
185.03716
 30
0.0
 40
23.113705
 50
220.10988699999999
 51
234.03482199999999
  0
ARC
  5
1C6
  8
0
 62
     7
 10
51.508443
 20
180.93415200000001
 30
0.0
 40
16.966317
 50
202.039681
 51
219.48346000000001
  0
ARC
  5
1C7
  8
0
 62
     7
 10
48.466771999999999
 20
179.51013599999999
 30
0.0
 40
13.61372999999999
 50
180.29099299999999
 51
201.288104
  0
ARC
  5
1C8
  8
0
 62
     7
 10
80.550512999999995
 20
179.461478
 30
0.0
 40
15.30317099999999
 50
332.08127100000002
 51
359.92332999999991
  0
ARC
  5
1C9
  8
0
 62
     7
 10
77.016766000000004
 20
181.133295
 30
0.0
 40
19.209229000000001
 50
315.35814199999999
 51
332.61019499999998
  0
ARC
  5
1CA
  8
0
 62
     7
 10
72.321786000000003
 20
185.39165
 30
0.0
 40
25.543416000000001
 50
301.87827499999992
 51
315.961906
  0
ARC
  5
1CB
  8
0
 62
     7
 10
67.870803000000009
 20
192.0060729999999
 30
0.0
 40
33.512062
 50
288.22787199999999
 51
302.36805299999997
  0
ARC
  5
1CC
  8
0
 62
     7
 10
64.748551000000006
 20
200.43458499999991
 30
0.0
 40
42.495536999999992
 50
269.46747799999991
 51
288.67168299999997
  0
ARC
  5
1CD
  8
0
 62
     7
 10
64.361250999999996
 20
202.72179
 30
0.0
 40
44.780906000000002
 50
250.3990959999999
 51
269.9902009999999
  0
ARC
  5
1CE
  8
0
 62
     7
 10
61.429808000000001
 20
193.2106729999999
 30
0.0
 40
34.840179999999989
 50
236.26177499999989
 51
249.6934259999999
  0
ARC
  5
1CF
  8
0
 62
     7
 10
56.933138
 20
186.04412999999991
 30
0.0
 40
26.384250999999999
 50
222.28463099999999
 51
235.73854999999989
  0
ARC
  5
1D0
  8
0
 62
     7
 10
52.206693000000001
 20
181.49107799999999
 30
0.0
 40
19.825109999999999
 50
205.20770200000001
 51
221.74018499999991
  0
ARC
  5
1D1
  8
0
 62
     7
 10
48.564388999999998
 20
179.567555
 30
0.0
 40
15.711572
 50
180.46153699999999
 51
204.51813799999991
  0
ARC
  5
1D2
  8
0
 62
     7
 10
48.157541999999999
 20
179.42021800000001
 30
0.0
 40
15.304228999999999
 50
152.08201699999989
 51
179.922178
  0
ARC
  5
1D3
  8
0
 62
     7
 10
51.690767999999998
 20
177.74821799999989
 30
0.0
 40
19.209910999999991
 50
135.35809299999991
 51
152.60955899999999
  0
ARC
  5
1D4
  8
0
 62
     7
 10
56.385064
 20
173.49055399999989
 30
0.0
 40
25.543126999999998
 50
121.87803
 51
135.961893
  0
ARC
  5
1D5
  8
0
 62
     7
 10
60.838102999999997
 20
166.8718519999999
 30
0.0
 40
33.516483999999998
 50
108.228545
 51
122.3669179999999
  0
ARC
  5
1D6
  8
0
 62
     7
 10
63.957993999999992
 20
158.45113000000001
 30
0.0
 40
42.491827000000001
 50
89.466570000000004
 51
108.67251
  0
ARC
  5
1D7
  8
0
 62
     7
 10
64.344711000000004
 20
156.15361799999999
 30
0.0
 40
44.787497999999999
 50
70.400491000000002
 51
89.988637999999995
  0
ARC
  5
1D8
  8
0
 62
     7
 10
67.279250000000005
 20
165.67526199999989
 30
0.0
 40
34.835811
 50
56.260860999999998
 51
69.694125
  0
ARC
  5
1D9
  8
0
 62
     7
 10
71.774668000000005
 20
172.83890400000001
 30
0.0
 40
26.382988999999998
 50
42.284034999999989
 51
55.738562999999999
  0
ARC
  5
1DA
  8
0
 62
     7
 10
76.501463000000001
 20
177.3917439999999
 30
0.0
 40
19.823730999999999
 50
25.206931000000001
 51
41.740493999999998
  0
ARC
  5
1DB
  8
0
 62
     7
 10
80.141448999999994
 20
179.31423599999999
 30
0.0
 40
15.712732999999989
 50
0.462244
 51
24.517022999999998
  0
ARC
  5
1DC
  8
0
 62
     7
 10
33.771943
 20
102.5143879999999
 30
0.0
 40
6.2800029999999989
 50
90.00919300000001
 51
94.532211999999987
  0
ARC
  5
1DD
  8
0
 62
     7
 10
33.317355999999997
 20
108.3082679999999
 30
0.0
 40
0.4683430000000001
 50
95.103003999999984
 51
149.300037
  0
ARC
  5
1DE
  8
0
 62
     7
 10
33.322507000000002
 20
108.3158819999999
 30
0.0
 40
0.4689740000000001
 50
150.42128400000001
 51
204.4325179999999
  0
ARC
  5
1DF
  8
0
 62
     7
 10
48.920234000000001
 20
97.350695000000016
 30
0.0
 40
0.4506940000000001
 50
2.196769999999999
 51
79.951887999999997
  0
LINE
  5
1E0
  8
0
 62
     7
 10
49.370600000000003
 20
97.367999999999995
 30
0.0
 11
49.397300000000001
 21
96.982500000000016
 31
0.0
  0
ARC
  5
1E1
  8
0
 62
     7
 10
49.602527000000002
 20
97.000240000000005
 30
0.0
 40
0.205998
 50
184.95066800000001
 51
268.06288999999992
  0
LINE
  5
1E2
  8
0
 62
     7
 10
49.59559999999999
 20
96.794399999999996
 30
0.0
 11
64.352900000000005
 21
96.794399999999996
 31
0.0
  0
LINE
  5
1E3
  8
0
 62
     7
 10
64.352900000000005
 20
97.794499999999999
 30
0.0
 11
48.998899999999999
 21
97.794499999999999
 31
0.0
  0
ARC
  5
1E4
  8
0
 62
     7
 10
64.353325999999996
 20
179.44091299999999
 30
0.0
 40
4.0002120000000003
 50
359.99877600000002
 51
89.998746999999995
  0
ARC
  5
1E5
  8
0
 62
     7
 10
64.506414000000007
 20
179.28818399999989
 30
0.0
 40
4.1557589999999989
 50
92.109910999999997
 51
177.89499399999991
  0
ARC
  5
1E6
  8
0
 62
     7
 10
64.506596999999999
 20
179.59419099999991
 30
0.0
 40
4.1559689999999989
 50
182.11483100000001
 51
267.88766600000002
  0
ARC
  5
1E7
  8
0
 62
     7
 10
64.353583999999998
 20
179.44099999999989
 30
0.0
 40
3.9999539999999998
 50
269.99755199999993
 51
359.997523
  0
ARC
  5
1E8
  8
0
 62
     7
 10
64.353325999999996
 20
179.44091299999999
 30
0.0
 40
3.3001649999999998
 50
359.998515
 51
89.998485000000002
  0
ARC
  5
1E9
  8
0
 62
     7
 10
64.48061899999999
 20
179.31397899999999
 30
0.0
 40
3.4294589999999991
 50
92.125712999999976
 51
177.8802389999999
  0
ARC
  5
1EA
  8
0
 62
     7
 10
64.479635999999999
 20
179.56722999999991
 30
0.0
 40
3.428459999999999
 50
182.1129139999999
 51
267.890107
  0
ARC
  5
1EB
  8
0
 62
     7
 10
64.353583999999998
 20
179.44099999999989
 30
0.0
 40
3.2999059999999991
 50
269.99702899999988
 51
359.99699900000002
  0
ARC
  5
1EC
  8
0
 62
     7
 10
64.265251000000006
 20
179.35283799999991
 30
0.0
 40
2.3899209999999989
 50
2.1140560000000002
 51
87.885933999999992
  0
ARC
  5
1ED
  8
0
 62
     7
 10
64.353498999999999
 20
179.44108600000001
 30
0.0
 40
2.3000470000000002
 50
90.002145999999996
 51
180.0021549999999
  0
ARC
  5
1EE
  8
0
 62
     7
 10
64.353412000000006
 20
179.44099900000001
 30
0.0
 40
2.29996
 50
179.99996999999991
 51
270.00002000000001
  0
ARC
  5
1EF
  8
0
 62
     7
 10
64.265664999999984
 20
179.52892600000001
 30
0.0
 40
2.3894980000000001
 50
272.10450400000002
 51
357.89121399999988
  0
LINE
  5
1F0
  8
0
 62
     7
 10
110.044
 20
159.94099999999989
 30
0.0
 11
72.111500000000007
 21
159.94099999999989
 31
0.0
  0
LINE
  5
1F1
  8
0
 62
     7
 10
117.0439999999999
 20
157.941
 30
0.0
 11
72.853700000000003
 21
157.941
 31
0.0
  0
LINE
  5
1F2
  8
0
 62
     7
 10
110.044
 20
198.94099999999989
 30
0.0
 11
72.111500000000007
 21
198.94099999999989
 31
0.0
  0
LINE
  5
1F3
  8
0
 62
     7
 10
117.0439999999999
 20
200.94099999999989
 30
0.0
 11
72.853700000000003
 21
200.94099999999989
 31
0.0
  0
TEXT
  5
1F4
  8
_________2
 62
     7
 10
24.190799999999999
 20
40.528399999999991
 30
0.0
 40
4.2168199999999993
  1
・排水ヘッド部にはCET324をセットしてください。
 41
0.5
  0
LINE
  5
1F5
  8
_________2
 62
     7
 10
205.30099999999999
 20
127.411
 30
0.0
 11
183.55099999999999
 21
127.411
 31
0.0
  0
LINE
  5
1F6
  8
_________2
 62
     7
 10
100.2999999999999
 20
-4.0910799999999998
 30
0.0
 11
100.2999999999999
 21
-21.071400000000001
 31
0.0
  0
LINE
  5
1F7
  8
_________2
 62
     7
 10
100.2999999999999
 20
275.93099999999993
 30
0.0
 11
100.2999999999999
 21
258.911
 31
0.0
  0
LINE
  5
1F8
  8
_________2
 62
     7
 10
17.049499999999998
 20
127.411
 30
0.0
 11
-4.7008599999999987
 21
127.411
 31
0.0
  0
LINE
  5
1F9
  8
_________2
 62
     7
 10
76.741
 20
29.8047
 30
0.0
 11
74.554699999999997
 21
29.8047
 31
0.0
  0
LINE
  5
1FA
  8
_________2
 62
     7
 10
77.233699999999999
 20
29.8047
 30
0.0
 11
76.981499999999997
 21
29.8047
 31
0.0
  0
LINE
  5
1FB
  8
_________2
 62
     7
 10
77.726299999999995
 20
29.8047
 30
0.0
 11
80.651200000000003
 21
29.8047
 31
0.0
  0
LINE
  5
1FC
  8
_________2
 62
     7
 10
77.233699999999999
 20
29.8047
 30
0.0
 11
77.485900000000001
 21
29.8047
 31
0.0
  0
LINE
  5
1FD
  8
_________2
 62
     7
 10
70.837500000000006
 20
29.8047
 30
0.0
 11
68.650499999999994
 21
29.8047
 31
0.0
  0
LINE
  5
1FE
  8
_________2
 62
     7
 10
71.329400000000007
 20
29.8047
 30
0.0
 11
71.0779
 21
29.8047
 31
0.0
  0
LINE
  5
1FF
  8
_________2
 62
     7
 10
71.329400000000007
 20
30.2974
 30
0.0
 11
71.329400000000007
 21
32.484400000000001
 31
0.0
  0
LINE
  5
200
  8
_________2
 62
     7
 10
71.329400000000007
 20
29.8047
 30
0.0
 11
71.329400000000007
 21
30.056899999999992
 31
0.0
  0
LINE
  5
201
  8
_________2
 62
     7
 10
71.822100000000006
 20
29.8047
 30
0.0
 11
74.009
 21
29.8047
 31
0.0
  0
LINE
  5
202
  8
_________2
 62
     7
 10
71.329400000000007
 20
29.8047
 30
0.0
 11
71.581599999999995
 21
29.8047
 31
0.0
  0
LINE
  5
203
  8
_________2
 62
     7
 10
71.329400000000007
 20
29.312799999999999
 30
0.0
 11
71.329400000000007
 21
27.125800000000002
 31
0.0
  0
LINE
  5
204
  8
_________2
 62
     7
 10
71.329400000000007
 20
29.8047
 30
0.0
 11
71.329400000000007
 21
29.5532
 31
0.0
  0
LINE
  5
205
  8
_________2
 62
     7
 10
75.040499999999994
 20
28.5852
 30
0.0
 11
80.218500000000006
 21
27.720400000000001
 31
0.0
  0
LINE
  5
206
  8
_________2
 62
     7
 10
75.040499999999994
 20
31.0243
 30
0.0
 11
80.218500000000006
 21
31.889700000000001
 31
0.0
  0
LINE
  5
207
  8
_________2
 62
     7
 10
80.218500000000006
 20
27.720400000000001
 30
0.0
 11
80.218500000000006
 21
31.889700000000001
 31
0.0
  0
LINE
  5
208
  8
_________2
 62
     7
 10
75.040499999999994
 20
28.5852
 30
0.0
 11
75.040499999999994
 21
31.0243
 31
0.0
  0
ARC
  5
209
  8
_________2
 62
     7
 10
71.283190000000005
 20
29.757787
 30
0.0
 40
1.2673709999999989
 50
2.1232950000000002
 51
87.909056000000007
  0
ARC
  5
20A
  8
_________2
 62
     7
 10
71.375959999999992
 20
29.758213000000001
 30
0.0
 40
1.2669559999999991
 50
92.104701000000006
 51
177.8952689999999
  0
ARC
  5
20B
  8
_________2
 62
     7
 10
71.376357999999996
 20
29.851671
 30
0.0
 40
1.2673680000000001
 50
182.12203600000001
 51
267.877993
  0
ARC
  5
20C
  8
_________2
 62
     7
 10
71.282541000000009
 20
29.852347999999999
 30
0.0
 40
1.2680439999999991
 50
272.11916400000001
 51
357.84848499999993
  0
ARC
  5
20D
  8
_________2
 62
     7
 10
71.329430000000002
 20
29.804742999999998
 30
0.0
 40
2.0849849999999992
 50
0.00001
 51
89.999980000000008
  0
ARC
  5
20E
  8
_________2
 62
     7
 10
71.409075999999999
 20
29.725812999999992
 30
0.0
 40
2.165379999999999
 50
92.107876000000005
 51
177.91103200000001
  0
ARC
  5
20F
  8
_________2
 62
     7
 10
71.409439000000006
 20
29.884751999999999
 30
0.0
 40
2.1657829999999998
 50
182.117133
 51
267.88289700000001
  0
ARC
  5
210
  8
_________2
 62
     7
 10
71.249459000000002
 20
29.885429999999989
 30
0.0
 40
2.1664590000000001
 50
272.11546800000002
 51
357.86560400000002
  0
TEXT
  5
211
  8
_________2
 62
     7
 10
104.605
 20
1.6794899999999999
 30
0.0
 40
3.0923400000000001
  1
図番
 41
0.5
  0
LINE
  5
212
  8
_________2
 62
     7
 10
103.55
 20
5.9087199999999989
 30
0.0
 11
183.55099999999999
 21
5.9087199999999989
 31
0.0
  0
TEXT
  5
213
  8
_________2
 62
     7
 10
104.605
 20
11.679299999999991
 30
0.0
 40
3.0923400000000001
  1
品番
 41
0.5
  0
TEXT
  5
214
  8
_________2
 62
     7
 10
104.605
 20
31.818100000000001
 30
0.0
 40
3.0923400000000001
  1
名称
 41
0.5
  0
TEXT
  5
215
  8
_________2
 62
     7
 10
91.845058333333341
 20
26.821999999999989
 30
0.0
 40
3.6545800000000002
  1
mm
 41
0.5
 72
     1
 11
93.367800000000003
 21
26.821999999999989
 31
0.0
  0
TEXT
  5
216
  8
_________2
 62
     7
 10
85.643199999999993
 20
31.818100000000001
 30
0.0
 40
3.0923400000000001
  1
単位
 41
0.5
  0
TEXT
  5
217
  8
_________2
 62
     7
 10
85.643199999999993
 20
19.410799999999991
 30
0.0
 40
3.0923400000000001
  1
尺度
 41
0.5
  0
TEXT
  5
218
  8
_________2
 62
     7
 10
90.09193616666667
 20
13.2179
 30
0.0
 40
3.6545800000000002
  1
1 ： 10
 41
0.5
 72
     1
 11
93.959699999999998
 21
13.2179
 31
0.0
  0
TEXT
  5
219
  8
_________2
 62
     7
 10
136.82651250000001
 20
9.1078600000000005
 30
0.0
 40
3.9357000000000002
  1
VB515110
 41
0.5
 72
     1
 11
143.55000000000001
 21
9.1078600000000005
 31
0.0
  0
TEXT
  5
21A
  8
_________2
 62
     7
 10
136.82651250000001
 20
-0.8926299999999999
 30
0.0
 40
3.9357000000000002
  1
VB515110
 41
0.5
 72
     1
 11
143.55000000000001
 21
-0.8926299999999999
 31
0.0
  0
TEXT
  5
21B
  8
_________2
 62
     7
 10
24.5868
 20
0.707283
 30
0.0
 40
3.9357000000000002
  1
実容量：4.0L、重量:9.0kg、オーバーフロー付
 41
0.5
  0
TEXT
  5
21C
  8
_________2
 62
     7
 10
109.179
 20
24.2257
 30
0.0
 40
3.9357000000000002
  1
ループ&フレンズ 洗面器
 41
0.5
  0
TEXT
  5
21D
  8
_________2
 62
     7
 10
39.425300333333333
 20
13.603
 30
0.0
 40
3.6545800000000002
  1
早川
 41
0.5
 72
     1
 11
41.313499999999998
 21
13.603
 31
0.0
  0
TEXT
  5
21E
  8
_________2
 62
     7
 10
20.851300333333331
 20
13.603
 30
0.0
 40
3.6545800000000002
  1
西田
 41
0.5
 72
     1
 11
22.7395
 21
13.603
 31
0.0
  0
TEXT
  5
21F
  8
_________2
 62
     7
 10
67.785799999999995
 20
13.2179
 30
0.0
 40
3.6545800000000002
  1
13.10.01
 41
0.5
  0
TEXT
  5
220
  8
_________2
 62
     7
 10
66.593100000000007
 20
19.410799999999991
 30
0.0
 40
3.0923400000000001
  1
日付
 41
0.5
  0
TEXT
  5
221
  8
_________2
 62
     7
 10
29.639399999999998
 20
19.410799999999991
 30
0.0
 40
3.0923400000000001
  1
検図
 41
0.5
  0
TEXT
  5
222
  8
_________2
 62
     7
 10
18.021100000000001
 20
5.21143
 30
0.0
 40
3.0923400000000001
  1
備考
 41
0.5
  0
TEXT
  5
223
  8
_________2
 62
     7
 10
18.021100000000001
 20
19.410799999999991
 30
0.0
 40
3.0923400000000001
  1
製図
 41
0.5
  0
TEXT
  5
224
  8
_________2
 62
     7
 10
23.788465333333338
 20
27.936800000000002
 30
0.0
 40
4.4979399999999989
  1
セラトレーディング株式会社
 41
0.5
 72
     1
 11
41.180500000000002
 21
27.936800000000002
 31
0.0
  0
LINE
  5
225
  8
_________2
 62
     7
 10
183.55099999999999
 20
-4.0910799999999998
 30
0.0
 11
17.049499999999998
 21
-4.0910799999999998
 31
0.0
  0
LINE
  5
226
  8
_________2
 62
     7
 10
17.049499999999998
 20
-4.0910799999999998
 30
0.0
 11
17.049499999999998
 21
258.911
 31
0.0
  0
LINE
  5
227
  8
_________2
 62
     7
 10
17.049499999999998
 20
258.911
 30
0.0
 11
183.55099999999999
 21
258.911
 31
0.0
  0
LINE
  5
228
  8
_________2
 62
     7
 10
183.55099999999999
 20
258.911
 30
0.0
 11
183.55099999999999
 21
-4.0910799999999998
 31
0.0
  0
LINE
  5
229
  8
_________2
 62
     7
 10
65.549899999999994
 20
9.4089600000000004
 30
0.0
 11
65.549899999999994
 21
35.908799999999999
 31
0.0
  0
LINE
  5
22A
  8
_________2
 62
     7
 10
84.549700000000016
 20
9.4089600000000004
 30
0.0
 11
84.549700000000016
 21
35.908799999999999
 31
0.0
  0
LINE
  5
22B
  8
_________2
 62
     7
 10
103.55
 20
-4.0910799999999998
 30
0.0
 11
103.55
 21
35.908799999999999
 31
0.0
  0
LINE
  5
22C
  8
_________2
 62
     7
 10
28.549299999999992
 20
9.4089600000000004
 30
0.0
 11
28.549299999999992
 21
23.409199999999998
 31
0.0
  0
LINE
  5
22D
  8
_________2
 62
     7
 10
17.049499999999998
 20
9.4089600000000004
 30
0.0
 11
103.55
 21
9.4089600000000004
 31
0.0
  0
LINE
  5
22E
  8
_________2
 62
     7
 10
17.049499999999998
 20
23.409199999999998
 30
0.0
 11
103.55
 21
23.409199999999998
 31
0.0
  0
LINE
  5
22F
  8
_________2
 62
     7
 10
103.55
 20
15.9085
 30
0.0
 11
183.55099999999999
 21
15.9085
 31
0.0
  0
LINE
  5
230
  8
_________2
 62
     7
 10
17.049499999999998
 20
35.908799999999999
 30
0.0
 11
183.55099999999999
 21
35.908799999999999
 31
0.0
  0
ENDSEC
  0
EOF
