  0
SECTION
  2
HEADER
  9
$ACADVER
  1
AC1009
  9
$INSBASE
 10
0.0
 20
0.0
 30
0.0
  9
$EXTMIN
 10
-4.7008599999999987
 20
-21.071400000000001
 30
0.0
  9
$EXTMAX
 10
205.30099999999999
 20
275.93099999999993
 30
0.0
  9
$LIMMIN
 10
0.0
 20
0.0
  9
$LIMMAX
 10
12.0
 20
9.0
  9
$ORTHOMODE
 70
     0
  9
$REGENMODE
 70
     1
  9
$FILLMODE
 70
     1
  9
$QTEXTMODE
 70
     0
  9
$MIRRTEXT
 70
     1
  9
$DRAGMODE
 70
     2
  9
$LTSCALE
 40
1.0
  9
$OSMODE
 70
    37
  9
$ATTMODE
 70
     1
  9
$TEXTSIZE
 40
0.0
  9
$TRACEWID
 40
0.05
  9
$TEXTSTYLE
  7
STANDARD
  9
$CLAYER
  8
0
  9
$CELTYPE
  6
CONTINUOUS
  9
$CECOLOR
 62
   256
  9
$DIMSCALE
 40
1.0
  9
$DIMASZ
 40
0.18
  9
$DIMEXO
 40
0.0625
  9
$DIMDLI
 40
0.38
  9
$DIMRND
 40
0.0
  9
$DIMDLE
 40
0.0
  9
$DIMEXE
 40
0.18
  9
$DIMTP
 40
0.0
  9
$DIMTM
 40
0.0
  9
$DIMTXT
 40
0.18
  9
$DIMCEN
 40
0.09
  9
$DIMTSZ
 40
0.0
  9
$DIMTOL
 70
     0
  9
$DIMLIM
 70
     0
  9
$DIMTIH
 70
     1
  9
$DIMTOH
 70
     1
  9
$DIMSE1
 70
     0
  9
$DIMSE2
 70
     0
  9
$DIMTAD
 70
     0
  9
$DIMZIN
 70
     0
  9
$DIMBLK
  1

  9
$DIMASO
 70
     1
  9
$DIMSHO
 70
     1
  9
$DIMPOST
  1

  9
$DIMAPOST
  1

  9
$DIMALT
 70
     0
  9
$DIMALTD
 70
     2
  9
$DIMALTF
 40
25.399999999999999
  9
$DIMLFAC
 40
1.0
  9
$DIMTOFL
 70
     0
  9
$DIMTVP
 40
0.0
  9
$DIMTIX
 70
     0
  9
$DIMSOXD
 70
     0
  9
$DIMSAH
 70
     0
  9
$DIMBLK1
  1

  9
$DIMBLK2
  1

  9
$DIMSTYLE
  2
STANDARD
  9
$DIMCLRD
 70
     0
  9
$DIMCLRE
 70
     0
  9
$DIMCLRT
 70
     0
  9
$DIMTFAC
 40
1.0
  9
$DIMGAP
 40
0.09
  9
$LUNITS
 70
     2
  9
$LUPREC
 70
     4
  9
$SKETCHINC
 40
0.1
  9
$FILLETRAD
 40
0.0
  9
$AUNITS
 70
     0
  9
$AUPREC
 70
     0
  9
$MENU
  1
.
  9
$ELEVATION
 40
0.0
  9
$PELEVATION
 40
0.0
  9
$THICKNESS
 40
0.0
  9
$LIMCHECK
 70
     0
  9
$BLIPMODE
 70
     0
  9
$CHAMFERA
 40
0.0
  9
$CHAMFERB
 40
0.0
  9
$SKPOLY
 70
     0
  9
$TDCREATE
 40
2444972.375
  9
$TDUPDATE
 40
2456571.249036782
  9
$TDINDWG
 40
0.0000063194
  9
$TDUSRTIMER
 40
0.0000063194
  9
$USRTIMER
 70
     1
  9
$ANGBASE
 50
0.0
  9
$ANGDIR
 70
     0
  9
$PDMODE
 70
     0
  9
$PDSIZE
 40
0.0
  9
$PLINEWID
 40
0.0
  9
$COORDS
 70
     1
  9
$SPLFRAME
 70
     0
  9
$SPLINETYPE
 70
     6
  9
$SPLINESEGS
 70
     8
  9
$ATTDIA
 70
     0
  9
$ATTREQ
 70
     1
  9
$HANDLING
 70
     1
  9
$HANDSEED
  5
247
  9
$SURFTAB1
 70
     6
  9
$SURFTAB2
 70
     6
  9
$SURFTYPE
 70
     6
  9
$SURFU
 70
     6
  9
$SURFV
 70
     6
  9
$UCSNAME
  2

  9
$UCSORG
 10
0.0
 20
0.0
 30
0.0
  9
$UCSXDIR
 10
1.0
 20
0.0
 30
0.0
  9
$UCSYDIR
 10
0.0
 20
1.0
 30
0.0
  9
$PUCSNAME
  2

  9
$PUCSORG
 10
0.0
 20
0.0
 30
0.0
  9
$PUCSXDIR
 10
1.0
 20
0.0
 30
0.0
  9
$PUCSYDIR
 10
0.0
 20
1.0
 30
0.0
  9
$USERI1
 70
     0
  9
$USERI2
 70
     0
  9
$USERI3
 70
     0
  9
$USERI4
 70
     0
  9
$USERI5
 70
     0
  9
$USERR1
 40
0.0
  9
$USERR2
 40
0.0
  9
$USERR3
 40
0.0
  9
$USERR4
 40
0.0
  9
$USERR5
 40
0.0
  9
$WORLDVIEW
 70
     1
  9
$SHADEDGE
 70
     3
  9
$SHADEDIF
 70
    70
  9
$TILEMODE
 70
     1
  9
$MAXACTVP
 70
    48
  9
$PLIMCHECK
 70
     0
  9
$PEXTMIN
 10
1.0000000000000000E+020
 20
1.0000000000000000E+020
 30
1.0000000000000000E+020
  9
$PEXTMAX
 10
-1.0000000000000000E+020
 20
-1.0000000000000000E+020
 30
-1.0000000000000000E+020
  9
$PLIMMIN
 10
0.0
 20
0.0
  9
$PLIMMAX
 10
12.0
 20
9.0
  9
$UNITMODE
 70
     0
  9
$VISRETAIN
 70
     1
  9
$PLINEGEN
 70
     0
  9
$PSLTSCALE
 70
     1
  0
ENDSEC
  0
SECTION
  2
TABLES
  0
TABLE
  2
VPORT
 70
     2
  0
VPORT
  2
*ACTIVE
 70
     0
 10
0.0
 20
0.0
 11
1.0
 21
1.0
 12
202.00661374696719
 22
127.4298
 13
0.0
 23
0.0
 14
1.0
 24
1.0
 15
0.0
 25
0.0
 16
0.0
 26
0.0
 36
1.0
 17
0.0
 27
0.0
 37
0.0
 40
299.45358899587342
 41
2.2894736842105261
 42
50.0
 43
0.0
 44
0.0
 50
0.0
 51
0.0
 71
     0
 72
   100
 73
     1
 74
     1
 75
     0
 76
     0
 77
     0
 78
     0
  0
ENDTAB
  0
TABLE
  2
LTYPE
 70
     4
  0
LTYPE
  2
CONTINUOUS
 70
     0
  3
Solid line
 72
    65
 73
     0
 40
0.0
  0
LTYPE
  2
AIGENLINE001
 70
     0
  3
generate AI->DXF Converter
 72
    65
 73
     2
 40
1.5522299999999991
 49
0.776115
 49
-0.776115
  0
LTYPE
  2
AIGENLINE002
 70
     0
  3
generate AI->DXF Converter
 72
    65
 73
     6
 40
7.4083750000000004
 49
3.5278
 49
-0.776115
 49
0.776115
 49
-0.776115
 49
0.776115
 49
-0.776115
  0
LTYPE
  2
AIGENLINE003
 70
     0
  3
generate AI->DXF Converter
 72
    65
 73
     4
 40
5.8561449999999988
 49
3.5278
 49
-0.776115
 49
0.776115
 49
-0.776115
  0
ENDTAB
  0
TABLE
  2
LAYER
 70
     2
  0
LAYER
  2
0
 70
     0
 62
     7
  6
CONTINUOUS
  0
LAYER
  2
_________2
 70
     0
 62
     7
  6
CONTINUOUS
  0
ENDTAB
  0
TABLE
  2
STYLE
 70
     1
  0
STYLE
  2
STANDARD
 70
     0
 40
0.0
 41
0.0
 50
0.0
 71
     0
 42
0.0
  3
TXT
  4
EXTFONT.SHX
  0
ENDTAB
  0
TABLE
  2
VIEW
 70
     0
  0
ENDTAB
  0
TABLE
  2
UCS
 70
     0
  0
ENDTAB
  0
TABLE
  2
APPID
 70
     1
  0
APPID
  2
ACAD
 70
     0
  0
ENDTAB
  0
TABLE
  2
DIMSTYLE
 70
     1
  0
DIMSTYLE
  2
STANDARD
 70
     0
  3

  4

  5

  6

  7

 40
1.0
 41
0.18
 42
0.0625
 43
0.38
 44
0.18
 45
0.0
 46
0.0
 47
0.0
 48
0.0
140
0.18
141
0.09
142
0.0
143
25.399999999999999
144
1.0
145
0.0
146
1.0
147
0.09
 71
     0
 72
     0
 73
     1
 74
     1
 75
     0
 76
     0
 77
     0
 78
     0
170
     0
171
     2
172
     0
173
     0
174
     0
175
     0
176
     0
177
     0
178
     0
  0
ENDTAB
  0
ENDSEC
  0
SECTION
  2
BLOCKS
  0
BLOCK
  8
0
  2
$MODEL_SPACE
 70
     0
 10
0.0
 20
0.0
 30
0.0
  3
$MODEL_SPACE
  1

  0
ENDBLK
  5
1A
  8
0
  0
BLOCK
 67
     1
  8
0
  2
$PAPER_SPACE
 70
     0
 10
0.0
 20
0.0
 30
0.0
  3
$PAPER_SPACE
  1

  0
ENDBLK
  5
17
 67
     1
  8
0
  0
ENDSEC
  0
SECTION
  2
ENTITIES
  0
TEXT
  5
24
  8
0
 62
     7
 10
46.614800000000002
 20
227.4959999999999
 30
0.0
 40
3.0923400000000001
  1
※40%%d範囲内には、ポップアップ引棒付水栓・
 41
0.5
  0
TEXT
  5
25
  8
0
 62
     7
 10
46.614800000000002
 20
223.62999999999991
 30
0.0
 40
3.0923400000000001
  1
　引棒部は設置できません。
 41
0.5
  0
TEXT
  5
26
  8
0
 62
     7
 10
48.068485000000003
 20
184.34999999999991
 30
0.0
 40
3.0923400000000001
  1
120%%d
 41
0.5
 72
     2
 11
52.449300000000001
 21
184.34999999999991
 31
0.0
  0
TEXT
  5
27
  8
0
 62
     7
 10
79.152600000000007
 20
185.3609999999999
 30
0.0
 40
3.0923400000000001
  1
120%%d
 41
0.5
  0
TEXT
  5
28
  8
0
 62
     7
 10
26.52046099999999
 20
155.2299999999999
 30
0.0
 40
3.0923400000000001
  1
※40%%d
 41
0.5
 72
     2
 11
31.725899999999999
 21
155.2299999999999
 31
0.0
  0
TEXT
  5
29
  8
0
 62
     7
 10
99.704599999999999
 20
155.2299999999999
 30
0.0
 40
3.0923400000000001
  1
※40%%d
 41
0.5
  0
TEXT
  5
2A
  8
0
 62
     7
 10
63.3475635
 20
216.10599999999991
 30
0.0
 40
3.0923400000000001
  1
※40%%d
 41
0.5
 72
     1
 11
66.104900000000001
 21
216.10599999999991
 31
0.0
  0
TEXT
  5
2B
  8
0
 62
     7
 10
116.8889999999999
 20
87.384699999999995
 30
0.0
 40
3.0923400000000001
  1
カウンタ－
 41
0.5
  0
TEXT
  5
2C
  8
0
 62
     7
 10
116.8889999999999
 20
83.519300000000015
 30
0.0
 40
3.0923400000000001
  1
（t＝10～30）
 41
0.5
  0
TEXT
  5
2D
  8
0
 62
     7
 10
158.1189824999999
 20
119.57899999999989
 30
0.0
 40
3.0923400000000001
  1
190
 41
0.5
 72
     1
 11
159.7939999999999
 21
119.57899999999989
 31
0.0
  0
TEXT
  5
2E
  8
0
 62
     7
 10
148.63598250000001
 20
83.154499999999999
 30
0.0
 40
3.0923400000000001
  1
210
 41
0.5
 72
     1
 11
150.31100000000001
 21
83.154499999999999
 31
0.0
  0
TEXT
  5
2F
  8
0
 62
     7
 10
64.300735000000003
 20
83.154499999999999
 30
0.0
 40
3.0923400000000001
  1
300
 41
0.5
 72
     1
 11
66.104600000000005
 21
83.154499999999999
 31
0.0
  0
TEXT
  5
30
  8
0
 62
     7
 10
142.1667599999999
 20
161.64400000000001
 30
0.0
 40
3.0923400000000001
  1
カウンター切込寸法
 41
0.5
 72
     1
 11
150.4129999999999
 21
161.64400000000001
 31
0.0
  0
TEXT
  5
31
  8
0
 62
     7
 10
131.91599999999991
 20
169.84099999999989
 30
0.0
 40
3.0923400000000001
  1
%%c185
 41
0.5
  0
TEXT
  5
32
  8
0
 62
     7
 10
99.108599999999996
 20
102.76013499999991
 30
0.0
 40
3.0923400000000001
  1
10
 50
90.0
 41
0.5
 72
     2
 11
99.108599999999996
 21
104.56399999999989
 31
0.0
  0
TEXT
  5
33
  8
0
 62
     7
 10
64.043340000000001
 20
146.27199999999999
 30
0.0
 40
3.0923400000000001
  1
545
 41
0.5
 72
     1
 11
66.104900000000001
 21
146.27199999999999
 31
0.0
  0
TEXT
  5
34
  8
0
 62
     7
 10
64.043340000000001
 20
139.4489999999999
 30
0.0
 40
3.0923400000000001
  1
585
 41
0.5
 72
     1
 11
66.104900000000001
 21
139.4489999999999
 31
0.0
  0
TEXT
  5
35
  8
0
 62
     7
 10
110.182
 20
177.47228749999991
 30
0.0
 40
3.0923400000000001
  1
340
 50
90.0
 41
0.5
 72
     1
 11
110.182
 21
179.405
 31
0.0
  0
TEXT
  5
36
  8
0
 62
     7
 10
117.005
 20
177.47228749999991
 30
0.0
 40
3.0923400000000001
  1
380
 50
90.0
 41
0.5
 72
     1
 11
117.005
 21
179.405
 31
0.0
  0
TEXT
  5
37
  8
0
 62
     7
 10
112.5929999999999
 20
99.789982500000008
 30
0.0
 40
3.0923400000000001
  1
150
 50
90.0
 41
0.5
 72
     1
 11
112.5929999999999
 21
101.465
 31
0.0
  0
TEXT
  5
38
  8
0
 62
     7
 10
105.67400000000001
 20
102.0466775
 30
0.0
 40
3.0923400000000001
  1
110
 50
90.0
 41
0.5
 72
     1
 11
105.67400000000001
 21
103.464
 31
0.0
  0
TEXT
  5
39
  8
0
 62
     7
 10
147.29699999999991
 20
103.4095249999999
 30
0.0
 40
3.0923400000000001
  1
85
 50
90.0
 41
0.5
 72
     1
 11
147.29699999999991
 21
104.69799999999999
 31
0.0
  0
TEXT
  5
3A
  8
0
 62
     7
 10
54.634
 20
185.78999999999991
 30
0.0
 40
3.0923400000000001
  1
%%c46
 41
0.5
  0
LINE
  5
3B
  8
0
  6
AIGENLINE001
 62
     7
 10
154.30699999999999
 20
100.4639999999999
 30
0.0
 11
154.30699999999999
 21
99.690000000000012
 31
0.0
  0
LINE
  5
3C
  8
0
  6
AIGENLINE001
 62
     7
 10
152.608
 20
97.964699999999993
 30
0.0
 11
154.1389999999999
 21
99.315200000000004
 31
0.0
  0
LINE
  5
3D
  8
0
  6
AIGENLINE001
 62
     7
 10
146.477
 20
99.315200000000004
 30
0.0
 11
148.0079999999999
 21
97.964699999999993
 31
0.0
  0
LINE
  5
3E
  8
0
  6
AIGENLINE001
 62
     7
 10
146.30799999999991
 20
100.4639999999999
 30
0.0
 11
146.30799999999991
 21
99.690000000000012
 31
0.0
  0
LINE
  5
3F
  8
0
  6
AIGENLINE001
 62
     7
 10
146.30799999999991
 20
100.4639999999999
 30
0.0
 11
154.30699999999999
 21
100.4639999999999
 31
0.0
  0
LINE
  5
40
  8
0
  6
AIGENLINE001
 62
     7
 10
152.608
 20
97.964699999999993
 30
0.0
 11
152.608
 21
93.9649
 31
0.0
  0
LINE
  5
41
  8
0
  6
AIGENLINE001
 62
     7
 10
148.0079999999999
 20
97.964699999999993
 30
0.0
 11
148.0079999999999
 21
93.9649
 31
0.0
  0
LINE
  5
42
  8
0
  6
AIGENLINE001
 62
     7
 10
148.0079999999999
 20
97.964699999999993
 30
0.0
 11
152.608
 21
97.964699999999993
 31
0.0
  0
LINE
  5
43
  8
0
  6
AIGENLINE001
 62
     7
 10
70.104900000000001
 20
100.4639999999999
 30
0.0
 11
70.104900000000001
 21
99.690000000000012
 31
0.0
  0
LINE
  5
44
  8
0
  6
AIGENLINE001
 62
     7
 10
68.405000000000001
 20
97.964699999999993
 30
0.0
 11
69.936099999999996
 21
99.315200000000004
 31
0.0
  0
LINE
  5
45
  8
0
  6
AIGENLINE001
 62
     7
 10
62.274299999999997
 20
99.315200000000004
 30
0.0
 11
63.805300000000003
 21
97.964699999999993
 31
0.0
  0
LINE
  5
46
  8
0
  6
AIGENLINE001
 62
     7
 10
62.1051
 20
100.4639999999999
 30
0.0
 11
62.1051
 21
99.690000000000012
 31
0.0
  0
LINE
  5
47
  8
0
  6
AIGENLINE001
 62
     7
 10
62.1051
 20
100.4639999999999
 30
0.0
 11
70.104900000000001
 21
100.4639999999999
 31
0.0
  0
LINE
  5
48
  8
0
  6
AIGENLINE001
 62
     7
 10
68.405000000000001
 20
97.964699999999993
 30
0.0
 11
68.405000000000001
 21
93.9649
 31
0.0
  0
LINE
  5
49
  8
0
  6
AIGENLINE001
 62
     7
 10
63.805300000000003
 20
97.964699999999993
 30
0.0
 11
63.805300000000003
 21
93.9649
 31
0.0
  0
LINE
  5
4A
  8
0
  6
AIGENLINE001
 62
     7
 10
63.805300000000003
 20
97.964699999999993
 30
0.0
 11
68.405000000000001
 21
97.964699999999993
 31
0.0
  0
ARC
  5
4B
  8
0
 62
     7
 10
66.092416
 20
179.40427899999989
 30
0.0
 40
14.631505000000001
 50
330.02682499999992
 51
0.002816
  0
ARC
  5
4C
  8
0
 62
     7
 10
66.105252000000007
 20
179.404651
 30
0.0
 40
14.618669000000001
 50
0.00136
 51
90.00133000000001
  0
ARC
  5
4D
  8
0
 62
     7
 10
66.105170999999999
 20
179.40525400000001
 30
0.0
 40
14.618066000000001
 50
90.001013
 51
180.00102299999989
  0
ARC
  5
4E
  8
0
 62
     7
 10
66.202256000000006
 20
179.42581200000001
 30
0.0
 40
14.71516499999999
 50
180.08106100000001
 51
209.880608
  0
LINE
  5
4F
  8
0
 62
     7
 10
63.939500000000002
 20
193.285
 30
0.0
 11
66.105599999999995
 21
194.024
 31
0.0
  0
LINE
  5
50
  8
0
 62
     7
 10
66.105599999999995
 20
194.024
 30
0.0
 11
63.8596
 21
194.46700000000001
 31
0.0
  0
LINE
  5
51
  8
0
 62
     7
 10
63.8596
 20
194.46700000000001
 30
0.0
 11
63.939500000000002
 21
193.285
 31
0.0
  0
LINE
  5
52
  8
0
 62
     7
 10
51.908799999999992
 20
173.79300000000001
 30
0.0
 11
53.44319999999999
 21
172.095
 31
0.0
  0
LINE
  5
53
  8
0
 62
     7
 10
53.44319999999999
 20
172.095
 30
0.0
 11
52.963999999999999
 21
174.333
 31
0.0
  0
LINE
  5
54
  8
0
 62
     7
 10
52.963999999999999
 20
174.333
 30
0.0
 11
51.908799999999992
 21
173.79300000000001
 31
0.0
  0
LINE
  5
55
  8
0
 62
     7
 10
68.271199999999993
 20
193.28399999999999
 30
0.0
 11
66.104900000000001
 21
194.02299999999991
 31
0.0
  0
LINE
  5
56
  8
0
 62
     7
 10
66.104900000000001
 20
194.02299999999991
 30
0.0
 11
68.351100000000002
 21
194.46599999999989
 31
0.0
  0
LINE
  5
57
  8
0
 62
     7
 10
68.351100000000002
 20
194.46599999999989
 30
0.0
 11
68.271199999999993
 21
193.28399999999999
 31
0.0
  0
LINE
  5
58
  8
0
 62
     7
 10
80.301500000000004
 20
173.79300000000001
 30
0.0
 11
78.767099999999999
 21
172.09399999999999
 31
0.0
  0
LINE
  5
59
  8
0
 62
     7
 10
78.767099999999999
 20
172.09399999999999
 30
0.0
 11
79.246700000000004
 21
174.33199999999991
 31
0.0
  0
LINE
  5
5A
  8
0
 62
     7
 10
79.246700000000004
 20
174.33199999999991
 30
0.0
 11
80.301500000000004
 21
173.79300000000001
 31
0.0
  0
ARC
  5
5B
  8
0
 62
     7
 10
66.047119999999993
 20
179.31625
 30
0.0
 40
39.165554999999991
 50
209.93007499999999
 51
229.980976
  0
ARC
  5
5C
  8
0
 62
     7
 10
66.382046000000003
 20
179.53963100000001
 30
0.0
 40
39.567276
 50
190.121489
 51
209.96842000000001
  0
LINE
  5
5D
  8
0
 62
     7
 10
27.3475
 20
170.29899999999989
 30
0.0
 11
27.430499999999999
 21
172.5859999999999
 31
0.0
  0
LINE
  5
5E
  8
0
 62
     7
 10
27.430499999999999
 20
172.5859999999999
 30
0.0
 11
28.503
 21
170.56299999999999
 31
0.0
  0
LINE
  5
5F
  8
0
 62
     7
 10
28.503
 20
170.56299999999999
 30
0.0
 11
27.3475
 21
170.29899999999989
 31
0.0
  0
LINE
  5
60
  8
0
 62
     7
 10
38.807200000000002
 20
150.33099999999999
 30
0.0
 11
40.861999999999988
 21
149.32199999999989
 31
0.0
  0
LINE
  5
61
  8
0
 62
     7
 10
40.861999999999988
 20
149.32199999999989
 30
0.0
 11
39.586999999999989
 21
151.22399999999999
 31
0.0
  0
LINE
  5
62
  8
0
 62
     7
 10
39.586999999999989
 20
151.22399999999999
 30
0.0
 11
38.807200000000002
 21
150.33099999999999
 31
0.0
  0
LINE
  5
63
  8
0
 62
     7
 10
26.8444
 20
172.482
 30
0.0
 11
30.874500000000001
 21
173.19300000000001
 31
0.0
  0
LINE
  5
64
  8
0
 62
     7
 10
40.252800000000001
 20
148.596
 30
0.0
 11
42.883299999999998
 21
151.73099999999991
 31
0.0
  0
LINE
  5
65
  8
0
  6
AIGENLINE002
 62
     7
 10
43.333199999999991
 20
152.26699999999991
 30
0.0
 11
66.104699999999994
 21
179.405
 31
0.0
  0
LINE
  5
66
  8
0
  6
AIGENLINE002
 62
     7
 10
31.8139
 20
173.358
 30
0.0
 11
66.104699999999994
 21
179.405
 31
0.0
  0
LINE
  5
67
  8
0
  6
AIGENLINE003
 62
     7
 10
66.104699999999994
 20
179.405
 30
0.0
 11
96.699100000000016
 21
161.74100000000001
 31
0.0
  0
LINE
  5
68
  8
0
  6
AIGENLINE003
 62
     7
 10
66.104699999999994
 20
179.405
 30
0.0
 11
36.222700000000003
 21
162.15100000000001
 31
0.0
  0
ARC
  5
69
  8
0
 62
     7
 10
66.174286999999993
 20
179.41181900000001
 30
0.0
 40
39.202401000000002
 50
329.93969299999998
 51
349.97153999999989
  0
ARC
  5
6A
  8
0
 62
     7
 10
65.865168999999995
 20
179.5671679999999
 30
0.0
 40
39.547764000000001
 50
310.1131049999999
 51
329.96922699999988
  0
LINE
  5
6B
  8
0
 62
     7
 10
93.368700000000004
 20
150.39400000000001
 30
0.0
 11
91.345699999999994
 21
149.32199999999989
 31
0.0
  0
LINE
  5
6C
  8
0
 62
     7
 10
91.345699999999994
 20
149.32199999999989
 30
0.0
 11
92.561899999999994
 21
151.262
 31
0.0
  0
LINE
  5
6D
  8
0
 62
     7
 10
92.561899999999994
 20
151.262
 30
0.0
 11
93.368700000000004
 21
150.39400000000001
 31
0.0
  0
LINE
  5
6E
  8
0
 62
     7
 10
104.9309999999999
 20
170.3009999999999
 30
0.0
 11
104.77799999999991
 21
172.58500000000001
 31
0.0
  0
LINE
  5
6F
  8
0
 62
     7
 10
104.77799999999991
 20
172.58500000000001
 30
0.0
 11
103.7679999999999
 21
170.53099999999989
 31
0.0
  0
LINE
  5
70
  8
0
 62
     7
 10
103.7679999999999
 20
170.53099999999989
 30
0.0
 11
104.9309999999999
 21
170.3009999999999
 31
0.0
  0
LINE
  5
71
  8
0
 62
     7
 10
91.645499999999998
 20
148.9679999999999
 30
0.0
 11
89.014799999999994
 21
152.102
 31
0.0
  0
LINE
  5
72
  8
0
 62
     7
 10
105.1989999999999
 20
172.51300000000001
 30
0.0
 11
101.17
 21
173.22399999999999
 31
0.0
  0
LINE
  5
73
  8
0
  6
AIGENLINE002
 62
     7
 10
100.48099999999999
 20
173.34599999999989
 30
0.0
 11
66.104399999999998
 21
179.405
 31
0.0
  0
LINE
  5
74
  8
0
  6
AIGENLINE002
 62
     7
 10
88.4041
 20
152.83099999999999
 30
0.0
 11
66.104399999999998
 21
179.405
 31
0.0
  0
ARC
  5
75
  8
0
 62
     7
 10
66.146917000000002
 20
179.480513
 30
0.0
 40
35.866728999999992
 50
70.026499000000001
 51
90.066818999999981
  0
ARC
  5
76
  8
0
 62
     7
 10
66.116318000000007
 20
179.17843799999989
 30
0.0
 40
36.168781000000003
 50
90.017789000000008
 51
109.89456199999999
  0
LINE
  5
77
  8
0
 62
     7
 10
56.08979999999999
 20
213.38099999999989
 30
0.0
 11
53.808399999999999
 21
213.18899999999999
 31
0.0
  0
LINE
  5
78
  8
0
 62
     7
 10
53.808399999999999
 20
213.18899999999999
 30
0.0
 11
55.688099999999999
 21
214.4959999999999
 31
0.0
  0
LINE
  5
79
  8
0
 62
     7
 10
55.688099999999999
 20
214.4959999999999
 30
0.0
 11
56.08979999999999
 21
213.38099999999989
 31
0.0
  0
LINE
  5
7A
  8
0
 62
     7
 10
76.117099999999994
 20
213.38200000000001
 30
0.0
 11
78.398499999999999
 21
213.18999999999991
 31
0.0
  0
LINE
  5
7B
  8
0
 62
     7
 10
78.398499999999999
 20
213.18999999999991
 30
0.0
 11
76.518799999999999
 21
214.49700000000001
 31
0.0
  0
LINE
  5
7C
  8
0
 62
     7
 10
76.518799999999999
 20
214.49700000000001
 30
0.0
 11
76.117099999999994
 21
213.38200000000001
 31
0.0
  0
LINE
  5
7D
  8
0
 62
     7
 10
78.661799999999985
 20
213.905
 30
0.0
 11
77.262100000000004
 21
210.059
 31
0.0
  0
LINE
  5
7E
  8
0
  6
AIGENLINE002
 62
     7
 10
77.0227
 20
209.4019999999999
 30
0.0
 11
66.104699999999994
 21
179.405
 31
0.0
  0
LINE
  5
7F
  8
0
 62
     7
 10
53.547600000000003
 20
213.905
 30
0.0
 11
54.947400000000002
 21
210.059
 31
0.0
  0
LINE
  5
80
  8
0
  6
AIGENLINE002
 62
     7
 10
55.186799999999991
 20
209.4019999999999
 30
0.0
 11
66.104699999999994
 21
179.405
 31
0.0
  0
LINE
  5
81
  8
0
  6
AIGENLINE003
 62
     7
 10
66.104900000000001
 20
110.496
 30
0.0
 11
66.104900000000001
 21
89.712599999999995
 31
0.0
  0
LINE
  5
82
  8
0
 62
     7
 10
169.28099999999989
 20
109.6479999999999
 30
0.0
 11
169.28099999999989
 21
119.56399999999999
 31
0.0
  0
LINE
  5
83
  8
0
 62
     7
 10
150.30699999999999
 20
111.54600000000001
 30
0.0
 11
150.30699999999999
 21
119.56399999999999
 31
0.0
  0
LINE
  5
84
  8
0
  6
AIGENLINE002
 62
     7
 10
168.68499999999989
 20
97.964699999999993
 30
0.0
 11
131.93000000000001
 21
97.964699999999993
 31
0.0
  0
LINE
  5
85
  8
0
  6
AIGENLINE001
 62
     7
 10
158.96399999999991
 20
93.465000000000003
 30
0.0
 11
159.4079999999999
 21
95.864900000000006
 31
0.0
  0
LINE
  5
86
  8
0
  6
AIGENLINE001
 62
     7
 10
158.44999999999999
 20
97.964699999999993
 30
0.0
 11
158.35699999999991
 21
93.9649
 31
0.0
  0
LINE
  5
87
  8
0
  6
AIGENLINE001
 62
     7
 10
141.65000000000001
 20
93.465000000000003
 30
0.0
 11
141.20699999999991
 21
95.864900000000006
 31
0.0
  0
LINE
  5
88
  8
0
  6
AIGENLINE002
 62
     7
 10
168.68499999999989
 20
96.164900000000003
 30
0.0
 11
131.93000000000001
 21
96.164900000000003
 31
0.0
  0
LINE
  5
89
  8
0
 62
     7
 10
167.06999999999999
 20
118.286
 30
0.0
 11
169.28099999999989
 21
118.879
 31
0.0
  0
LINE
  5
8A
  8
0
 62
     7
 10
169.28099999999989
 20
118.879
 30
0.0
 11
167.06999999999999
 21
119.471
 31
0.0
  0
LINE
  5
8B
  8
0
 62
     7
 10
167.06999999999999
 20
119.471
 30
0.0
 11
167.06999999999999
 21
118.286
 31
0.0
  0
LINE
  5
8C
  8
0
 62
     7
 10
152.51900000000001
 20
119.45699999999999
 30
0.0
 11
150.30699999999999
 21
118.8639999999999
 31
0.0
  0
LINE
  5
8D
  8
0
 62
     7
 10
150.30699999999999
 20
118.8639999999999
 30
0.0
 11
152.51900000000001
 21
118.27199999999991
 31
0.0
  0
LINE
  5
8E
  8
0
 62
     7
 10
152.51900000000001
 20
118.27199999999991
 30
0.0
 11
152.51900000000001
 21
119.45699999999999
 31
0.0
  0
LINE
  5
8F
  8
0
 62
     7
 10
169.28099999999989
 20
118.879
 30
0.0
 11
150.30699999999999
 21
118.879
 31
0.0
  0
LINE
  5
90
  8
0
 62
     7
 10
158.5989999999999
 20
81.861800000000002
 30
0.0
 11
160.81100000000001
 21
82.454400000000007
 31
0.0
  0
LINE
  5
91
  8
0
 62
     7
 10
160.81100000000001
 20
82.454400000000007
 30
0.0
 11
158.5989999999999
 21
83.047000000000025
 31
0.0
  0
LINE
  5
92
  8
0
 62
     7
 10
158.5989999999999
 20
83.047000000000025
 30
0.0
 11
158.5989999999999
 21
81.861800000000002
 31
0.0
  0
LINE
  5
93
  8
0
 62
     7
 10
136.196
 20
93.878099999999989
 30
0.0
 11
136.3179999999999
 21
96.164900000000003
 31
0.0
  0
LINE
  5
94
  8
0
 62
     7
 10
136.3179999999999
 20
96.164900000000003
 30
0.0
 11
135.0689999999999
 21
94.2453
 31
0.0
  0
LINE
  5
95
  8
0
 62
     7
 10
135.0689999999999
 20
94.2453
 30
0.0
 11
136.196
 21
93.878099999999989
 31
0.0
  0
LINE
  5
96
  8
0
 62
     7
 10
131.81100000000001
 20
82.338999999999999
 30
0.0
 11
136.3179999999999
 21
96.164900000000003
 31
0.0
  0
LINE
  5
97
  8
0
 62
     7
 10
142.02199999999999
 20
83.032499999999999
 30
0.0
 11
139.81
 21
82.439899999999994
 31
0.0
  0
LINE
  5
98
  8
0
 62
     7
 10
139.81
 20
82.439899999999994
 30
0.0
 11
142.02199999999999
 21
81.847399999999993
 31
0.0
  0
LINE
  5
99
  8
0
 62
     7
 10
142.02199999999999
 20
81.847399999999993
 30
0.0
 11
142.02199999999999
 21
83.032499999999999
 31
0.0
  0
LINE
  5
9A
  8
0
 62
     7
 10
131.81100000000001
 20
82.338999999999999
 30
0.0
 11
116.8889999999999
 21
82.338999999999999
 31
0.0
  0
LINE
  5
9B
  8
0
 62
     7
 10
160.81100000000001
 20
82.454400000000007
 30
0.0
 11
139.81
 21
82.454400000000007
 31
0.0
  0
LINE
  5
9C
  8
0
 62
     7
 10
160.81100000000001
 20
81.754400000000004
 30
0.0
 11
160.81100000000001
 21
96.602800000000002
 31
0.0
  0
LINE
  5
9D
  8
0
 62
     7
 10
139.81100000000001
 20
81.754400000000004
 30
0.0
 11
139.81100000000001
 21
96.602800000000002
 31
0.0
  0
LINE
  5
9E
  8
0
 62
     7
 10
150.30699999999999
 20
92.964799999999997
 30
0.0
 11
159.143
 21
92.964799999999997
 31
0.0
  0
ARC
  5
9F
  8
0
 62
     7
 10
159.1364659999999
 20
93.170327999999984
 30
0.0
 40
0.205667
 50
271.83661899999993
 51
353.49089700000002
  0
LINE
  5
A0
  8
0
 62
     7
 10
159.34100000000001
 20
93.147000000000006
 30
0.0
 11
159.7889999999999
 21
95.574100000000001
 31
0.0
  0
ARC
  5
A1
  8
0
 62
     7
 10
160.24973799999989
 20
95.533568000000017
 30
0.0
 40
0.4621570000000001
 50
134.20471099999989
 51
174.96874199999991
  0
LINE
  5
A2
  8
0
 62
     7
 10
160.30799999999999
 20
96.164900000000003
 30
0.0
 11
160.30799999999999
 21
95.864900000000006
 31
0.0
  0
LINE
  5
A3
  8
0
 62
     7
 10
150.30699999999999
 20
95.864900000000006
 30
0.0
 11
160.30799999999999
 21
95.864900000000006
 31
0.0
  0
LINE
  5
A4
  8
0
 62
     7
 10
150.30699999999999
 20
96.164900000000003
 30
0.0
 11
160.30799999999999
 21
96.164900000000003
 31
0.0
  0
LINE
  5
A5
  8
0
  6
AIGENLINE001
 62
     7
 10
142.1639999999999
 20
97.964699999999993
 30
0.0
 11
142.2579999999999
 21
93.9649
 31
0.0
  0
LINE
  5
A6
  8
0
 62
     7
 10
150.30699999999999
 20
92.964799999999997
 30
0.0
 11
141.47200000000001
 21
92.964799999999997
 31
0.0
  0
ARC
  5
A7
  8
0
 62
     7
 10
141.47807800000001
 20
93.170124999999999
 30
0.0
 40
0.205458
 50
186.45881799999989
 51
268.213706
  0
LINE
  5
A8
  8
0
 62
     7
 10
141.274
 20
93.147000000000006
 30
0.0
 11
140.8249999999999
 21
95.574100000000001
 31
0.0
  0
ARC
  5
A9
  8
0
 62
     7
 10
140.364993
 20
95.533568000000017
 30
0.0
 40
0.4621570000000001
 50
5.0312380000000001
 51
45.795268999999998
  0
LINE
  5
AA
  8
0
 62
     7
 10
140.30699999999999
 20
96.164900000000003
 30
0.0
 11
140.30699999999999
 21
95.864900000000006
 31
0.0
  0
LINE
  5
AB
  8
0
 62
     7
 10
150.30699999999999
 20
95.864900000000006
 30
0.0
 11
140.30699999999999
 21
95.864900000000006
 31
0.0
  0
LINE
  5
AC
  8
0
 62
     7
 10
150.30699999999999
 20
96.164900000000003
 30
0.0
 11
140.30699999999999
 21
96.164900000000003
 31
0.0
  0
LINE
  5
AD
  8
0
  6
AIGENLINE003
 62
     7
 10
158.607
 20
94.202299999999994
 30
0.0
 11
158.607
 21
89.712599999999995
 31
0.0
  0
LINE
  5
AE
  8
0
 62
     7
 10
158.30699999999999
 20
91.264899999999997
 30
0.0
 11
158.30699999999999
 21
92.765000000000001
 31
0.0
  0
LINE
  5
AF
  8
0
 62
     7
 10
158.30699999999999
 20
91.264899999999997
 30
0.0
 11
158.607
 21
91.264899999999997
 31
0.0
  0
LINE
  5
B0
  8
0
 62
     7
 10
158.13200000000001
 20
92.765000000000001
 30
0.0
 11
158.13200000000001
 21
92.964799999999997
 31
0.0
  0
LINE
  5
B1
  8
0
 62
     7
 10
158.13200000000001
 20
92.765000000000001
 30
0.0
 11
158.607
 21
92.765000000000001
 31
0.0
  0
LINE
  5
B2
  8
0
 62
     7
 10
159.08199999999991
 20
92.765000000000001
 30
0.0
 11
159.08199999999991
 21
92.964799999999997
 31
0.0
  0
LINE
  5
B3
  8
0
 62
     7
 10
159.08199999999991
 20
92.765000000000001
 30
0.0
 11
158.607
 21
92.765000000000001
 31
0.0
  0
LINE
  5
B4
  8
0
 62
     7
 10
158.90700000000001
 20
91.264899999999997
 30
0.0
 11
158.90700000000001
 21
92.765000000000001
 31
0.0
  0
LINE
  5
B5
  8
0
 62
     7
 10
158.90700000000001
 20
91.264899999999997
 30
0.0
 11
158.607
 21
91.264899999999997
 31
0.0
  0
LINE
  5
B6
  8
0
  6
AIGENLINE003
 62
     7
 10
145.80699999999999
 20
94.202299999999994
 30
0.0
 11
145.80699999999999
 21
89.712599999999995
 31
0.0
  0
LINE
  5
B7
  8
0
  6
AIGENLINE003
 62
     7
 10
150.30699999999999
 20
110.496
 30
0.0
 11
150.30699999999999
 21
89.712599999999995
 31
0.0
  0
LINE
  5
B8
  8
0
  6
AIGENLINE001
 62
     7
 10
158.96399999999991
 20
93.465000000000003
 30
0.0
 11
141.65000000000001
 21
93.465000000000003
 31
0.0
  0
LINE
  5
B9
  8
0
  6
AIGENLINE001
 62
     7
 10
158.35699999999991
 20
93.9649
 30
0.0
 11
142.2579999999999
 21
93.9649
 31
0.0
  0
LINE
  5
BA
  8
0
 62
     7
 10
146.107
 20
91.264899999999997
 30
0.0
 11
146.107
 21
92.765000000000001
 31
0.0
  0
LINE
  5
BB
  8
0
 62
     7
 10
146.107
 20
91.264899999999997
 30
0.0
 11
145.80699999999999
 21
91.264899999999997
 31
0.0
  0
LINE
  5
BC
  8
0
 62
     7
 10
146.28200000000001
 20
92.765000000000001
 30
0.0
 11
146.28200000000001
 21
92.964799999999997
 31
0.0
  0
LINE
  5
BD
  8
0
 62
     7
 10
146.28200000000001
 20
92.765000000000001
 30
0.0
 11
145.80699999999999
 21
92.765000000000001
 31
0.0
  0
LINE
  5
BE
  8
0
 62
     7
 10
145.333
 20
92.765000000000001
 30
0.0
 11
145.333
 21
92.964799999999997
 31
0.0
  0
LINE
  5
BF
  8
0
 62
     7
 10
145.33199999999991
 20
92.765000000000001
 30
0.0
 11
145.80699999999999
 21
92.765000000000001
 31
0.0
  0
LINE
  5
C0
  8
0
 62
     7
 10
145.50700000000001
 20
91.264899999999997
 30
0.0
 11
145.50700000000001
 21
92.765000000000001
 31
0.0
  0
LINE
  5
C1
  8
0
 62
     7
 10
145.50700000000001
 20
91.264899999999997
 30
0.0
 11
145.80699999999999
 21
91.264899999999997
 31
0.0
  0
ARC
  5
C2
  8
0
  6
AIGENLINE001
 62
     7
 10
90.409062000000006
 20
111.081103
 30
0.0
 40
3.6273659999999999
 50
318.43731200000002
 51
324.30380099999991
  0
ARC
  5
C3
  8
0
  6
AIGENLINE001
 62
     7
 10
84.420918
 20
116.182011
 30
0.0
 40
11.493078999999989
 50
310.212378
 51
319.21560899999992
  0
ARC
  5
C4
  8
0
  6
AIGENLINE001
 62
     7
 10
79.357011999999997
 20
121.880912
 30
0.0
 40
19.115376999999999
 50
300.60530899999992
 51
310.77513099999999
  0
ARC
  5
C5
  8
0
  6
AIGENLINE001
 62
     7
 10
74.883788999999993
 20
129.05784800000001
 30
0.0
 40
27.570637999999999
 50
289.68673599999988
 51
301.01294200000001
  0
ARC
  5
C6
  8
0
  6
AIGENLINE001
 62
     7
 10
70.781405000000007
 20
139.58794499999999
 30
0.0
 40
38.868515000000002
 50
280.11250999999987
 51
290.15144099999998
  0
ARC
  5
C7
  8
0
  6
AIGENLINE001
 62
     7
 10
67.700832999999989
 20
154.64992899999999
 30
0.0
 40
54.238790000000002
 50
272.54036799999989
 51
280.52249699999999
  0
ARC
  5
C8
  8
0
  6
AIGENLINE001
 62
     7
 10
165.572045
 20
109.238275
 30
0.0
 40
1.7570439999999989
 50
342.71302300000002
 51
351.03856000000002
  0
ARC
  5
C9
  8
0
  6
AIGENLINE001
 62
     7
 10
162.51244700000001
 20
110.10000699999991
 30
0.0
 40
4.9352609999999988
 50
330.78820000000002
 51
343.71586400000001
  0
ARC
  5
CA
  8
0
  6
AIGENLINE001
 62
     7
 10
159.64897799999989
 20
111.59675
 30
0.0
 40
8.1655359999999995
 50
315.41881000000001
 51
331.42741999999998
  0
ARC
  5
CB
  8
0
  6
AIGENLINE001
 62
     7
 10
156.44955899999999
 20
114.514522
 30
0.0
 40
12.493506999999999
 50
303.86525699999987
 51
316.18714199999999
  0
ARC
  5
CC
  8
0
  6
AIGENLINE001
 62
     7
 10
152.9659429999999
 20
119.40755299999999
 30
0.0
 40
18.498398000000002
 50
294.40229099999999
 51
304.37948899999998
  0
ARC
  5
CD
  8
0
  6
AIGENLINE001
 62
     7
 10
148.94351499999999
 20
127.7774159999999
 30
0.0
 40
27.783144
 50
286.24738400000001
 51
294.82538899999997
  0
ARC
  5
CE
  8
0
  6
AIGENLINE001
 62
     7
 10
145.4205879999999
 20
138.809515
 30
0.0
 40
39.361422999999988
 50
283.04858100000001
 51
286.67769500000003
  0
ARC
  5
CF
  8
0
 62
     7
 10
155.12368499999999
 20
111.2703259999999
 30
0.0
 40
13.730605000000001
 50
296.35157500000003
 51
311.18484799999999
  0
ARC
  5
D0
  8
0
 62
     7
 10
151.971093
 20
115.13892299999991
 30
0.0
 40
18.718836
 50
310.64971700000001
 51
334.35981900000002
  0
ARC
  5
D1
  8
0
 62
     7
 10
161.51177200000001
 20
110.39776500000001
 30
0.0
 40
8.0673689999999993
 50
335.39585399999987
 51
340.78477299999992
  0
ARC
  5
D2
  8
0
 62
     7
 10
165.67590100000001
 20
108.9666889999999
 30
0.0
 40
3.6642860000000002
 50
340.48549500000001
 51
348.683494
  0
LINE
  5
D3
  8
0
 62
     7
 10
161.142
 20
98.964799999999997
 30
0.0
 11
150.30699999999999
 21
98.964799999999997
 31
0.0
  0
LINE
  5
D4
  8
0
 62
     7
 10
150.30699999999999
 20
97.964699999999993
 30
0.0
 11
160.5629999999999
 21
97.964699999999993
 31
0.0
  0
LINE
  5
D5
  8
0
 62
     7
 10
168.75599999999989
 20
108.9649999999999
 30
0.0
 11
150.30699999999999
 21
108.9649999999999
 31
0.0
  0
LINE
  5
D6
  8
0
 62
     7
 10
169.26899999999989
 20
108.24799999999991
 30
0.0
 11
150.30699999999999
 21
108.24799999999991
 31
0.0
  0
ARC
  5
D7
  8
0
 62
     7
 10
160.55898099999999
 20
98.175584999999998
 30
0.0
 40
0.210968
 50
271.22196500000001
 51
343.47010399999999
  0
LINE
  5
D8
  8
0
 62
     7
 10
160.761
 20
98.115600000000001
 30
0.0
 11
160.804
 21
98.587199999999996
 31
0.0
  0
ARC
  5
D9
  8
0
 62
     7
 10
161.19769999999991
 20
98.514898000000017
 30
0.0
 40
0.4003340000000001
 50
128.1041129999999
 51
169.59533799999991
  0
ARC
  5
DA
  8
0
 62
     7
 10
161.451661
 20
98.178556000000015
 30
0.0
 40
0.821752
 50
106.490861
 51
127.56620700000001
  0
ARC
  5
DB
  8
0
 62
     7
 10
168.779991
 20
108.44685200000001
 30
0.0
 40
0.527411
 50
341.91578900000002
 51
37.022154999999991
  0
ARC
  5
DC
  8
0
 62
     7
 10
168.78713899999991
 20
108.438855
 30
0.0
 40
0.526628
 50
38.185122999999997
 51
93.355681000000004
  0
ARC
  5
DD
  8
0
  6
AIGENLINE001
 62
     7
 10
135.04165900000001
 20
109.238108
 30
0.0
 40
1.7560039999999999
 50
188.96130400000001
 51
197.29186399999989
  0
ARC
  5
DE
  8
0
  6
AIGENLINE001
 62
     7
 10
138.10475500000001
 20
110.1012649999999
 30
0.0
 40
4.937975999999999
 50
196.29016299999989
 51
209.2109329999999
  0
ARC
  5
DF
  8
0
  6
AIGENLINE001
 62
     7
 10
140.96657500000001
 20
111.597655
 30
0.0
 40
8.1666340000000002
 50
208.57563400000001
 51
224.5825319999999
  0
ARC
  5
E0
  8
0
  6
AIGENLINE001
 62
     7
 10
144.16522099999989
 20
114.514679
 30
0.0
 40
12.493527
 50
223.8137899999999
 51
236.13592099999991
  0
ARC
  5
E1
  8
0
  6
AIGENLINE001
 62
     7
 10
147.649574
 20
119.4087679999999
 30
0.0
 40
18.499704999999992
 50
235.62128100000001
 51
245.59791899999991
  0
ARC
  5
E2
  8
0
  6
AIGENLINE001
 62
     7
 10
151.67218500000001
 20
127.779371
 30
0.0
 40
27.785198999999999
 50
245.175073
 51
253.75250600000001
  0
ARC
  5
E3
  8
0
  6
AIGENLINE001
 62
     7
 10
155.19567499999991
 20
138.814177
 30
0.0
 40
39.366233000000001
 50
253.32260299999999
 51
256.95128799999992
  0
ARC
  5
E4
  8
0
 62
     7
 10
145.4910459999999
 20
111.2703259999999
 30
0.0
 40
13.730605000000001
 50
228.81517199999999
 51
243.64844500000001
  0
ARC
  5
E5
  8
0
 62
     7
 10
148.6436379999999
 20
115.13892299999991
 30
0.0
 40
18.718836
 50
205.64020099999991
 51
229.350303
  0
ARC
  5
E6
  8
0
 62
     7
 10
139.102959
 20
110.39776500000001
 30
0.0
 40
8.0673689999999993
 50
199.21524699999989
 51
204.60416599999999
  0
ARC
  5
E7
  8
0
 62
     7
 10
134.93882999999991
 20
108.9666889999999
 30
0.0
 40
3.6642860000000002
 50
191.31652600000001
 51
199.51452499999999
  0
LINE
  5
E8
  8
0
 62
     7
 10
139.47200000000001
 20
98.964799999999997
 30
0.0
 11
150.30699999999999
 21
98.964799999999997
 31
0.0
  0
LINE
  5
E9
  8
0
 62
     7
 10
150.30699999999999
 20
97.964699999999993
 30
0.0
 11
140.05099999999999
 21
97.964699999999993
 31
0.0
  0
LINE
  5
EA
  8
0
 62
     7
 10
131.858
 20
108.9649999999999
 30
0.0
 11
150.30699999999999
 21
108.9649999999999
 31
0.0
  0
LINE
  5
EB
  8
0
 62
     7
 10
131.346
 20
108.24799999999991
 30
0.0
 11
150.30699999999999
 21
108.24799999999991
 31
0.0
  0
ARC
  5
EC
  8
0
 62
     7
 10
140.05571499999999
 20
98.175539000000001
 30
0.0
 40
0.210921
 50
196.52061199999989
 51
268.78735799999993
  0
LINE
  5
ED
  8
0
 62
     7
 10
139.8539999999999
 20
98.115600000000001
 30
0.0
 11
139.81100000000001
 21
98.587199999999996
 31
0.0
  0
ARC
  5
EE
  8
0
 62
     7
 10
139.41703100000001
 20
98.514898000000017
 30
0.0
 40
0.4003340000000001
 50
10.40464199999999
 51
51.895868
  0
ARC
  5
EF
  8
0
 62
     7
 10
139.16307
 20
98.178556000000015
 30
0.0
 40
0.821752
 50
52.433772999999981
 51
73.509118999999984
  0
ARC
  5
F0
  8
0
 62
     7
 10
131.8347399999999
 20
108.44685200000001
 30
0.0
 40
0.527411
 50
142.97780700000001
 51
198.08424899999989
  0
ARC
  5
F1
  8
0
 62
     7
 10
131.827461
 20
108.43914599999989
 30
0.0
 40
0.526345
 50
86.628214
 51
141.83094299999991
  0
ARC
  5
F2
  8
0
  6
AIGENLINE001
 62
     7
 10
41.781410999999999
 20
111.06611699999991
 30
0.0
 40
3.6031889999999991
 50
215.67900900000001
 51
221.58510899999999
  0
ARC
  5
F3
  8
0
  6
AIGENLINE001
 62
     7
 10
47.788761000000001
 20
116.182698
 30
0.0
 40
11.493664999999989
 50
220.7864119999999
 51
229.789489
  0
ARC
  5
F4
  8
0
  6
AIGENLINE001
 62
     7
 10
52.852553
 20
121.8815219999999
 30
0.0
 40
19.115826999999999
 50
229.22612599999999
 51
239.3960229999999
  0
ARC
  5
F5
  8
0
  6
AIGENLINE001
 62
     7
 10
57.326423999999989
 20
129.059484
 30
0.0
 40
27.572299000000001
 50
238.9879379999999
 51
250.31373400000001
  0
ARC
  5
F6
  8
0
  6
AIGENLINE001
 62
     7
 10
61.428617000000003
 20
139.5889249999999
 30
0.0
 40
38.869490999999989
 50
249.848849
 51
259.88766600000002
  0
ARC
  5
F7
  8
0
  6
AIGENLINE001
 62
     7
 10
64.509263000000004
 20
154.65126699999999
 30
0.0
 40
54.240130999999998
 50
259.47763500000002
 51
267.4596049999999
  0
LINE
  5
F8
  8
0
  6
AIGENLINE001
 62
     7
 10
74.761799999999994
 20
93.465000000000003
 30
0.0
 11
75.205200000000005
 21
95.864900000000006
 31
0.0
  0
LINE
  5
F9
  8
0
  6
AIGENLINE001
 62
     7
 10
74.247799999999998
 20
97.964699999999993
 30
0.0
 11
74.1541
 21
93.9649
 31
0.0
  0
LINE
  5
FA
  8
0
  6
AIGENLINE001
 62
     7
 10
57.448
 20
93.465000000000003
 30
0.0
 11
57.004600000000003
 21
95.864900000000006
 31
0.0
  0
LINE
  5
FB
  8
0
 62
     7
 10
66.104900000000001
 20
92.964799999999997
 30
0.0
 11
74.940600000000003
 21
92.964799999999997
 31
0.0
  0
ARC
  5
FC
  8
0
 62
     7
 10
74.934010999999984
 20
93.170327999999984
 30
0.0
 40
0.205667
 50
271.83661899999993
 51
353.49089700000002
  0
LINE
  5
FD
  8
0
 62
     7
 10
75.138400000000004
 20
93.147000000000006
 30
0.0
 11
75.5869
 21
95.574100000000001
 31
0.0
  0
ARC
  5
FE
  8
0
 62
     7
 10
76.047281999999996
 20
95.533568000000017
 30
0.0
 40
0.4621570000000001
 50
134.20471099999989
 51
174.96874199999991
  0
LINE
  5
FF
  8
0
 62
     7
 10
76.105099999999993
 20
96.164900000000003
 30
0.0
 11
76.105099999999993
 21
95.864900000000006
 31
0.0
  0
LINE
  5
100
  8
0
 62
     7
 10
66.104900000000001
 20
95.864900000000006
 30
0.0
 11
76.105099999999993
 21
95.864900000000006
 31
0.0
  0
LINE
  5
101
  8
0
 62
     7
 10
66.104900000000001
 20
96.164900000000003
 30
0.0
 11
76.105099999999993
 21
96.164900000000003
 31
0.0
  0
LINE
  5
102
  8
0
  6
AIGENLINE001
 62
     7
 10
57.961999999999989
 20
97.964699999999993
 30
0.0
 11
58.055700000000002
 21
93.9649
 31
0.0
  0
LINE
  5
103
  8
0
 62
     7
 10
66.104900000000001
 20
92.964799999999997
 30
0.0
 11
57.269199999999991
 21
92.964799999999997
 31
0.0
  0
ARC
  5
104
  8
0
 62
     7
 10
57.275616999999997
 20
93.170119999999997
 30
0.0
 40
0.205452
 50
186.45739800000001
 51
268.21512599999988
  0
LINE
  5
105
  8
0
 62
     7
 10
57.0715
 20
93.147000000000006
 30
0.0
 11
56.622900000000001
 21
95.574100000000001
 31
0.0
  0
ARC
  5
106
  8
0
 62
     7
 10
56.162537999999991
 20
95.533568000000017
 30
0.0
 40
0.4621570000000001
 50
5.0312380000000001
 51
45.795268999999998
  0
LINE
  5
107
  8
0
 62
     7
 10
56.10479999999999
 20
96.164900000000003
 30
0.0
 11
56.10479999999999
 21
95.864900000000006
 31
0.0
  0
LINE
  5
108
  8
0
 62
     7
 10
66.104900000000001
 20
95.864900000000006
 30
0.0
 11
56.10479999999999
 21
95.864900000000006
 31
0.0
  0
LINE
  5
109
  8
0
 62
     7
 10
66.104900000000001
 20
96.164900000000003
 30
0.0
 11
56.10479999999999
 21
96.164900000000003
 31
0.0
  0
LINE
  5
10A
  8
0
  6
AIGENLINE003
 62
     7
 10
74.404499999999999
 20
94.202299999999994
 30
0.0
 11
74.404499999999999
 21
89.712599999999995
 31
0.0
  0
LINE
  5
10B
  8
0
 62
     7
 10
74.104500000000002
 20
91.264899999999997
 30
0.0
 11
74.104500000000002
 21
92.765000000000001
 31
0.0
  0
LINE
  5
10C
  8
0
 62
     7
 10
74.104500000000002
 20
91.264899999999997
 30
0.0
 11
74.404499999999999
 21
91.264899999999997
 31
0.0
  0
LINE
  5
10D
  8
0
 62
     7
 10
73.929500000000004
 20
92.765000000000001
 30
0.0
 11
73.929500000000004
 21
92.964799999999997
 31
0.0
  0
LINE
  5
10E
  8
0
 62
     7
 10
73.929500000000004
 20
92.765000000000001
 30
0.0
 11
74.404499999999999
 21
92.765000000000001
 31
0.0
  0
LINE
  5
10F
  8
0
 62
     7
 10
74.879300000000001
 20
92.765000000000001
 30
0.0
 11
74.879300000000001
 21
92.964799999999997
 31
0.0
  0
LINE
  5
110
  8
0
 62
     7
 10
74.879599999999996
 20
92.765000000000001
 30
0.0
 11
74.404499999999999
 21
92.765000000000001
 31
0.0
  0
LINE
  5
111
  8
0
 62
     7
 10
74.704599999999999
 20
91.264899999999997
 30
0.0
 11
74.704599999999999
 21
92.765000000000001
 31
0.0
  0
LINE
  5
112
  8
0
 62
     7
 10
74.704599999999999
 20
91.264899999999997
 30
0.0
 11
74.404499999999999
 21
91.264899999999997
 31
0.0
  0
LINE
  5
113
  8
0
  6
AIGENLINE003
 62
     7
 10
57.805300000000003
 20
94.202299999999994
 30
0.0
 11
57.805300000000003
 21
89.712599999999995
 31
0.0
  0
LINE
  5
114
  8
0
  6
AIGENLINE001
 62
     7
 10
74.761799999999994
 20
93.465000000000003
 30
0.0
 11
57.448
 21
93.465000000000003
 31
0.0
  0
LINE
  5
115
  8
0
  6
AIGENLINE001
 62
     7
 10
74.1541
 20
93.9649
 30
0.0
 11
58.055700000000002
 21
93.9649
 31
0.0
  0
LINE
  5
116
  8
0
 62
     7
 10
66.405000000000001
 20
91.264899999999997
 30
0.0
 11
66.405000000000001
 21
92.765000000000001
 31
0.0
  0
LINE
  5
117
  8
0
 62
     7
 10
66.405000000000001
 20
91.264899999999997
 30
0.0
 11
66.104900000000001
 21
91.264899999999997
 31
0.0
  0
LINE
  5
118
  8
0
 62
     7
 10
66.579999999999998
 20
92.765000000000001
 30
0.0
 11
66.579999999999998
 21
92.964799999999997
 31
0.0
  0
LINE
  5
119
  8
0
 62
     7
 10
66.579999999999998
 20
92.765000000000001
 30
0.0
 11
66.104900000000001
 21
92.765000000000001
 31
0.0
  0
LINE
  5
11A
  8
0
 62
     7
 10
65.630200000000002
 20
92.765000000000001
 30
0.0
 11
65.630200000000002
 21
92.964799999999997
 31
0.0
  0
LINE
  5
11B
  8
0
 62
     7
 10
65.629800000000003
 20
92.765000000000001
 30
0.0
 11
66.104900000000001
 21
92.765000000000001
 31
0.0
  0
LINE
  5
11C
  8
0
 62
     7
 10
65.8048
 20
91.264899999999997
 30
0.0
 11
65.8048
 21
92.765000000000001
 31
0.0
  0
LINE
  5
11D
  8
0
 62
     7
 10
65.8048
 20
91.264899999999997
 30
0.0
 11
66.104900000000001
 21
91.264899999999997
 31
0.0
  0
LINE
  5
11E
  8
0
 62
     7
 10
58.105299999999993
 20
91.264899999999997
 30
0.0
 11
58.105299999999993
 21
92.765000000000001
 31
0.0
  0
LINE
  5
11F
  8
0
 62
     7
 10
58.105299999999993
 20
91.264899999999997
 30
0.0
 11
57.805300000000003
 21
91.264899999999997
 31
0.0
  0
LINE
  5
120
  8
0
 62
     7
 10
58.2804
 20
92.765000000000001
 30
0.0
 11
58.2804
 21
92.964799999999997
 31
0.0
  0
LINE
  5
121
  8
0
 62
     7
 10
58.2804
 20
92.765000000000001
 30
0.0
 11
57.805300000000003
 21
92.765000000000001
 31
0.0
  0
LINE
  5
122
  8
0
 62
     7
 10
57.330500000000001
 20
92.765000000000001
 30
0.0
 11
57.330500000000001
 21
92.964799999999997
 31
0.0
  0
LINE
  5
123
  8
0
 62
     7
 10
57.330199999999991
 20
92.765000000000001
 30
0.0
 11
57.805300000000003
 21
92.765000000000001
 31
0.0
  0
LINE
  5
124
  8
0
 62
     7
 10
57.505200000000002
 20
91.264899999999997
 30
0.0
 11
57.505200000000002
 21
92.765000000000001
 31
0.0
  0
LINE
  5
125
  8
0
 62
     7
 10
57.505200000000002
 20
91.264899999999997
 30
0.0
 11
57.805300000000003
 21
91.264899999999997
 31
0.0
  0
LINE
  5
126
  8
0
  6
AIGENLINE002
 62
     7
 10
84.482200000000006
 20
96.164900000000003
 30
0.0
 11
47.727600000000002
 21
96.164900000000003
 31
0.0
  0
LINE
  5
127
  8
0
  6
AIGENLINE002
 62
     7
 10
84.482200000000006
 20
97.964699999999993
 30
0.0
 11
47.727600000000002
 21
97.964699999999993
 31
0.0
  0
LINE
  5
128
  8
0
 62
     7
 10
78.892799999999994
 20
81.861800000000002
 30
0.0
 11
81.104600000000005
 21
82.454400000000007
 31
0.0
  0
LINE
  5
129
  8
0
 62
     7
 10
81.104600000000005
 20
82.454400000000007
 30
0.0
 11
78.892799999999994
 21
83.047000000000025
 31
0.0
  0
LINE
  5
12A
  8
0
 62
     7
 10
78.892799999999994
 20
83.047000000000025
 30
0.0
 11
78.892799999999994
 21
81.861800000000002
 31
0.0
  0
LINE
  5
12B
  8
0
 62
     7
 10
53.316299999999998
 20
83.032499999999999
 30
0.0
 11
51.104500000000002
 21
82.439899999999994
 31
0.0
  0
LINE
  5
12C
  8
0
 62
     7
 10
51.104500000000002
 20
82.439899999999994
 30
0.0
 11
53.316299999999998
 21
81.847399999999993
 31
0.0
  0
LINE
  5
12D
  8
0
 62
     7
 10
53.316299999999998
 20
81.847399999999993
 30
0.0
 11
53.316299999999998
 21
83.032499999999999
 31
0.0
  0
LINE
  5
12E
  8
0
 62
     7
 10
81.104299999999995
 20
82.454400000000007
 30
0.0
 11
51.104500000000002
 21
82.454400000000007
 31
0.0
  0
LINE
  5
12F
  8
0
 62
     7
 10
81.104600000000005
 20
81.739900000000006
 30
0.0
 11
81.104600000000005
 21
97.452699999999993
 31
0.0
  0
LINE
  5
130
  8
0
 62
     7
 10
51.104500000000002
 20
81.739900000000006
 30
0.0
 11
51.104500000000002
 21
97.452699999999993
 31
0.0
  0
LINE
  5
131
  8
0
 62
     7
 10
81.567599999999999
 20
98.964799999999997
 30
0.0
 11
66.104900000000001
 21
98.964799999999997
 31
0.0
  0
LINE
  5
132
  8
0
 62
     7
 10
66.104900000000001
 20
97.964699999999993
 30
0.0
 11
80.988900000000001
 21
97.964699999999993
 31
0.0
  0
LINE
  5
133
  8
0
 62
     7
 10
94.803600000000003
 20
108.9649999999999
 30
0.0
 11
66.104900000000001
 21
108.9649999999999
 31
0.0
  0
LINE
  5
134
  8
0
 62
     7
 10
95.316599999999994
 20
108.24799999999991
 30
0.0
 11
66.104900000000001
 21
108.24799999999991
 31
0.0
  0
ARC
  5
135
  8
0
 62
     7
 10
80.984343999999993
 20
98.175595000000015
 30
0.0
 40
0.210977
 50
271.22383400000001
 51
343.46823499999999
  0
LINE
  5
136
  8
0
 62
     7
 10
81.186599999999999
 20
98.115600000000001
 30
0.0
 11
81.229299999999995
 21
98.587199999999996
 31
0.0
  0
ARC
  5
137
  8
0
 62
     7
 10
81.697195999999977
 20
98.492052000000001
 30
0.0
 40
0.477453
 50
96.425041000000007
 51
168.50517600000001
  0
LINE
  5
138
  8
0
 62
     7
 10
81.643799999999985
 20
98.966500000000011
 30
0.0
 11
82.1798
 21
99.067400000000006
 31
0.0
  0
ARC
  5
139
  8
0
 62
     7
 10
76.856440000000006
 20
127.2671499999999
 30
0.0
 40
28.697763999999999
 50
280.69019600000001
 51
293.832131
  0
ARC
  5
13A
  8
0
 62
     7
 10
81.548180999999985
 20
116.53695
 30
0.0
 40
16.986813999999999
 50
293.98031700000001
 51
306.98058099999997
  0
ARC
  5
13B
  8
0
 62
     7
 10
84.76388399999999
 20
112.0688029999999
 30
0.0
 40
11.48371
 50
307.57411000000002
 51
317.86762700000003
  0
ARC
  5
13C
  8
0
 62
     7
 10
87.475637000000006
 20
109.519356
 30
0.0
 40
7.7627249999999988
 50
318.39532200000002
 51
333.257679
  0
ARC
  5
13D
  8
0
 62
     7
 10
81.834291000000007
 20
112.471377
 30
0.0
 40
14.12935499999999
 50
332.86115099999989
 51
342.75722100000002
  0
ARC
  5
13E
  8
0
 62
     7
 10
94.828777000000017
 20
108.44740299999999
 30
0.0
 40
0.526157
 50
341.80806799999999
 51
37.050058999999997
  0
ARC
  5
13F
  8
0
 62
     7
 10
94.834722999999997
 20
108.438807
 30
0.0
 40
0.5266930000000001
 50
38.18615599999999
 51
93.387844999999999
  0
LINE
  5
140
  8
0
 62
     7
 10
50.642200000000003
 20
98.964799999999997
 30
0.0
 11
66.104900000000001
 21
98.964799999999997
 31
0.0
  0
LINE
  5
141
  8
0
 62
     7
 10
66.104900000000001
 20
97.964699999999993
 30
0.0
 11
51.220999999999997
 21
97.964699999999993
 31
0.0
  0
LINE
  5
142
  8
0
 62
     7
 10
37.406199999999991
 20
108.9649999999999
 30
0.0
 11
66.104900000000001
 21
108.9649999999999
 31
0.0
  0
LINE
  5
143
  8
0
 62
     7
 10
36.8932
 20
108.24799999999991
 30
0.0
 11
66.104900000000001
 21
108.24799999999991
 31
0.0
  0
ARC
  5
144
  8
0
 62
     7
 10
51.225439000000001
 20
98.175546000000011
 30
0.0
 40
0.210928
 50
196.52204199999991
 51
268.7859279999999
  0
LINE
  5
145
  8
0
 62
     7
 10
51.023200000000003
 20
98.115600000000001
 30
0.0
 11
50.980499999999999
 21
98.587199999999996
 31
0.0
  0
ARC
  5
146
  8
0
 62
     7
 10
50.512624999999993
 20
98.492052000000001
 30
0.0
 40
0.477453
 50
11.494804
 51
83.574938999999986
  0
LINE
  5
147
  8
0
 62
     7
 10
50.566099999999999
 20
98.966500000000011
 30
0.0
 11
50.030000000000001
 21
99.067400000000006
 31
0.0
  0
ARC
  5
148
  8
0
 62
     7
 10
56.349947999999998
 20
132.567204
 30
0.0
 40
34.090694999999997
 50
249.96432799999991
 51
259.31634300000002
  0
ARC
  5
149
  8
0
 62
     7
 10
52.46067
 20
121.19400399999989
 30
0.0
 40
22.074653999999999
 50
246.07320799999991
 51
249.33457899999991
  0
ARC
  5
14A
  8
0
 62
     7
 10
48.990084000000003
 20
113.315482
 30
0.0
 40
13.465635000000001
 50
221.65859199999991
 51
245.97557099999989
  0
ARC
  5
14B
  8
0
 62
     7
 10
44.739879999999999
 20
109.523223
 30
0.0
 40
7.7695530000000002
 50
206.748908
 51
221.59812999999991
  0
ARC
  5
14C
  8
0
 62
     7
 10
50.377679000000001
 20
112.47225400000001
 30
0.0
 40
14.131667
 50
197.2436099999999
 51
207.138057
  0
ARC
  5
14D
  8
0
 62
     7
 10
37.381390000000003
 20
108.4473449999999
 30
0.0
 40
0.5264680000000001
 50
142.96763899999999
 51
198.17423299999999
  0
ARC
  5
14E
  8
0
 62
     7
 10
37.375059999999991
 20
108.4388899999999
 30
0.0
 40
0.5266130000000001
 50
86.607557000000014
 51
141.81840199999991
  0
ARC
  5
14F
  8
0
 62
     7
 10
66.104908999999992
 20
179.40465499999999
 30
0.0
 40
4.2498969999999989
 50
270.00002000000001
 51
359.99998999999991
  0
ARC
  5
150
  8
0
 62
     7
 10
66.104737
 20
179.4048249999999
 30
0.0
 40
4.2500679999999988
 50
180.002332
 51
270.00234199999989
  0
ARC
  5
151
  8
0
 62
     7
 10
66.104825000000005
 20
179.4045669999999
 30
0.0
 40
4.2501559999999987
 50
89.998839000000004
 51
179.99880899999999
  0
ARC
  5
152
  8
0
 62
     7
 10
66.104822999999996
 20
179.40473899999989
 30
0.0
 40
4.2499839999999987
 50
359.99884900000001
 51
89.998818999999997
  0
ARC
  5
153
  8
0
 62
     7
 10
66.016766000000004
 20
179.49279799999991
 30
0.0
 40
2.3897300000000001
 50
272.113811
 51
357.88619899999998
  0
ARC
  5
154
  8
0
 62
     7
 10
66.192661999999999
 20
179.492763
 30
0.0
 40
2.3896820000000001
 50
182.113045
 51
267.89556699999991
  0
ARC
  5
155
  8
0
 62
     7
 10
66.192914000000002
 20
179.31647100000001
 30
0.0
 40
2.3899360000000001
 50
92.110256999999976
 51
177.885423
  0
ARC
  5
156
  8
0
 62
     7
 10
66.016346999999996
 20
179.31626900000001
 30
0.0
 40
2.390158
 50
2.1191919999999991
 51
87.876506999999975
  0
LINE
  5
157
  8
0
  6
AIGENLINE003
 62
     7
 10
66.104900000000001
 20
157.3129999999999
 30
0.0
 11
66.104900000000001
 21
202.08699999999999
 31
0.0
  0
LINE
  5
158
  8
0
  6
AIGENLINE003
 62
     7
 10
34.309100000000001
 20
179.405
 30
0.0
 11
97.532100000000014
 21
179.405
 31
0.0
  0
ARC
  5
159
  8
0
 62
     7
 10
17.257113
 20
179.40439499999999
 30
0.0
 40
76.094808
 50
349.61353700000001
 51
10.386462999999999
  0
ARC
  5
15A
  8
0
 62
     7
 10
87.868874000000005
 20
191.79538199999999
 30
0.0
 40
4.4394150000000003
 50
17.404529999999991
 51
28.975269999999998
  0
ARC
  5
15B
  8
0
 62
     7
 10
90.323660000000004
 20
193.15096199999999
 30
0.0
 40
1.6352139999999991
 50
29.090095000000002
 51
61.611030999999997
  0
ARC
  5
15C
  8
0
 62
     7
 10
89.158074999999997
 20
190.96510699999999
 30
0.0
 40
4.1124039999999988
 50
61.804175000000001
 51
71.84185500000001
  0
ARC
  5
15D
  8
0
 62
     7
 10
87.394581999999986
 20
185.63244299999991
 30
0.0
 40
9.7290880000000008
 50
71.76061
 51
82.449326999999997
  0
ARC
  5
15E
  8
0
 62
     7
 10
73.190139000000002
 20
77.993696999999983
 30
0.0
 40
118.3010249999999
 50
82.479721999999995
 51
84.337493999999992
  0
ARC
  5
15F
  8
0
 62
     7
 10
66.128508999999994
 20
-56.019379000000001
 30
0.0
 40
252.4329709999999
 50
85.743895999999992
 51
94.256083999999987
  0
ARC
  5
160
  8
0
 62
     7
 10
58.784657999999993
 20
80.436084999999991
 30
0.0
 40
115.8427149999999
 50
95.642771999999994
 51
97.539972000000006
  0
ARC
  5
161
  8
0
 62
     7
 10
44.862567999999989
 20
185.631867
 30
0.0
 40
9.7296759999999995
 50
97.550977000000003
 51
108.239046
  0
ARC
  5
162
  8
0
 62
     7
 10
43.082134999999987
 20
191.004366
 30
0.0
 40
4.069863999999999
 50
108.105529
 51
118.248401
  0
ARC
  5
163
  8
0
 62
     7
 10
41.923591000000002
 20
193.16084900000001
 30
0.0
 40
1.621877
 50
118.25147800000001
 51
151.04735500000001
  0
ARC
  5
164
  8
0
 62
     7
 10
44.443244
 20
191.76998
 30
0.0
 40
4.4999250000000002
 50
151.08162799999999
 51
162.49799299999989
  0
ARC
  5
165
  8
0
 62
     7
 10
112.24798199999999
 20
179.40439499999999
 30
0.0
 40
73.389993000000004
 50
169.22622799999999
 51
190.77377200000001
  0
ARC
  5
166
  8
0
 62
     7
 10
44.431672999999989
 20
167.0356679999999
 30
0.0
 40
4.487944999999999
 50
197.508174
 51
208.94699199999991
  0
ARC
  5
167
  8
0
 62
     7
 10
41.932311999999989
 20
165.655922
 30
0.0
 40
1.633038999999999
 50
209.02835400000001
 51
241.61150499999999
  0
ARC
  5
168
  8
0
 62
     7
 10
43.107309000000001
 20
167.86322499999989
 30
0.0
 40
4.1335800000000003
 50
241.82997099999989
 51
251.81609900000001
  0
ARC
  5
169
  8
0
 62
     7
 10
44.850113
 20
173.13888600000001
 30
0.0
 40
9.6896509999999996
 50
251.76050599999999
 51
262.49194099999988
  0
ARC
  5
16A
  8
0
 62
     7
 10
59.240701000000001
 20
282.13376
 30
0.0
 40
119.6304149999999
 50
262.47982200000001
 51
264.31698599999987
  0
ARC
  5
16B
  8
0
 62
     7
 10
66.128508999999994
 20
415.08249399999988
 30
0.0
 40
252.6865939999999
 50
265.74819600000001
 51
274.25182399999989
  0
ARC
  5
16C
  8
0
 62
     7
 10
73.304737000000003
 20
279.6416339999999
 30
0.0
 40
117.121983
 50
275.6633589999999
 51
277.539873
  0
ARC
  5
16D
  8
0
 62
     7
 10
87.404702
 20
173.14852899999991
 30
0.0
 40
9.6995000000000005
 50
277.51354300000003
 51
288.23405000000002
  0
ARC
  5
16E
  8
0
 62
     7
 10
89.136357999999987
 20
167.89441199999999
 30
0.0
 40
4.1673770000000001
 50
288.22451599999999
 51
298.12945400000001
  0
ARC
  5
16F
  8
0
 62
     7
 10
90.328598
 20
165.65198599999999
 30
0.0
 40
1.627726
 50
298.33385099999992
 51
331.02632999999992
  0
ARC
  5
170
  8
0
 62
     7
 10
87.833365999999998
 20
167.03043500000001
 30
0.0
 40
4.4783929999999987
 50
331.06194299999999
 51
342.52349299999997
  0
ARC
  5
171
  8
0
 62
     7
 10
20.008118
 20
179.40474
 30
0.0
 40
75.343254000000002
 50
349.13684999999998
 51
10.86314999999999
  0
ARC
  5
172
  8
0
 62
     7
 10
87.793536999999986
 20
191.78680199999999
 30
0.0
 40
6.4682659999999998
 50
16.318387999999992
 51
28.989409999999999
  0
ARC
  5
173
  8
0
 62
     7
 10
90.263483999999991
 20
193.14903100000001
 30
0.0
 40
3.647583
 50
29.075805999999989
 51
61.620656000000011
  0
ARC
  5
174
  8
0
 62
     7
 10
89.136284999999987
 20
191.02664300000001
 30
0.0
 40
6.0506919999999988
 50
61.782141000000003
 51
71.835329999999999
  0
ARC
  5
175
  8
0
 62
     7
 10
87.363334999999978
 20
185.65251499999991
 30
0.0
 40
11.709716999999991
 50
71.790239999999997
 51
82.455697999999998
  0
ARC
  5
176
  8
0
 62
     7
 10
73.085257999999996
 20
77.422293999999994
 30
0.0
 40
120.8776789999999
 50
82.481930999999989
 51
84.340698000000003
  0
ARC
  5
177
  8
0
 62
     7
 10
66.104737999999998
 20
-56.232293999999989
 30
0.0
 40
254.64549600000001
 50
85.743399999999994
 51
94.256580000000014
  0
ARC
  5
178
  8
0
 62
     7
 10
58.857888000000003
 20
79.728104999999999
 30
0.0
 40
118.556849
 50
95.641087999999996
 51
97.536243999999996
  0
ARC
  5
179
  8
0
 62
     7
 10
44.867809000000001
 20
185.55772899999999
 30
0.0
 40
11.806531
 50
97.588134999999994
 51
108.165887
  0
ARC
  5
17A
  8
0
 62
     7
 10
43.079239999999999
 20
191.0125219999999
 30
0.0
 40
6.0659960000000002
 50
108.1773639999999
 51
118.2051249999999
  0
ARC
  5
17B
  8
0
 62
     7
 10
41.925238999999998
 20
193.17003799999989
 30
0.0
 40
3.6192470000000001
 50
118.248339
 51
151.055159
  0
ARC
  5
17C
  8
0
 62
     7
 10
44.402301999999999
 20
191.79249300000001
 30
0.0
 40
6.4535809999999989
 50
150.996094
 51
163.69606899999991
  0
ARC
  5
17D
  8
0
 62
     7
 10
112.2331149999999
 20
179.40474
 30
0.0
 40
75.374442000000002
 50
169.14138
 51
190.85862
  0
ARC
  5
17E
  8
0
 62
     7
 10
44.439532
 20
167.03088099999991
 30
0.0
 40
6.493214
 50
196.32937899999999
 51
208.95716499999989
  0
ARC
  5
17F
  8
0
 62
     7
 10
41.951501999999998
 20
165.66533699999999
 30
0.0
 40
3.6551110000000002
 50
209.11026499999991
 51
241.5862369999999
  0
ARC
  5
180
  8
0
 62
     7
 10
43.095775000000003
 20
167.83486199999999
 30
0.0
 40
6.1078229999999998
 50
241.829297
 51
251.78821400000001
  0
ARC
  5
181
  8
0
 62
     7
 10
44.833775000000003
 20
173.118619
 30
0.0
 40
11.670082000000001
 50
251.79015699999991
 51
262.49118700000002
  0
ARC
  5
182
  8
0
 62
     7
 10
58.997050000000002
 20
280.10395699999998
 30
0.0
 40
119.58884999999989
 50
262.46191399999998
 51
264.34075200000001
  0
ARC
  5
183
  8
0
 62
     7
 10
66.104737999999998
 20
415.16814099999999
 30
0.0
 40
254.77220099999991
 50
265.745541
 51
274.254479
  0
ARC
  5
184
  8
0
 62
     7
 10
73.213104000000001
 20
280.09809000000001
 30
0.0
 40
119.5829449999999
 50
275.65922099999989
 51
277.53815200000003
  0
ARC
  5
185
  8
0
 62
     7
 10
87.373351000000014
 20
173.12891200000001
 30
0.0
 40
11.680593
 50
277.51366200000001
 51
288.20503400000001
  0
ARC
  5
186
  8
0
 62
     7
 10
89.085233999999986
 20
167.90130899999991
 30
0.0
 40
6.1798409999999997
 50
288.26997999999998
 51
298.112549
  0
ARC
  5
187
  8
0
 62
     7
 10
90.279040000000009
 20
165.644013
 30
0.0
 40
3.626341
 50
298.28134899999998
 51
331.02218799999991
  0
ARC
  5
188
  8
0
 62
     7
 10
87.765854000000004
 20
167.03258700000001
 30
0.0
 40
6.4976190000000003
 50
331.04715299999998
 51
343.66634299999998
  0
LINE
  5
189
  8
0
 62
     7
 10
91.143199999999993
 20
144.9789999999999
 30
0.0
 11
93.354900000000001
 21
145.572
 31
0.0
  0
LINE
  5
18A
  8
0
 62
     7
 10
93.354900000000001
 20
145.572
 30
0.0
 11
91.143199999999993
 21
146.1639999999999
 31
0.0
  0
LINE
  5
18B
  8
0
 62
     7
 10
91.143199999999993
 20
146.1639999999999
 30
0.0
 11
91.143199999999993
 21
144.9789999999999
 31
0.0
  0
LINE
  5
18C
  8
0
 62
     7
 10
41.066699999999997
 20
146.1639999999999
 30
0.0
 11
38.854900000000001
 21
145.572
 31
0.0
  0
LINE
  5
18D
  8
0
 62
     7
 10
38.854900000000001
 20
145.572
 30
0.0
 11
41.066699999999997
 21
144.9789999999999
 31
0.0
  0
LINE
  5
18E
  8
0
 62
     7
 10
41.066699999999997
 20
144.9789999999999
 30
0.0
 11
41.066699999999997
 21
146.1639999999999
 31
0.0
  0
LINE
  5
18F
  8
0
 62
     7
 10
93.354200000000006
 20
145.572
 30
0.0
 11
38.854900000000001
 21
145.572
 31
0.0
  0
LINE
  5
190
  8
0
 62
     7
 10
38.854900000000001
 20
144.87200000000001
 30
0.0
 11
38.854900000000001
 21
170.40000000000001
 31
0.0
  0
LINE
  5
191
  8
0
 62
     7
 10
93.354900000000001
 20
144.87200000000001
 30
0.0
 11
93.354900000000001
 21
170.40000000000001
 31
0.0
  0
LINE
  5
192
  8
0
 62
     7
 10
93.143199999999993
 20
138.15600000000001
 30
0.0
 11
95.355000000000004
 21
138.74899999999991
 31
0.0
  0
LINE
  5
193
  8
0
 62
     7
 10
95.355000000000004
 20
138.74899999999991
 30
0.0
 11
93.143199999999993
 21
139.34100000000001
 31
0.0
  0
LINE
  5
194
  8
0
 62
     7
 10
93.143199999999993
 20
139.34100000000001
 30
0.0
 11
93.143199999999993
 21
138.15600000000001
 31
0.0
  0
LINE
  5
195
  8
0
 62
     7
 10
39.066600000000001
 20
139.34100000000001
 30
0.0
 11
36.854799999999997
 21
138.74899999999991
 31
0.0
  0
LINE
  5
196
  8
0
 62
     7
 10
36.854799999999997
 20
138.74899999999991
 30
0.0
 11
39.066600000000001
 21
138.15600000000001
 31
0.0
  0
LINE
  5
197
  8
0
 62
     7
 10
39.066600000000001
 20
138.15600000000001
 30
0.0
 11
39.066600000000001
 21
139.34100000000001
 31
0.0
  0
LINE
  5
198
  8
0
 62
     7
 10
95.354299999999995
 20
138.74899999999991
 30
0.0
 11
36.854799999999997
 21
138.74899999999991
 31
0.0
  0
LINE
  5
199
  8
0
 62
     7
 10
36.854799999999997
 20
138.04899999999989
 30
0.0
 11
36.854799999999997
 21
169.864
 31
0.0
  0
LINE
  5
19A
  8
0
 62
     7
 10
95.355000000000004
 20
138.04899999999989
 30
0.0
 11
95.355000000000004
 21
169.864
 31
0.0
  0
LINE
  5
19B
  8
0
 62
     7
 10
111.47499999999989
 20
194.1929999999999
 30
0.0
 11
110.88200000000001
 21
196.405
 31
0.0
  0
LINE
  5
19C
  8
0
 62
     7
 10
110.88200000000001
 20
196.405
 30
0.0
 11
110.28999999999991
 21
194.1929999999999
 31
0.0
  0
LINE
  5
19D
  8
0
 62
     7
 10
110.28999999999991
 20
194.1929999999999
 30
0.0
 11
111.47499999999989
 21
194.1929999999999
 31
0.0
  0
LINE
  5
19E
  8
0
 62
     7
 10
110.28999999999991
 20
164.6159999999999
 30
0.0
 11
110.88200000000001
 21
162.40499999999989
 31
0.0
  0
LINE
  5
19F
  8
0
 62
     7
 10
110.88200000000001
 20
162.40499999999989
 30
0.0
 11
111.47499999999989
 21
164.6159999999999
 31
0.0
  0
LINE
  5
1A0
  8
0
 62
     7
 10
111.47499999999989
 20
164.6159999999999
 30
0.0
 11
110.28999999999991
 21
164.6159999999999
 31
0.0
  0
LINE
  5
1A1
  8
0
 62
     7
 10
110.88200000000001
 20
196.404
 30
0.0
 11
110.88200000000001
 21
162.40499999999989
 31
0.0
  0
LINE
  5
1A2
  8
0
 62
     7
 10
111.583
 20
162.40499999999989
 30
0.0
 11
82.708299999999994
 21
162.40499999999989
 31
0.0
  0
LINE
  5
1A3
  8
0
 62
     7
 10
111.583
 20
196.405
 30
0.0
 11
82.708299999999994
 21
196.405
 31
0.0
  0
LINE
  5
1A4
  8
0
 62
     7
 10
118.2979999999999
 20
196.1929999999999
 30
0.0
 11
117.7059999999999
 21
198.405
 31
0.0
  0
LINE
  5
1A5
  8
0
 62
     7
 10
117.7059999999999
 20
198.405
 30
0.0
 11
117.113
 21
196.1929999999999
 31
0.0
  0
LINE
  5
1A6
  8
0
 62
     7
 10
117.113
 20
196.1929999999999
 30
0.0
 11
118.2979999999999
 21
196.1929999999999
 31
0.0
  0
LINE
  5
1A7
  8
0
 62
     7
 10
117.113
 20
162.61600000000001
 30
0.0
 11
117.7059999999999
 21
160.40499999999989
 31
0.0
  0
LINE
  5
1A8
  8
0
 62
     7
 10
117.7059999999999
 20
160.40499999999989
 30
0.0
 11
118.2979999999999
 21
162.61600000000001
 31
0.0
  0
LINE
  5
1A9
  8
0
 62
     7
 10
118.2979999999999
 20
162.61600000000001
 30
0.0
 11
117.113
 21
162.61600000000001
 31
0.0
  0
LINE
  5
1AA
  8
0
 62
     7
 10
117.7059999999999
 20
198.404
 30
0.0
 11
117.7059999999999
 21
160.40499999999989
 31
0.0
  0
LINE
  5
1AB
  8
0
 62
     7
 10
118.40600000000001
 20
160.40499999999989
 30
0.0
 11
83.245099999999994
 21
160.40499999999989
 31
0.0
  0
LINE
  5
1AC
  8
0
 62
     7
 10
118.40600000000001
 20
198.405
 30
0.0
 11
83.245099999999994
 21
198.405
 31
0.0
  0
LINE
  5
1AD
  8
0
 62
     7
 10
113.9929999999999
 20
93.964499999999987
 30
0.0
 11
76.319000000000003
 21
93.964499999999987
 31
0.0
  0
LINE
  5
1AE
  8
0
 62
     7
 10
155.703
 20
183.96299999999991
 30
0.0
 11
156.8479999999999
 21
185.946
 31
0.0
  0
LINE
  5
1AF
  8
0
 62
     7
 10
156.8479999999999
 20
185.946
 30
0.0
 11
154.86500000000001
 21
184.80099999999999
 31
0.0
  0
LINE
  5
1B0
  8
0
 62
     7
 10
154.86500000000001
 20
184.80099999999999
 30
0.0
 11
155.703
 21
183.96299999999991
 31
0.0
  0
LINE
  5
1B1
  8
0
 62
     7
 10
144.91200000000001
 20
174.84700000000001
 30
0.0
 11
143.76699999999991
 21
172.864
 31
0.0
  0
LINE
  5
1B2
  8
0
 62
     7
 10
143.76699999999991
 20
172.864
 30
0.0
 11
145.75
 21
174.00899999999999
 31
0.0
  0
LINE
  5
1B3
  8
0
 62
     7
 10
145.75
 20
174.00899999999999
 30
0.0
 11
144.91200000000001
 21
174.84700000000001
 31
0.0
  0
LINE
  5
1B4
  8
0
 62
     7
 10
113.88500000000001
 20
106.7529999999999
 30
0.0
 11
113.29299999999991
 21
108.9649999999999
 31
0.0
  0
LINE
  5
1B5
  8
0
 62
     7
 10
113.29299999999991
 20
108.9649999999999
 30
0.0
 11
112.7
 21
106.7529999999999
 31
0.0
  0
LINE
  5
1B6
  8
0
 62
     7
 10
112.7
 20
106.7529999999999
 30
0.0
 11
113.88500000000001
 21
106.7529999999999
 31
0.0
  0
LINE
  5
1B7
  8
0
 62
     7
 10
112.7
 20
96.176299999999998
 30
0.0
 11
113.29299999999991
 21
93.964499999999987
 31
0.0
  0
LINE
  5
1B8
  8
0
 62
     7
 10
113.29299999999991
 20
93.964499999999987
 30
0.0
 11
113.88500000000001
 21
96.176299999999998
 31
0.0
  0
LINE
  5
1B9
  8
0
 62
     7
 10
113.88500000000001
 20
96.176299999999998
 30
0.0
 11
112.7
 21
96.176299999999998
 31
0.0
  0
LINE
  5
1BA
  8
0
 62
     7
 10
113.29299999999991
 20
108.9639999999999
 30
0.0
 11
113.29299999999991
 21
93.964499999999987
 31
0.0
  0
LINE
  5
1BB
  8
0
 62
     7
 10
106.967
 20
106.7529999999999
 30
0.0
 11
106.3749999999999
 21
108.9649999999999
 31
0.0
  0
LINE
  5
1BC
  8
0
 62
     7
 10
106.3749999999999
 20
108.9649999999999
 30
0.0
 11
105.782
 21
106.7529999999999
 31
0.0
  0
LINE
  5
1BD
  8
0
 62
     7
 10
105.782
 20
106.7529999999999
 30
0.0
 11
106.967
 21
106.7529999999999
 31
0.0
  0
LINE
  5
1BE
  8
0
 62
     7
 10
105.79600000000001
 20
100.1759999999999
 30
0.0
 11
106.389
 21
97.964299999999994
 31
0.0
  0
LINE
  5
1BF
  8
0
 62
     7
 10
106.389
 20
97.964299999999994
 30
0.0
 11
106.982
 21
100.1759999999999
 31
0.0
  0
LINE
  5
1C0
  8
0
 62
     7
 10
106.982
 20
100.1759999999999
 30
0.0
 11
105.79600000000001
 21
100.1759999999999
 31
0.0
  0
LINE
  5
1C1
  8
0
 62
     7
 10
106.3749999999999
 20
108.9639999999999
 30
0.0
 11
106.3749999999999
 21
97.964699999999993
 31
0.0
  0
LINE
  5
1C2
  8
0
 62
     7
 10
100.401
 20
95.752199999999988
 30
0.0
 11
99.808700000000016
 21
97.964299999999994
 31
0.0
  0
LINE
  5
1C3
  8
0
 62
     7
 10
99.808700000000016
 20
97.964299999999994
 30
0.0
 11
99.216100000000012
 21
95.752199999999988
 31
0.0
  0
LINE
  5
1C4
  8
0
 62
     7
 10
99.216100000000012
 20
95.752199999999988
 30
0.0
 11
100.401
 21
95.752199999999988
 31
0.0
  0
LINE
  5
1C5
  8
0
 62
     7
 10
99.230599999999995
 20
101.1759999999999
 30
0.0
 11
99.823099999999997
 21
98.963700000000003
 31
0.0
  0
LINE
  5
1C6
  8
0
 62
     7
 10
99.823099999999997
 20
98.963700000000003
 30
0.0
 11
100.4159999999999
 21
101.1759999999999
 31
0.0
  0
LINE
  5
1C7
  8
0
 62
     7
 10
100.4159999999999
 20
101.1759999999999
 30
0.0
 11
99.230599999999995
 21
101.1759999999999
 31
0.0
  0
LINE
  5
1C8
  8
0
 62
     7
 10
99.808700000000016
 20
104.56399999999989
 30
0.0
 11
99.808700000000016
 21
95.037000000000006
 31
0.0
  0
LINE
  5
1C9
  8
0
 62
     7
 10
107.089
 20
97.964299999999994
 30
0.0
 11
85.323499999999996
 21
97.964299999999994
 31
0.0
  0
LINE
  5
1CA
  8
0
 62
     7
 10
113.9929999999999
 20
108.9649999999999
 30
0.0
 11
96.278499999999994
 21
108.9649999999999
 31
0.0
  0
LINE
  5
1CB
  8
0
 62
     7
 10
100.509
 20
98.964399999999998
 30
0.0
 11
83.7226
 21
98.964399999999998
 31
0.0
  0
LINE
  5
1CC
  8
0
 62
     7
 10
140.0439999999999
 20
169.14099999999991
 30
0.0
 11
131.91599999999991
 21
169.14099999999991
 31
0.0
  0
LINE
  5
1CD
  8
0
 62
     7
 10
140.0439999999999
 20
169.14099999999991
 30
0.0
 11
156.8479999999999
 21
185.946
 31
0.0
  0
LINE
  5
1CE
  8
0
 62
     7
 10
148.58899999999991
 20
106.7529999999999
 30
0.0
 11
147.99700000000001
 21
108.9649999999999
 31
0.0
  0
LINE
  5
1CF
  8
0
 62
     7
 10
147.99700000000001
 20
108.9649999999999
 30
0.0
 11
147.404
 21
106.7529999999999
 31
0.0
  0
LINE
  5
1D0
  8
0
 62
     7
 10
147.404
 20
106.7529999999999
 30
0.0
 11
148.58899999999991
 21
106.7529999999999
 31
0.0
  0
LINE
  5
1D1
  8
0
 62
     7
 10
147.4189999999999
 20
102.676
 30
0.0
 11
148.01099999999991
 21
100.4639999999999
 31
0.0
  0
LINE
  5
1D2
  8
0
 62
     7
 10
148.01099999999991
 20
100.4639999999999
 30
0.0
 11
148.6039999999999
 21
102.676
 31
0.0
  0
LINE
  5
1D3
  8
0
 62
     7
 10
148.6039999999999
 20
102.676
 30
0.0
 11
147.4189999999999
 21
102.676
 31
0.0
  0
LINE
  5
1D4
  8
0
 62
     7
 10
147.99700000000001
 20
108.9649999999999
 30
0.0
 11
147.99700000000001
 21
100.465
 31
0.0
  0
LINE
  5
1D5
  8
0
 62
     7
 10
60.4191
 20
185.09
 30
0.0
 11
54.634
 21
185.09
 31
0.0
  0
LINE
  5
1D6
  8
0
 62
     7
 10
69.316299999999998
 20
176.86399999999989
 30
0.0
 11
67.730800000000002
 21
177.779
 31
0.0
  0
LINE
  5
1D7
  8
0
 62
     7
 10
67.730800000000002
 20
177.779
 30
0.0
 11
68.646000000000001
 21
176.1929999999999
 31
0.0
  0
LINE
  5
1D8
  8
0
 62
     7
 10
68.646000000000001
 20
176.1929999999999
 30
0.0
 11
69.316299999999998
 21
176.86399999999989
 31
0.0
  0
LINE
  5
1D9
  8
0
 62
     7
 10
62.897500000000001
 20
181.94099999999989
 30
0.0
 11
64.482799999999997
 21
181.0259999999999
 31
0.0
  0
LINE
  5
1DA
  8
0
 62
     7
 10
64.482799999999997
 20
181.0259999999999
 30
0.0
 11
63.567399999999999
 21
182.61199999999991
 31
0.0
  0
LINE
  5
1DB
  8
0
 62
     7
 10
63.567399999999999
 20
182.61199999999991
 30
0.0
 11
62.897500000000001
 21
181.94099999999989
 31
0.0
  0
LINE
  5
1DC
  8
0
 62
     7
 10
60.4191
 20
185.09
 30
0.0
 11
69.641199999999998
 21
175.86799999999999
 31
0.0
  0
ARC
  5
1DD
  8
0
 62
     7
 10
66.845320000000001
 20
164.90800400000001
 30
0.0
 40
0.260076
 50
305.39035000000001
 51
359.22787299999987
  0
ARC
  5
1DE
  8
0
 62
     7
 10
66.520376999999996
 20
165.24861299999989
 30
0.0
 40
0.7290810000000001
 50
293.61233099999993
 51
310.71360699999991
  0
ARC
  5
1DF
  8
0
 62
     7
 10
66.163607999999996
 20
166.06823299999999
 30
0.0
 40
1.6229830000000001
 50
267.93952000000002
 51
293.56302899999997
  0
ARC
  5
1E0
  8
0
 62
     7
 10
66.104391000000007
 20
166.44530299999991
 30
0.0
 40
1.999004
 50
252.321022
 51
270.02476200000001
  0
ARC
  5
1E1
  8
0
 62
     7
 10
65.795868999999996
 20
165.4336669999999
 30
0.0
 40
0.9415449999999999
 50
235.510884
 51
251.513744
  0
ARC
  5
1E2
  8
0
 62
     7
 10
65.453663000000006
 20
164.95322300000001
 30
0.0
 40
0.351915
 50
187.95824599999989
 51
237.14020699999989
  0
ARC
  5
1E3
  8
0
 62
     7
 10
65.365189000000001
 20
164.90099499999991
 30
0.0
 40
0.260076
 50
125.39033000000001
 51
179.22785300000001
  0
ARC
  5
1E4
  8
0
 62
     7
 10
65.690131999999991
 20
164.56038699999999
 30
0.0
 40
0.7290810000000001
 50
113.61231099999991
 51
130.71358699999999
  0
ARC
  5
1E5
  8
0
 62
     7
 10
66.046901000000005
 20
163.74076699999989
 30
0.0
 40
1.6229830000000001
 50
87.939499999999995
 51
113.56300899999999
  0
ARC
  5
1E6
  8
0
 62
     7
 10
66.106117999999995
 20
163.363696
 30
0.0
 40
1.999004
 50
72.321003000000005
 51
90.024741999999989
  0
ARC
  5
1E7
  8
0
 62
     7
 10
66.414641000000003
 20
164.37533300000001
 30
0.0
 40
0.9415449999999999
 50
55.510865000000003
 51
71.513724999999994
  0
ARC
  5
1E8
  8
0
 62
     7
 10
66.756845999999996
 20
164.85577699999999
 30
0.0
 40
0.351915
 50
7.9582259999999989
 51
57.140186999999997
  0
LINE
  5
1E9
  8
0
  6
AIGENLINE003
 62
     7
 10
63.280299999999997
 20
164.904
 30
0.0
 11
69.159700000000001
 21
164.904
 31
0.0
  0
ARC
  5
1EA
  8
0
  6
AIGENLINE001
 62
     7
 10
66.067002000000002
 20
105.5029389999999
 30
0.0
 40
1.0390749999999991
 50
272.10979199999991
 51
357.890218
  0
ARC
  5
1EB
  8
0
  6
AIGENLINE001
 62
     7
 10
66.143895000000001
 20
105.503326
 30
0.0
 40
1.0394760000000001
 50
182.13034500000001
 51
267.86968400000001
  0
ARC
  5
1EC
  8
0
  6
AIGENLINE001
 62
     7
 10
66.143507
 20
105.426433
 30
0.0
 40
1.0390740000000001
 50
92.109755000000007
 51
177.8902149999999
  0
ARC
  5
1ED
  8
0
  6
AIGENLINE001
 62
     7
 10
66.066614999999999
 20
105.426046
 30
0.0
 40
1.0394760000000001
 50
2.130325
 51
87.869664999999998
  0
LINE
  5
1EE
  8
0
  6
AIGENLINE003
 62
     7
 10
133.364
 20
105.465
 30
0.0
 11
139.24299999999999
 21
105.465
 31
0.0
  0
LINE
  5
1EF
  8
0
  6
AIGENLINE003
 62
     7
 10
63.280299999999997
 20
105.465
 30
0.0
 11
69.159700000000001
 21
105.465
 31
0.0
  0
LINE
  5
1F0
  8
0
  6
AIGENLINE003
 62
     7
 10
137.864
 20
179.405
 30
0.0
 11
162.19
 21
179.405
 31
0.0
  0
LINE
  5
1F1
  8
0
  6
AIGENLINE003
 62
     7
 10
150.30699999999999
 20
191.22199999999989
 30
0.0
 11
150.30699999999999
 21
167.964
 31
0.0
  0
ARC
  5
1F2
  8
0
 62
     7
 10
150.30719199999999
 20
179.40447999999989
 30
0.0
 40
9.2503139999999995
 50
359.99894299999988
 51
89.998912999999988
  0
ARC
  5
1F3
  8
0
 62
     7
 10
150.30771200000001
 20
179.404652
 30
0.0
 40
9.2501410000000011
 50
90.002133999999984
 51
180.0021439999999
  0
ARC
  5
1F4
  8
0
 62
     7
 10
150.307278
 20
179.40439399999991
 30
0.0
 40
9.249708
 50
180.00054299999999
 51
270.00055299999991
  0
ARC
  5
1F5
  8
0
 62
     7
 10
150.30762200000001
 20
179.4045689999999
 30
0.0
 40
9.2498830000000005
 50
269.99841900000001
 51
359.99838999999992
  0
TEXT
  5
1F6
  8
_________2
 62
     7
 10
24.190799999999999
 20
40.528399999999991
 30
0.0
 40
4.2168199999999993
  1
・排水ヘッド部にはCET324をセットしてください。
 41
0.5
  0
LINE
  5
1F7
  8
_________2
 62
     7
 10
205.30099999999999
 20
127.411
 30
0.0
 11
183.55099999999999
 21
127.411
 31
0.0
  0
LINE
  5
1F8
  8
_________2
 62
     7
 10
100.2999999999999
 20
-4.0910799999999998
 30
0.0
 11
100.2999999999999
 21
-21.071400000000001
 31
0.0
  0
LINE
  5
1F9
  8
_________2
 62
     7
 10
100.2999999999999
 20
275.93099999999993
 30
0.0
 11
100.2999999999999
 21
258.911
 31
0.0
  0
LINE
  5
1FA
  8
_________2
 62
     7
 10
17.049499999999998
 20
127.411
 30
0.0
 11
-4.7008599999999987
 21
127.411
 31
0.0
  0
LINE
  5
1FB
  8
_________2
 62
     7
 10
76.741
 20
29.8047
 30
0.0
 11
74.554699999999997
 21
29.8047
 31
0.0
  0
LINE
  5
1FC
  8
_________2
 62
     7
 10
77.233699999999999
 20
29.8047
 30
0.0
 11
76.981499999999997
 21
29.8047
 31
0.0
  0
LINE
  5
1FD
  8
_________2
 62
     7
 10
77.726299999999995
 20
29.8047
 30
0.0
 11
80.651200000000003
 21
29.8047
 31
0.0
  0
LINE
  5
1FE
  8
_________2
 62
     7
 10
77.233699999999999
 20
29.8047
 30
0.0
 11
77.485900000000001
 21
29.8047
 31
0.0
  0
LINE
  5
1FF
  8
_________2
 62
     7
 10
70.837500000000006
 20
29.8047
 30
0.0
 11
68.650499999999994
 21
29.8047
 31
0.0
  0
LINE
  5
200
  8
_________2
 62
     7
 10
71.329400000000007
 20
29.8047
 30
0.0
 11
71.0779
 21
29.8047
 31
0.0
  0
LINE
  5
201
  8
_________2
 62
     7
 10
71.329400000000007
 20
30.2974
 30
0.0
 11
71.329400000000007
 21
32.484400000000001
 31
0.0
  0
LINE
  5
202
  8
_________2
 62
     7
 10
71.329400000000007
 20
29.8047
 30
0.0
 11
71.329400000000007
 21
30.056899999999992
 31
0.0
  0
LINE
  5
203
  8
_________2
 62
     7
 10
71.822100000000006
 20
29.8047
 30
0.0
 11
74.009
 21
29.8047
 31
0.0
  0
LINE
  5
204
  8
_________2
 62
     7
 10
71.329400000000007
 20
29.8047
 30
0.0
 11
71.581599999999995
 21
29.8047
 31
0.0
  0
LINE
  5
205
  8
_________2
 62
     7
 10
71.329400000000007
 20
29.312799999999999
 30
0.0
 11
71.329400000000007
 21
27.125800000000002
 31
0.0
  0
LINE
  5
206
  8
_________2
 62
     7
 10
71.329400000000007
 20
29.8047
 30
0.0
 11
71.329400000000007
 21
29.5532
 31
0.0
  0
LINE
  5
207
  8
_________2
 62
     7
 10
75.040499999999994
 20
28.5852
 30
0.0
 11
80.218500000000006
 21
27.720400000000001
 31
0.0
  0
LINE
  5
208
  8
_________2
 62
     7
 10
75.040499999999994
 20
31.0243
 30
0.0
 11
80.218500000000006
 21
31.889700000000001
 31
0.0
  0
LINE
  5
209
  8
_________2
 62
     7
 10
80.218500000000006
 20
27.720400000000001
 30
0.0
 11
80.218500000000006
 21
31.889700000000001
 31
0.0
  0
LINE
  5
20A
  8
_________2
 62
     7
 10
75.040499999999994
 20
28.5852
 30
0.0
 11
75.040499999999994
 21
31.0243
 31
0.0
  0
ARC
  5
20B
  8
_________2
 62
     7
 10
71.283190000000005
 20
29.757787
 30
0.0
 40
1.2673709999999989
 50
2.1232950000000002
 51
87.909056000000007
  0
ARC
  5
20C
  8
_________2
 62
     7
 10
71.375959999999992
 20
29.758213000000001
 30
0.0
 40
1.2669559999999991
 50
92.104701000000006
 51
177.8952689999999
  0
ARC
  5
20D
  8
_________2
 62
     7
 10
71.376357999999996
 20
29.851671
 30
0.0
 40
1.2673680000000001
 50
182.12203600000001
 51
267.877993
  0
ARC
  5
20E
  8
_________2
 62
     7
 10
71.282541000000009
 20
29.852347999999999
 30
0.0
 40
1.2680439999999991
 50
272.11916400000001
 51
357.84848499999993
  0
ARC
  5
20F
  8
_________2
 62
     7
 10
71.329430000000002
 20
29.804742999999998
 30
0.0
 40
2.0849849999999992
 50
0.00001
 51
89.999980000000008
  0
ARC
  5
210
  8
_________2
 62
     7
 10
71.409075999999999
 20
29.725812999999992
 30
0.0
 40
2.165379999999999
 50
92.107876000000005
 51
177.91103200000001
  0
ARC
  5
211
  8
_________2
 62
     7
 10
71.409439000000006
 20
29.884751999999999
 30
0.0
 40
2.1657829999999998
 50
182.117133
 51
267.88289700000001
  0
ARC
  5
212
  8
_________2
 62
     7
 10
71.249459000000002
 20
29.885429999999989
 30
0.0
 40
2.1664590000000001
 50
272.11546800000002
 51
357.86560400000002
  0
TEXT
  5
213
  8
_________2
 62
     7
 10
104.605
 20
1.6794899999999999
 30
0.0
 40
3.0923400000000001
  1
図番
 41
0.5
  0
LINE
  5
214
  8
_________2
 62
     7
 10
103.55
 20
5.9087199999999989
 30
0.0
 11
183.55099999999999
 21
5.9087199999999989
 31
0.0
  0
TEXT
  5
215
  8
_________2
 62
     7
 10
104.605
 20
11.679299999999991
 30
0.0
 40
3.0923400000000001
  1
品番
 41
0.5
  0
TEXT
  5
216
  8
_________2
 62
     7
 10
104.605
 20
31.818100000000001
 30
0.0
 40
3.0923400000000001
  1
名称
 41
0.5
  0
TEXT
  5
217
  8
_________2
 62
     7
 10
91.845058333333341
 20
26.821999999999989
 30
0.0
 40
3.6545800000000002
  1
mm
 41
0.5
 72
     1
 11
93.367800000000003
 21
26.821999999999989
 31
0.0
  0
TEXT
  5
218
  8
_________2
 62
     7
 10
85.643199999999993
 20
31.818100000000001
 30
0.0
 40
3.0923400000000001
  1
単位
 41
0.5
  0
TEXT
  5
219
  8
_________2
 62
     7
 10
85.643199999999993
 20
19.410799999999991
 30
0.0
 40
3.0923400000000001
  1
尺度
 41
0.5
  0
TEXT
  5
21A
  8
_________2
 62
     7
 10
90.09193616666667
 20
13.2179
 30
0.0
 40
3.6545800000000002
  1
1 ： 10
 41
0.5
 72
     1
 11
93.959699999999998
 21
13.2179
 31
0.0
  0
TEXT
  5
21B
  8
_________2
 62
     7
 10
136.33455000000001
 20
9.1078600000000005
 30
0.0
 40
3.9357000000000002
  1
VB515400
 41
0.5
 72
     1
 11
143.55000000000001
 21
9.1078600000000005
 31
0.0
  0
TEXT
  5
21C
  8
_________2
 62
     7
 10
136.33455000000001
 20
-0.8926299999999999
 30
0.0
 40
3.9357000000000002
  1
VB515400
 41
0.5
 72
     1
 11
143.55000000000001
 21
-0.8926299999999999
 31
0.0
  0
TEXT
  5
21D
  8
_________2
 62
     7
 10
24.5868
 20
0.707283
 30
0.0
 40
3.9357000000000002
  1
実容量：3.0L、重量:12.0kg、オーバーフロー付
 41
0.5
  0
TEXT
  5
21E
  8
_________2
 62
     7
 10
109.179
 20
24.2257
 30
0.0
 40
3.9357000000000002
  1
ループ&フレンズ 洗面器
 41
0.5
  0
TEXT
  5
21F
  8
_________2
 62
     7
 10
39.425300333333333
 20
13.603
 30
0.0
 40
3.6545800000000002
  1
早川
 41
0.5
 72
     1
 11
41.313499999999998
 21
13.603
 31
0.0
  0
TEXT
  5
220
  8
_________2
 62
     7
 10
20.851300333333331
 20
13.603
 30
0.0
 40
3.6545800000000002
  1
西田
 41
0.5
 72
     1
 11
22.7395
 21
13.603
 31
0.0
  0
TEXT
  5
221
  8
_________2
 62
     7
 10
67.785799999999995
 20
13.2179
 30
0.0
 40
3.6545800000000002
  1
13.10.01
 41
0.5
  0
TEXT
  5
222
  8
_________2
 62
     7
 10
66.593100000000007
 20
19.410799999999991
 30
0.0
 40
3.0923400000000001
  1
日付
 41
0.5
  0
TEXT
  5
223
  8
_________2
 62
     7
 10
29.639399999999998
 20
19.410799999999991
 30
0.0
 40
3.0923400000000001
  1
検図
 41
0.5
  0
TEXT
  5
224
  8
_________2
 62
     7
 10
18.021100000000001
 20
5.21143
 30
0.0
 40
3.0923400000000001
  1
備考
 41
0.5
  0
TEXT
  5
225
  8
_________2
 62
     7
 10
18.021100000000001
 20
19.410799999999991
 30
0.0
 40
3.0923400000000001
  1
製図
 41
0.5
  0
TEXT
  5
226
  8
_________2
 62
     7
 10
23.788465333333338
 20
27.936800000000002
 30
0.0
 40
4.4979399999999989
  1
セラトレーディング株式会社
 41
0.5
 72
     1
 11
41.180500000000002
 21
27.936800000000002
 31
0.0
  0
LINE
  5
227
  8
_________2
 62
     7
 10
183.55099999999999
 20
-4.0910799999999998
 30
0.0
 11
17.049499999999998
 21
-4.0910799999999998
 31
0.0
  0
LINE
  5
228
  8
_________2
 62
     7
 10
17.049499999999998
 20
-4.0910799999999998
 30
0.0
 11
17.049499999999998
 21
258.911
 31
0.0
  0
LINE
  5
229
  8
_________2
 62
     7
 10
17.049499999999998
 20
258.911
 30
0.0
 11
183.55099999999999
 21
258.911
 31
0.0
  0
LINE
  5
22A
  8
_________2
 62
     7
 10
183.55099999999999
 20
258.911
 30
0.0
 11
183.55099999999999
 21
-4.0910799999999998
 31
0.0
  0
LINE
  5
22B
  8
_________2
 62
     7
 10
65.549899999999994
 20
9.4089600000000004
 30
0.0
 11
65.549899999999994
 21
35.908799999999999
 31
0.0
  0
LINE
  5
22C
  8
_________2
 62
     7
 10
84.549700000000016
 20
9.4089600000000004
 30
0.0
 11
84.549700000000016
 21
35.908799999999999
 31
0.0
  0
LINE
  5
22D
  8
_________2
 62
     7
 10
103.55
 20
-4.0910799999999998
 30
0.0
 11
103.55
 21
35.908799999999999
 31
0.0
  0
LINE
  5
22E
  8
_________2
 62
     7
 10
28.549299999999992
 20
9.4089600000000004
 30
0.0
 11
28.549299999999992
 21
23.409199999999998
 31
0.0
  0
LINE
  5
22F
  8
_________2
 62
     7
 10
17.049499999999998
 20
9.4089600000000004
 30
0.0
 11
103.55
 21
9.4089600000000004
 31
0.0
  0
LINE
  5
230
  8
_________2
 62
     7
 10
17.049499999999998
 20
23.409199999999998
 30
0.0
 11
103.55
 21
23.409199999999998
 31
0.0
  0
LINE
  5
231
  8
_________2
 62
     7
 10
103.55
 20
15.9085
 30
0.0
 11
183.55099999999999
 21
15.9085
 31
0.0
  0
LINE
  5
232
  8
_________2
 62
     7
 10
17.049499999999998
 20
35.908799999999999
 30
0.0
 11
183.55099999999999
 21
35.908799999999999
 31
0.0
  0
ENDSEC
  0
EOF
