  0
SECTION
  2
HEADER
  9
$ACADVER
  1
AC1009
  9
$INSBASE
 10
0.0
 20
0.0
 30
0.0
  9
$EXTMIN
 10
0.238402
 20
0.4485540000000001
 30
0.0
  9
$EXTMAX
 10
210.24000000000001
 20
297.45099999999991
 30
0.0
  9
$LIMMIN
 10
0.0
 20
0.0
  9
$LIMMAX
 10
12.0
 20
9.0
  9
$ORTHOMODE
 70
     0
  9
$REGENMODE
 70
     1
  9
$FILLMODE
 70
     1
  9
$QTEXTMODE
 70
     0
  9
$MIRRTEXT
 70
     1
  9
$DRAGMODE
 70
     2
  9
$LTSCALE
 40
1.0
  9
$OSMODE
 70
    37
  9
$ATTMODE
 70
     1
  9
$TEXTSIZE
 40
0.0
  9
$TRACEWID
 40
0.05
  9
$TEXTSTYLE
  7
STANDARD
  9
$CLAYER
  8
0
  9
$CELTYPE
  6
CONTINUOUS
  9
$CECOLOR
 62
   256
  9
$DIMSCALE
 40
1.0
  9
$DIMASZ
 40
0.18
  9
$DIMEXO
 40
0.0625
  9
$DIMDLI
 40
0.38
  9
$DIMRND
 40
0.0
  9
$DIMDLE
 40
0.0
  9
$DIMEXE
 40
0.18
  9
$DIMTP
 40
0.0
  9
$DIMTM
 40
0.0
  9
$DIMTXT
 40
0.18
  9
$DIMCEN
 40
0.09
  9
$DIMTSZ
 40
0.0
  9
$DIMTOL
 70
     0
  9
$DIMLIM
 70
     0
  9
$DIMTIH
 70
     1
  9
$DIMTOH
 70
     1
  9
$DIMSE1
 70
     0
  9
$DIMSE2
 70
     0
  9
$DIMTAD
 70
     0
  9
$DIMZIN
 70
     0
  9
$DIMBLK
  1

  9
$DIMASO
 70
     1
  9
$DIMSHO
 70
     1
  9
$DIMPOST
  1

  9
$DIMAPOST
  1

  9
$DIMALT
 70
     0
  9
$DIMALTD
 70
     2
  9
$DIMALTF
 40
25.399999999999999
  9
$DIMLFAC
 40
1.0
  9
$DIMTOFL
 70
     0
  9
$DIMTVP
 40
0.0
  9
$DIMTIX
 70
     0
  9
$DIMSOXD
 70
     0
  9
$DIMSAH
 70
     0
  9
$DIMBLK1
  1

  9
$DIMBLK2
  1

  9
$DIMSTYLE
  2
STANDARD
  9
$DIMCLRD
 70
     0
  9
$DIMCLRE
 70
     0
  9
$DIMCLRT
 70
     0
  9
$DIMTFAC
 40
1.0
  9
$DIMGAP
 40
0.09
  9
$LUNITS
 70
     2
  9
$LUPREC
 70
     4
  9
$SKETCHINC
 40
0.1
  9
$FILLETRAD
 40
0.0
  9
$AUNITS
 70
     0
  9
$AUPREC
 70
     0
  9
$MENU
  1
.
  9
$ELEVATION
 40
0.0
  9
$PELEVATION
 40
0.0
  9
$THICKNESS
 40
0.0
  9
$LIMCHECK
 70
     0
  9
$BLIPMODE
 70
     0
  9
$CHAMFERA
 40
0.0
  9
$CHAMFERB
 40
0.0
  9
$SKPOLY
 70
     0
  9
$TDCREATE
 40
2444972.375
  9
$TDUPDATE
 40
2456571.2492689812
  9
$TDINDWG
 40
0.0000061343
  9
$TDUSRTIMER
 40
0.0000061343
  9
$USRTIMER
 70
     1
  9
$ANGBASE
 50
0.0
  9
$ANGDIR
 70
     0
  9
$PDMODE
 70
     0
  9
$PDSIZE
 40
0.0
  9
$PLINEWID
 40
0.0
  9
$COORDS
 70
     1
  9
$SPLFRAME
 70
     0
  9
$SPLINETYPE
 70
     6
  9
$SPLINESEGS
 70
     8
  9
$ATTDIA
 70
     0
  9
$ATTREQ
 70
     1
  9
$HANDLING
 70
     1
  9
$HANDSEED
  5
1F1
  9
$SURFTAB1
 70
     6
  9
$SURFTAB2
 70
     6
  9
$SURFTYPE
 70
     6
  9
$SURFU
 70
     6
  9
$SURFV
 70
     6
  9
$UCSNAME
  2

  9
$UCSORG
 10
0.0
 20
0.0
 30
0.0
  9
$UCSXDIR
 10
1.0
 20
0.0
 30
0.0
  9
$UCSYDIR
 10
0.0
 20
1.0
 30
0.0
  9
$PUCSNAME
  2

  9
$PUCSORG
 10
0.0
 20
0.0
 30
0.0
  9
$PUCSXDIR
 10
1.0
 20
0.0
 30
0.0
  9
$PUCSYDIR
 10
0.0
 20
1.0
 30
0.0
  9
$USERI1
 70
     0
  9
$USERI2
 70
     0
  9
$USERI3
 70
     0
  9
$USERI4
 70
     0
  9
$USERI5
 70
     0
  9
$USERR1
 40
0.0
  9
$USERR2
 40
0.0
  9
$USERR3
 40
0.0
  9
$USERR4
 40
0.0
  9
$USERR5
 40
0.0
  9
$WORLDVIEW
 70
     1
  9
$SHADEDGE
 70
     3
  9
$SHADEDIF
 70
    70
  9
$TILEMODE
 70
     1
  9
$MAXACTVP
 70
    48
  9
$PLIMCHECK
 70
     0
  9
$PEXTMIN
 10
1.0000000000000000E+020
 20
1.0000000000000000E+020
 30
1.0000000000000000E+020
  9
$PEXTMAX
 10
-1.0000000000000000E+020
 20
-1.0000000000000000E+020
 30
-1.0000000000000000E+020
  9
$PLIMMIN
 10
0.0
 20
0.0
  9
$PLIMMAX
 10
12.0
 20
9.0
  9
$UNITMODE
 70
     0
  9
$VISRETAIN
 70
     1
  9
$PLINEGEN
 70
     0
  9
$PSLTSCALE
 70
     1
  0
ENDSEC
  0
SECTION
  2
TABLES
  0
TABLE
  2
VPORT
 70
     2
  0
VPORT
  2
*ACTIVE
 70
     0
 10
0.0
 20
0.0
 11
1.0
 21
1.0
 12
206.98016390466589
 22
148.7254999999999
 13
0.0
 23
0.0
 14
1.0
 24
1.0
 15
0.0
 25
0.0
 16
0.0
 26
0.0
 36
1.0
 17
0.0
 27
0.0
 37
0.0
 40
299.90589133425021
 41
2.2894736842105261
 42
50.0
 43
0.0
 44
0.0
 50
0.0
 51
0.0
 71
     0
 72
   100
 73
     1
 74
     1
 75
     0
 76
     0
 77
     0
 78
     0
  0
ENDTAB
  0
TABLE
  2
LTYPE
 70
     4
  0
LTYPE
  2
CONTINUOUS
 70
     0
  3
Solid line
 72
    65
 73
     0
 40
0.0
  0
LTYPE
  2
AIGENLINE001
 70
     0
  3
generate AI->DXF Converter
 72
    65
 73
     2
 40
1.5522299999999991
 49
0.776115
 49
-0.776115
  0
LTYPE
  2
AIGENLINE002
 70
     0
  3
generate AI->DXF Converter
 72
    65
 73
     4
 40
5.8561449999999988
 49
3.5278
 49
-0.776115
 49
0.776115
 49
-0.776115
  0
LTYPE
  2
AIGENLINE003
 70
     0
  3
generate AI->DXF Converter
 72
    65
 73
     6
 40
7.4083750000000004
 49
3.5278
 49
-0.776115
 49
0.776115
 49
-0.776115
 49
0.776115
 49
-0.776115
  0
ENDTAB
  0
TABLE
  2
LAYER
 70
     2
  0
LAYER
  2
0
 70
     0
 62
     7
  6
CONTINUOUS
  0
LAYER
  2
_________2
 70
     0
 62
     7
  6
CONTINUOUS
  0
ENDTAB
  0
TABLE
  2
STYLE
 70
     1
  0
STYLE
  2
STANDARD
 70
     0
 40
0.0
 41
0.0
 50
0.0
 71
     0
 42
0.0
  3
TXT
  4
EXTFONT.SHX
  0
ENDTAB
  0
TABLE
  2
VIEW
 70
     0
  0
ENDTAB
  0
TABLE
  2
UCS
 70
     0
  0
ENDTAB
  0
TABLE
  2
APPID
 70
     1
  0
APPID
  2
ACAD
 70
     0
  0
ENDTAB
  0
TABLE
  2
DIMSTYLE
 70
     1
  0
DIMSTYLE
  2
STANDARD
 70
     0
  3

  4

  5

  6

  7

 40
1.0
 41
0.18
 42
0.0625
 43
0.38
 44
0.18
 45
0.0
 46
0.0
 47
0.0
 48
0.0
140
0.18
141
0.09
142
0.0
143
25.399999999999999
144
1.0
145
0.0
146
1.0
147
0.09
 71
     0
 72
     0
 73
     1
 74
     1
 75
     0
 76
     0
 77
     0
 78
     0
170
     0
171
     2
172
     0
173
     0
174
     0
175
     0
176
     0
177
     0
178
     0
  0
ENDTAB
  0
ENDSEC
  0
SECTION
  2
BLOCKS
  0
BLOCK
  8
0
  2
$MODEL_SPACE
 70
     0
 10
0.0
 20
0.0
 30
0.0
  3
$MODEL_SPACE
  1

  0
ENDBLK
  5
1A
  8
0
  0
BLOCK
 67
     1
  8
0
  2
$PAPER_SPACE
 70
     0
 10
0.0
 20
0.0
 30
0.0
  3
$PAPER_SPACE
  1

  0
ENDBLK
  5
17
 67
     1
  8
0
  0
ENDSEC
  0
SECTION
  2
ENTITIES
  0
TEXT
  5
24
  8
0
 62
     7
 10
128.46000000000001
 20
229.30799999999991
 30
0.0
 40
3.0923400000000001
  1
排水口
 41
0.5
  0
TEXT
  5
25
  8
0
 62
     7
 10
155.09100000000001
 20
225.93428750000001
 30
0.0
 40
3.0923400000000001
  1
320
 50
90.0
 41
0.5
 72
     1
 11
155.09100000000001
 21
227.86699999999999
 31
0.0
  0
TEXT
  5
26
  8
0
 62
     7
 10
133.97076000000001
 20
181.702
 30
0.0
 40
3.0923400000000001
  1
カウンター切込寸法
 41
0.5
 72
     1
 11
142.21700000000001
 21
181.702
 31
0.0
  0
TEXT
  5
27
  8
0
 62
     7
 10
102.193
 20
191.30500000000001
 30
0.0
 40
3.0923400000000001
  1
洗面器固定用カウンター裏補強木（t＝21）
 41
0.5
  0
TEXT
  5
28
  8
0
 62
     7
 10
123.985575
 20
213.54099999999991
 30
0.0
 40
3.0923400000000001
  1
R20
 41
0.5
 72
     2
 11
127.851
 21
213.54099999999991
 31
0.0
  0
TEXT
  5
29
  8
0
 62
     7
 10
123.985575
 20
234.48699999999991
 30
0.0
 40
3.0923400000000001
  1
R20
 41
0.5
 72
     2
 11
127.851
 21
234.48699999999991
 31
0.0
  0
TEXT
  5
2A
  8
0
 62
     7
 10
180.14385899999999
 20
251.60400000000001
 30
0.0
 40
3.0923400000000001
  1
50以上
 41
0.5
 72
     2
 11
186.27699999999999
 21
251.60400000000001
 31
0.0
  0
TEXT
  5
2B
  8
0
 62
     7
 10
97.245300000000015
 20
251.60400000000001
 30
0.0
 40
3.0923400000000001
  1
50以上
 41
0.5
  0
TEXT
  5
2C
  8
0
 62
     7
 10
169.57852500000001
 20
251.60400000000001
 30
0.0
 40
3.0923400000000001
  1
53
 41
0.5
 72
     1
 11
170.86699999999999
 21
251.60400000000001
 31
0.0
  0
TEXT
  5
2D
  8
0
 62
     7
 10
112.2785249999999
 20
251.60400000000001
 30
0.0
 40
3.0923400000000001
  1
53
 41
0.5
 72
     1
 11
113.56699999999999
 21
251.60400000000001
 31
0.0
  0
TEXT
  5
2E
  8
0
 62
     7
 10
127.2842875
 20
251.60400000000001
 30
0.0
 40
3.0923400000000001
  1
260
 41
0.5
 72
     1
 11
129.21700000000001
 21
251.60400000000001
 31
0.0
  0
TEXT
  5
2F
  8
0
 62
     7
 10
153.2842875
 20
251.60400000000001
 30
0.0
 40
3.0923400000000001
  1
260
 41
0.5
 72
     1
 11
155.21700000000001
 21
251.60400000000001
 31
0.0
  0
TEXT
  5
30
  8
0
 62
     7
 10
140.2842875
 20
199.63399999999999
 30
0.0
 40
3.0923400000000001
  1
520
 41
0.5
 72
     1
 11
142.21700000000001
 21
199.63399999999999
 31
0.0
  0
TEXT
  5
31
  8
0
 62
     7
 10
127.624
 20
81.991399999999985
 30
0.0
 40
3.0923400000000001
  1
〈付属品〉
 41
0.5
  0
TEXT
  5
32
  8
0
 62
     7
 10
127.624
 20
78.126000000000005
 30
0.0
 40
3.0923400000000001
  1
洗面器固定金具×4
 41
0.5
  0
TEXT
  5
33
  8
0
 62
     7
 10
127.624
 20
74.260499999999993
 30
0.0
 40
3.0923400000000001
  1
%%c5×20SUSねじ付
 41
0.5
  0
TEXT
  5
34
  8
0
 62
     7
 10
127.624
 20
70.395099999999985
 30
0.0
 40
3.0923400000000001
  1
（尺度 1：3）
 41
0.5
  0
TEXT
  5
35
  8
0
 62
     7
 10
136.65199999999999
 20
117.1329999999999
 30
0.0
 40
3.0923400000000001
  1
12.5
 41
0.5
  0
TEXT
  5
36
  8
0
 62
     7
 10
139.7238879999999
 20
101.7109999999999
 30
0.0
 40
3.0923400000000001
  1
両面テープ付
 41
0.5
 72
     2
 11
150.4439999999999
 21
101.7109999999999
 31
0.0
  0
TEXT
  5
37
  8
0
 62
     7
 10
137.6923725
 20
112.29000000000001
 30
0.0
 40
3.0923400000000001
  1
50
 41
0.5
 72
     1
 11
138.85199999999989
 21
112.29000000000001
 31
0.0
  0
TEXT
  5
38
  8
0
 62
     7
 10
151.66800000000001
 20
94.884349999999998
 30
0.0
 40
3.0923400000000001
  1
1.5
 50
90.0
 41
0.5
 72
     2
 11
151.66800000000001
 21
97.461299999999994
 31
0.0
  0
TEXT
  5
39
  8
0
 62
     7
 10
125.627
 20
93.712320000000005
 30
0.0
 40
3.0923400000000001
  1
19
 50
90.0
 41
0.5
 72
     1
 11
125.627
 21
94.743099999999998
 31
0.0
  0
TEXT
  5
3A
  8
0
 62
     7
 10
152.59599999999989
 20
125.3553724999999
 30
0.0
 40
3.0923400000000001
  1
30
 50
90.0
 41
0.5
 72
     1
 11
152.59599999999989
 21
126.5149999999999
 31
0.0
  0
TEXT
  5
3B
  8
0
 62
     7
 10
49.3108
 20
229.54300000000001
 30
0.0
 40
3.0923400000000001
  1
%%c46
 41
0.5
  0
TEXT
  5
3C
  8
0
 62
     7
 10
58.218335000000003
 20
187.10900000000001
 30
0.0
 40
3.0923400000000001
  1
600
 41
0.5
 72
     1
 11
60.022199999999998
 21
187.10900000000001
 31
0.0
  0
TEXT
  5
3D
  8
0
 62
     7
 10
58.08948749999999
 20
194.05500000000001
 30
0.0
 40
3.0923400000000001
  1
540
 41
0.5
 72
     1
 11
60.022199999999998
 21
194.05500000000001
 31
0.0
  0
TEXT
  5
3E
  8
0
 62
     7
 10
78.253799999999998
 20
226.34728749999999
 30
0.0
 40
3.0923400000000001
  1
405
 50
90.0
 41
0.5
 72
     1
 11
78.253799999999998
 21
228.27999999999989
 31
0.0
  0
TEXT
  5
3F
  8
0
 62
     7
 10
97.225999999999985
 20
170.4614399999999
 30
0.0
 40
3.0923400000000001
  1
12
 50
90.0
 41
0.5
 72
     2
 11
97.225999999999985
 21
172.52299999999991
 31
0.0
  0
TEXT
  5
40
  8
0
 62
     7
 10
102.995
 20
155.86798250000001
 30
0.0
 40
3.0923400000000001
  1
180
 50
90.0
 41
0.5
 72
     1
 11
102.995
 21
157.54300000000001
 31
0.0
  0
TEXT
  5
41
  8
0
 62
     7
 10
139.90600000000001
 20
157.989135
 30
0.0
 40
3.0923400000000001
  1
135
 50
90.0
 41
0.5
 72
     1
 11
139.90600000000001
 21
159.79300000000001
 31
0.0
  0
TEXT
  5
42
  8
0
 62
     7
 10
95.612300000000005
 20
221.25244000000001
 30
0.0
 40
3.0923400000000001
  1
345
 50
90.0
 41
0.5
 72
     1
 11
95.612300000000005
 21
223.31399999999999
 31
0.0
  0
TEXT
  5
43
  8
0
 62
     7
 10
149.3795074999999
 20
141.9679999999999
 30
0.0
 40
3.0923400000000001
  1
202.5
 41
0.5
 72
     1
 11
152.3429999999999
 21
141.9679999999999
 31
0.0
  0
TEXT
  5
44
  8
0
 62
     7
 10
39.7393
 20
230.47550749999999
 30
0.0
 40
3.0923400000000001
  1
202.5
 50
90.0
 41
0.5
 72
     1
 11
39.7393
 21
233.43899999999999
 31
0.0
  0
LINE
  5
45
  8
0
 62
     7
 10
30.022300000000001
 20
208.56299999999999
 30
0.0
 11
30.022300000000001
 21
238.06399999999999
 31
0.0
  0
LINE
  5
46
  8
0
 62
     7
 10
33.022300000000001
 20
208.3129999999999
 30
0.0
 11
33.022300000000001
 21
238.3129999999999
 31
0.0
  0
LINE
  5
47
  8
0
 62
     7
 10
90.022099999999995
 20
208.56399999999999
 30
0.0
 11
90.022099999999995
 21
238.06399999999999
 31
0.0
  0
LINE
  5
48
  8
0
 62
     7
 10
87.022099999999995
 20
208.31399999999999
 30
0.0
 11
87.022099999999995
 21
238.31399999999999
 31
0.0
  0
LINE
  5
49
  8
0
 62
     7
 10
35.522300000000001
 20
203.06399999999999
 30
0.0
 11
84.522499999999994
 21
203.06399999999999
 31
0.0
  0
LINE
  5
4A
  8
0
 62
     7
 10
35.272500000000001
 20
206.06399999999999
 30
0.0
 11
84.772499999999994
 21
206.06399999999999
 31
0.0
  0
LINE
  5
4B
  8
0
 62
     7
 10
35.521900000000002
 20
243.56399999999999
 30
0.0
 11
84.522199999999998
 21
243.56399999999999
 31
0.0
  0
LINE
  5
4C
  8
0
 62
     7
 10
35.272100000000002
 20
240.56399999999999
 30
0.0
 11
84.772099999999995
 21
240.56399999999999
 31
0.0
  0
LINE
  5
4D
  8
0
 62
     7
 10
128.46000000000001
 20
228.608
 30
0.0
 11
136.50700000000001
 21
228.608
 31
0.0
  0
LINE
  5
4E
  8
0
 62
     7
 10
138.399
 20
227.55299999999991
 30
0.0
 11
139.5439999999999
 21
225.56999999999999
 31
0.0
  0
LINE
  5
4F
  8
0
 62
     7
 10
139.5439999999999
 20
225.56999999999999
 30
0.0
 11
137.56099999999989
 21
226.71499999999989
 31
0.0
  0
LINE
  5
50
  8
0
 62
     7
 10
137.56099999999989
 20
226.71499999999989
 30
0.0
 11
138.399
 21
227.55299999999991
 31
0.0
  0
LINE
  5
51
  8
0
 62
     7
 10
139.5439999999999
 20
225.56999999999999
 30
0.0
 11
136.50700000000001
 21
228.608
 31
0.0
  0
ARC
  5
52
  8
0
  6
AIGENLINE001
 62
     7
 10
142.2175409999999
 20
223.313534
 30
0.0
 40
3.4998949999999991
 50
0.00565
 51
90.005619999999993
  0
ARC
  5
53
  8
0
  6
AIGENLINE001
 62
     7
 10
142.21685299999999
 20
223.313534
 30
0.0
 40
3.4998949999999991
 50
89.994360000000015
 51
179.99432999999991
  0
ARC
  5
54
  8
0
  6
AIGENLINE001
 62
     7
 10
142.217196
 20
223.31387899999999
 30
0.0
 40
3.5002390000000001
 50
179.99996999999991
 51
270.00002000000001
  0
ARC
  5
55
  8
0
  6
AIGENLINE001
 62
     7
 10
142.217196
 20
223.3138799999999
 30
0.0
 40
3.5002399999999998
 50
270.00002000000001
 51
359.99998999999991
  0
ARC
  5
56
  8
0
  6
AIGENLINE001
 62
     7
 10
62.188650000000003
 20
161.2452449999999
 30
0.0
 40
1.298854999999999
 50
2.1139229999999989
 51
87.886066999999997
  0
ARC
  5
57
  8
0
  6
AIGENLINE001
 62
     7
 10
62.284852999999998
 20
161.2448629999999
 30
0.0
 40
1.299250999999999
 50
92.130128999999997
 51
177.86984099999989
  0
ARC
  5
58
  8
0
  6
AIGENLINE001
 62
     7
 10
62.236559999999997
 20
161.29315500000001
 30
0.0
 40
1.2500610000000001
 50
179.99996999999991
 51
270.00002000000001
  0
ARC
  5
59
  8
0
  6
AIGENLINE001
 62
     7
 10
62.189051999999997
 20
161.340664
 30
0.0
 40
1.298438999999999
 50
272.09686699999992
 51
357.903143
  0
ARC
  5
5A
  8
0
  6
AIGENLINE001
 62
     7
 10
142.129425
 20
223.2261069999999
 30
0.0
 40
2.3893450000000001
 50
2.1052140000000001
 51
87.894776000000007
  0
ARC
  5
5B
  8
0
  6
AIGENLINE001
 62
     7
 10
142.30574300000001
 20
223.22533300000001
 30
0.0
 40
2.3901469999999998
 50
92.123069000000015
 51
177.87690099999989
  0
ARC
  5
5C
  8
0
  6
AIGENLINE001
 62
     7
 10
142.21736899999991
 20
223.313706
 30
0.0
 40
2.3001320000000001
 50
179.99567899999991
 51
269.99572899999993
  0
ARC
  5
5D
  8
0
  6
AIGENLINE001
 62
     7
 10
142.12863699999991
 20
223.40208200000001
 30
0.0
 40
2.3901479999999991
 50
272.12342799999999
 51
357.88516399999997
  0
ARC
  5
5E
  8
0
  6
AIGENLINE001
 62
     7
 10
65.715346999999994
 20
195.32638899999989
 30
0.0
 40
42.283605999999999
 50
270.02861200000001
 51
290.94002599999988
  0
ARC
  5
5F
  8
0
  6
AIGENLINE001
 62
     7
 10
75.947397999999993
 20
168.418305
 30
0.0
 40
13.495960999999999
 50
291.19651299999998
 51
337.90807799999988
  0
ARC
  5
60
  8
0
  6
AIGENLINE001
 62
     7
 10
76.762306999999993
 20
167.90292500000001
 30
0.0
 40
12.54821699999999
 50
338.68916599999989
 51
353.77907399999998
  0
ARC
  5
61
  8
0
 62
     7
 10
72.411846999999995
 20
165.53493700000001
 30
0.0
 40
18.055405
 50
308.51479399999999
 51
356.99498
  0
ARC
  5
62
  8
0
 62
     7
 10
70.905117000000004
 20
167.41210000000001
 30
0.0
 40
20.462454000000001
 50
295.59912700000001
 51
308.54278299999987
  0
LINE
  5
63
  8
0
 62
     7
 10
90.442400000000006
 20
164.589
 30
0.0
 11
90.482000000000014
 21
165.34200000000001
 31
0.0
  0
LINE
  5
64
  8
0
 62
     7
 10
62.236600000000003
 20
148.54300000000001
 30
0.0
 11
79.104200000000006
 21
148.54300000000001
 31
0.0
  0
ARC
  5
65
  8
0
 62
     7
 10
79.832670999999991
 20
148.4498449999999
 30
0.0
 40
0.505514
 50
107.7158459999999
 51
148.08372099999991
  0
ARC
  5
66
  8
0
 62
     7
 10
79.087301999999994
 20
148.91603299999991
 30
0.0
 40
0.373639
 50
272.59191199999998
 51
327.83074599999992
  0
ARC
  5
67
  8
0
 62
     7
 10
79.536651000000006
 20
149.3781909999999
 30
0.0
 40
0.4695420000000001
 50
287.62786299999988
 51
296.575445
  0
ARC
  5
68
  8
0
  6
AIGENLINE001
 62
     7
 10
58.757773999999998
 20
195.32638899999989
 30
0.0
 40
42.283605999999999
 50
249.05999399999999
 51
269.971408
  0
ARC
  5
69
  8
0
  6
AIGENLINE001
 62
     7
 10
48.525717
 20
168.4182899999999
 30
0.0
 40
13.495946
 50
202.091902
 51
248.803506
  0
ARC
  5
6A
  8
0
  6
AIGENLINE001
 62
     7
 10
47.708748
 20
167.9024389999999
 30
0.0
 40
12.546110999999989
 50
186.21976000000001
 51
201.31222199999999
  0
ARC
  5
6B
  8
0
 62
     7
 10
52.062517999999997
 20
165.53557799999999
 30
0.0
 40
18.056681000000001
 50
183.0068629999999
 51
231.48340200000001
  0
ARC
  5
6C
  8
0
 62
     7
 10
53.570118999999991
 20
167.41547800000001
 30
0.0
 40
20.466414999999991
 50
231.458495
 51
244.39963499999999
  0
LINE
  5
6D
  8
0
 62
     7
 10
34.030700000000003
 20
164.589
 30
0.0
 11
33.991100000000003
 21
165.34200000000001
 31
0.0
  0
LINE
  5
6E
  8
0
 62
     7
 10
62.236600000000003
 20
148.54300000000001
 30
0.0
 11
45.368899999999989
 21
148.54300000000001
 31
0.0
  0
ARC
  5
6F
  8
0
 62
     7
 10
44.641869999999997
 20
148.45167000000001
 30
0.0
 40
0.5033440000000001
 50
31.825431999999999
 51
72.374960999999999
  0
ARC
  5
70
  8
0
 62
     7
 10
45.385818
 20
148.91603299999991
 30
0.0
 40
0.373639
 50
212.169274
 51
267.40810800000003
  0
ARC
  5
71
  8
0
 62
     7
 10
44.93958099999999
 20
149.38585499999991
 30
0.0
 40
0.4777899999999999
 50
243.5019529999999
 51
252.29477799999989
  0
ARC
  5
72
  8
0
 62
     7
 10
84.522161999999994
 20
238.06397499999991
 30
0.0
 40
5.4999580000000003
 50
0.00001
 51
89.999980000000008
  0
ARC
  5
73
  8
0
 62
     7
 10
84.77210500000001
 20
238.31374700000001
 30
0.0
 40
2.2500059999999991
 50
0.00001
 51
89.999980000000008
  0
ARC
  5
74
  8
0
 62
     7
 10
35.521915999999997
 20
238.06363099999999
 30
0.0
 40
5.4999580000000003
 50
90.0
 51
179.99996999999991
  0
ARC
  5
75
  8
0
 62
     7
 10
35.272143999999997
 20
238.31357499999999
 30
0.0
 40
2.2500059999999991
 50
90.0
 51
179.99996999999991
  0
ARC
  5
76
  8
0
 62
     7
 10
35.522258999999998
 20
208.563436
 30
0.0
 40
5.4999570000000002
 50
179.99996999999991
 51
270.00002000000001
  0
ARC
  5
77
  8
0
 62
     7
 10
35.272315999999989
 20
208.31366600000001
 30
0.0
 40
2.2500059999999991
 50
179.99996999999991
 51
270.00002000000001
  0
ARC
  5
78
  8
0
 62
     7
 10
84.522506000000007
 20
208.563783
 30
0.0
 40
5.4999580000000003
 50
270.00002000000001
 51
359.99998999999991
  0
ARC
  5
79
  8
0
 62
     7
 10
84.772277999999986
 20
208.313839
 30
0.0
 40
2.2500059999999991
 50
270.00002000000001
 51
359.99998999999991
  0
LINE
  5
7A
  8
0
 62
     7
 10
155.20599999999999
 20
209.52399999999989
 30
0.0
 11
155.798
 21
207.31200000000001
 31
0.0
  0
LINE
  5
7B
  8
0
 62
     7
 10
155.798
 20
207.31200000000001
 30
0.0
 11
156.39099999999991
 21
209.52399999999989
 31
0.0
  0
LINE
  5
7C
  8
0
 62
     7
 10
156.39099999999991
 20
209.52399999999989
 30
0.0
 11
155.20599999999999
 21
209.52399999999989
 31
0.0
  0
LINE
  5
7D
  8
0
 62
     7
 10
156.376
 20
237.102
 30
0.0
 11
155.78399999999991
 21
239.31399999999999
 31
0.0
  0
LINE
  5
7E
  8
0
 62
     7
 10
155.78399999999991
 20
239.31399999999999
 30
0.0
 11
155.191
 21
237.102
 31
0.0
  0
LINE
  5
7F
  8
0
 62
     7
 10
155.191
 20
237.102
 30
0.0
 11
156.376
 21
237.102
 31
0.0
  0
LINE
  5
80
  8
0
 62
     7
 10
155.79099999999991
 20
207.3129999999999
 30
0.0
 11
155.79099999999991
 21
239.3129999999999
 31
0.0
  0
ARC
  5
81
  8
0
 62
     7
 10
173.53464600000001
 20
250.92074600000001
 30
0.0
 40
0.459836
 50
182.07441999999989
 51
267.85871500000002
  0
ARC
  5
82
  8
0
 62
     7
 10
173.5000039999999
 20
250.921741
 30
0.0
 40
0.4608410000000001
 50
272.17145499999992
 51
357.80627399999997
  0
ARC
  5
83
  8
0
 62
     7
 10
173.5009499999999
 20
250.887407
 30
0.0
 40
0.4598600000000001
 50
2.0803829999999999
 51
87.941888000000006
  0
ARC
  5
84
  8
0
 62
     7
 10
173.534943
 20
250.887159
 30
0.0
 40
0.4601430000000001
 50
92.176860999999988
 51
177.890005
  0
ARC
  5
85
  8
0
 62
     7
 10
110.93378799999989
 20
250.920794
 30
0.0
 40
0.4598600000000001
 50
182.080386
 51
267.94192500000003
  0
ARC
  5
86
  8
0
 62
     7
 10
110.89980300000001
 20
250.921392
 30
0.0
 40
0.460492
 50
272.17417399999999
 51
357.84812599999992
  0
ARC
  5
87
  8
0
 62
     7
 10
110.9004249999999
 20
250.88743099999991
 30
0.0
 40
0.459848
 50
2.077399999999999
 51
87.900299999999987
  0
ARC
  5
88
  8
0
 62
     7
 10
110.93473400000001
 20
250.88645999999989
 30
0.0
 40
0.4608410000000001
 50
92.171434999999974
 51
177.806254
  0
LINE
  5
89
  8
0
 62
     7
 10
107.929
 20
205.02799999999991
 30
0.0
 11
107.7949999999999
 21
207.31399999999999
 31
0.0
  0
LINE
  5
8A
  8
0
 62
     7
 10
107.7949999999999
 20
207.31399999999999
 30
0.0
 11
106.76900000000001
 21
205.26699999999991
 31
0.0
  0
LINE
  5
8B
  8
0
 62
     7
 10
106.76900000000001
 20
205.26699999999991
 30
0.0
 11
107.929
 21
205.02799999999991
 31
0.0
  0
LINE
  5
8C
  8
0
 62
     7
 10
107.7949999999999
 20
207.31399999999999
 30
0.0
 11
105.295
 21
195.166
 31
0.0
  0
LINE
  5
8D
  8
0
 62
     7
 10
127.851
 20
212.84099999999989
 30
0.0
 11
121.745
 21
212.84099999999989
 31
0.0
  0
LINE
  5
8E
  8
0
 62
     7
 10
117.94799999999989
 20
209.8829999999999
 30
0.0
 11
116.8029999999999
 21
207.90000000000001
 31
0.0
  0
LINE
  5
8F
  8
0
 62
     7
 10
116.8029999999999
 20
207.90000000000001
 30
0.0
 11
118.786
 21
209.04400000000001
 31
0.0
  0
LINE
  5
90
  8
0
 62
     7
 10
118.786
 20
209.04400000000001
 30
0.0
 11
117.94799999999989
 21
209.8829999999999
 31
0.0
  0
LINE
  5
91
  8
0
 62
     7
 10
116.8029999999999
 20
207.90000000000001
 30
0.0
 11
121.745
 21
212.84099999999989
 31
0.0
  0
LINE
  5
92
  8
0
 62
     7
 10
127.851
 20
233.78700000000001
 30
0.0
 11
121.745
 21
233.78700000000001
 31
0.0
  0
LINE
  5
93
  8
0
 62
     7
 10
118.786
 20
237.583
 30
0.0
 11
116.8029999999999
 21
238.72800000000001
 31
0.0
  0
LINE
  5
94
  8
0
 62
     7
 10
116.8029999999999
 20
238.72800000000001
 30
0.0
 11
117.94799999999989
 21
236.745
 31
0.0
  0
LINE
  5
95
  8
0
 62
     7
 10
117.94799999999989
 20
236.745
 30
0.0
 11
118.786
 21
237.583
 31
0.0
  0
LINE
  5
96
  8
0
 62
     7
 10
116.8029999999999
 20
238.72800000000001
 30
0.0
 11
121.745
 21
233.78700000000001
 31
0.0
  0
LINE
  5
97
  8
0
 62
     7
 10
180.72900000000001
 20
251.4959999999999
 30
0.0
 11
178.51799999999989
 21
250.904
 31
0.0
  0
LINE
  5
98
  8
0
 62
     7
 10
178.51799999999989
 20
250.904
 30
0.0
 11
180.72900000000001
 21
250.31099999999989
 31
0.0
  0
LINE
  5
99
  8
0
 62
     7
 10
180.72900000000001
 20
250.31099999999989
 30
0.0
 11
180.72900000000001
 21
251.4959999999999
 31
0.0
  0
LINE
  5
9A
  8
0
 62
     7
 10
144.429
 20
251.4959999999999
 30
0.0
 11
142.21700000000001
 21
250.904
 31
0.0
  0
LINE
  5
9B
  8
0
 62
     7
 10
142.21700000000001
 20
250.904
 30
0.0
 11
144.429
 21
250.31099999999989
 31
0.0
  0
LINE
  5
9C
  8
0
 62
     7
 10
144.429
 20
250.31099999999989
 30
0.0
 11
144.429
 21
251.4959999999999
 31
0.0
  0
LINE
  5
9D
  8
0
 62
     7
 10
118.429
 20
251.4959999999999
 30
0.0
 11
116.217
 21
250.904
 31
0.0
  0
LINE
  5
9E
  8
0
 62
     7
 10
116.217
 20
250.904
 30
0.0
 11
118.429
 21
250.31099999999989
 31
0.0
  0
LINE
  5
9F
  8
0
 62
     7
 10
118.429
 20
250.31099999999989
 30
0.0
 11
118.429
 21
251.4959999999999
 31
0.0
  0
LINE
  5
A0
  8
0
 62
     7
 10
103.705
 20
250.31200000000001
 30
0.0
 11
105.9169999999999
 21
250.904
 31
0.0
  0
LINE
  5
A1
  8
0
 62
     7
 10
105.9169999999999
 20
250.904
 30
0.0
 11
103.705
 21
251.49700000000001
 31
0.0
  0
LINE
  5
A2
  8
0
 62
     7
 10
103.705
 20
251.49700000000001
 30
0.0
 11
103.705
 21
250.31200000000001
 31
0.0
  0
LINE
  5
A3
  8
0
 62
     7
 10
140.005
 20
250.31200000000001
 30
0.0
 11
142.21700000000001
 21
250.904
 31
0.0
  0
LINE
  5
A4
  8
0
 62
     7
 10
142.21700000000001
 20
250.904
 30
0.0
 11
140.005
 21
251.49700000000001
 31
0.0
  0
LINE
  5
A5
  8
0
 62
     7
 10
140.005
 20
251.49700000000001
 30
0.0
 11
140.005
 21
250.31200000000001
 31
0.0
  0
LINE
  5
A6
  8
0
 62
     7
 10
166.00599999999989
 20
250.31200000000001
 30
0.0
 11
168.21700000000001
 21
250.904
 31
0.0
  0
LINE
  5
A7
  8
0
 62
     7
 10
168.21700000000001
 20
250.904
 30
0.0
 11
166.00599999999989
 21
251.49700000000001
 31
0.0
  0
LINE
  5
A8
  8
0
 62
     7
 10
166.00599999999989
 20
251.49700000000001
 30
0.0
 11
166.00599999999989
 21
250.31200000000001
 31
0.0
  0
LINE
  5
A9
  8
0
 62
     7
 10
97.245300000000015
 20
250.904
 30
0.0
 11
186.27699999999999
 21
250.904
 31
0.0
  0
LINE
  5
AA
  8
0
 62
     7
 10
168.21700000000001
 20
251.60400000000001
 30
0.0
 11
168.21700000000001
 21
239.61600000000001
 31
0.0
  0
LINE
  5
AB
  8
0
 62
     7
 10
118.428
 20
199.51900000000001
 30
0.0
 11
116.217
 21
198.9259999999999
 31
0.0
  0
LINE
  5
AC
  8
0
 62
     7
 10
116.217
 20
198.9259999999999
 30
0.0
 11
118.428
 21
198.334
 31
0.0
  0
LINE
  5
AD
  8
0
 62
     7
 10
118.428
 20
198.334
 30
0.0
 11
118.428
 21
199.51900000000001
 31
0.0
  0
LINE
  5
AE
  8
0
 62
     7
 10
166.00599999999989
 20
198.3479999999999
 30
0.0
 11
168.2179999999999
 21
198.94099999999989
 31
0.0
  0
LINE
  5
AF
  8
0
 62
     7
 10
168.2179999999999
 20
198.94099999999989
 30
0.0
 11
166.00599999999989
 21
199.5329999999999
 31
0.0
  0
LINE
  5
B0
  8
0
 62
     7
 10
166.00599999999989
 20
199.5329999999999
 30
0.0
 11
166.00599999999989
 21
198.3479999999999
 31
0.0
  0
LINE
  5
B1
  8
0
 62
     7
 10
116.217
 20
198.93299999999991
 30
0.0
 11
168.21700000000001
 21
198.93299999999991
 31
0.0
  0
LINE
  5
B2
  8
0
 62
     7
 10
168.21700000000001
 20
207.19999999999999
 30
0.0
 11
168.21700000000001
 21
198.233
 31
0.0
  0
LINE
  5
B3
  8
0
 62
     7
 10
116.217
 20
207.19999999999999
 30
0.0
 11
116.217
 21
198.233
 31
0.0
  0
LINE
  5
B4
  8
0
  6
AIGENLINE002
 62
     7
 10
142.21700000000001
 20
205.101
 30
0.0
 11
142.21700000000001
 21
241.61299999999989
 31
0.0
  0
LINE
  5
B5
  8
0
  6
AIGENLINE002
 62
     7
 10
125.078
 20
161.29300000000001
 30
0.0
 11
130.99299999999999
 21
161.29300000000001
 31
0.0
  0
LINE
  5
B6
  8
0
  6
AIGENLINE002
 62
     7
 10
58.310299999999998
 20
161.29300000000001
 30
0.0
 11
66.171700000000001
 21
161.29300000000001
 31
0.0
  0
LINE
  5
B7
  8
0
  6
AIGENLINE002
 62
     7
 10
113.9939999999999
 20
223.31399999999999
 30
0.0
 11
170.36799999999999
 21
223.31399999999999
 31
0.0
  0
LINE
  5
B8
  8
0
 62
     7
 10
178.51799999999989
 20
251.60400000000001
 30
0.0
 11
178.51799999999989
 21
240.0139999999999
 31
0.0
  0
LINE
  5
B9
  8
0
 62
     7
 10
173.517
 20
251.60400000000001
 30
0.0
 11
173.517
 21
240.0139999999999
 31
0.0
  0
LINE
  5
BA
  8
0
  6
AIGENLINE003
 62
     7
 10
173.517
 20
207.31399999999999
 30
0.0
 11
178.51799999999989
 21
207.31399999999999
 31
0.0
  0
LINE
  5
BB
  8
0
  6
AIGENLINE003
 62
     7
 10
173.517
 20
239.31399999999999
 30
0.0
 11
178.51799999999989
 21
239.31399999999999
 31
0.0
  0
LINE
  5
BC
  8
0
  6
AIGENLINE003
 62
     7
 10
178.51799999999989
 20
207.31399999999999
 30
0.0
 11
178.51799999999989
 21
239.31399999999999
 31
0.0
  0
LINE
  5
BD
  8
0
  6
AIGENLINE003
 62
     7
 10
173.517
 20
207.31399999999999
 30
0.0
 11
173.517
 21
239.31399999999999
 31
0.0
  0
LINE
  5
BE
  8
0
 62
     7
 10
142.21700000000001
 20
251.60400000000001
 30
0.0
 11
142.21700000000001
 21
242.46899999999999
 31
0.0
  0
LINE
  5
BF
  8
0
 62
     7
 10
116.217
 20
251.60400000000001
 30
0.0
 11
116.217
 21
239.61600000000001
 31
0.0
  0
LINE
  5
C0
  8
0
 62
     7
 10
105.9169999999999
 20
251.60400000000001
 30
0.0
 11
105.9169999999999
 21
240.0139999999999
 31
0.0
  0
LINE
  5
C1
  8
0
 62
     7
 10
110.9169999999999
 20
251.60400000000001
 30
0.0
 11
110.9169999999999
 21
240.0139999999999
 31
0.0
  0
LINE
  5
C2
  8
0
 62
     7
 10
168.21700000000001
 20
209.31399999999999
 30
0.0
 11
168.21700000000001
 21
237.31399999999999
 31
0.0
  0
LINE
  5
C3
  8
0
 62
     7
 10
118.217
 20
239.31399999999999
 30
0.0
 11
166.21700000000001
 21
239.31399999999999
 31
0.0
  0
ARC
  5
C4
  8
0
 62
     7
 10
166.21743399999991
 20
237.31380200000001
 30
0.0
 40
2.000062999999999
 50
0.004945
 51
90.004914999999997
  0
LINE
  5
C5
  8
0
 62
     7
 10
118.217
 20
207.31399999999999
 30
0.0
 11
166.21700000000001
 21
207.31399999999999
 31
0.0
  0
ARC
  5
C6
  8
0
 62
     7
 10
166.2173469999999
 20
209.31386999999989
 30
0.0
 40
2.0001489999999991
 50
269.99755299999993
 51
359.997523
  0
LINE
  5
C7
  8
0
 62
     7
 10
116.217
 20
209.31399999999999
 30
0.0
 11
116.217
 21
237.31399999999999
 31
0.0
  0
ARC
  5
C8
  8
0
 62
     7
 10
118.2173899999999
 20
209.31386999999989
 30
0.0
 40
2.0001489999999991
 50
180.002477
 51
270.00248699999997
  0
ARC
  5
C9
  8
0
 62
     7
 10
118.217304
 20
237.31380200000001
 30
0.0
 40
2.000062999999999
 50
89.995064999999997
 51
179.995036
  0
LINE
  5
CA
  8
0
  6
AIGENLINE003
 62
     7
 10
110.9169999999999
 20
207.31399999999999
 30
0.0
 11
105.9169999999999
 21
207.31399999999999
 31
0.0
  0
LINE
  5
CB
  8
0
  6
AIGENLINE003
 62
     7
 10
110.9169999999999
 20
239.31399999999999
 30
0.0
 11
105.9169999999999
 21
239.31399999999999
 31
0.0
  0
LINE
  5
CC
  8
0
  6
AIGENLINE003
 62
     7
 10
105.9169999999999
 20
207.31399999999999
 30
0.0
 11
105.9169999999999
 21
239.31399999999999
 31
0.0
  0
LINE
  5
CD
  8
0
  6
AIGENLINE003
 62
     7
 10
110.9169999999999
 20
207.31399999999999
 30
0.0
 11
110.9169999999999
 21
239.31399999999999
 31
0.0
  0
LINE
  5
CE
  8
0
  6
AIGENLINE003
 62
     7
 10
105.9169999999999
 20
207.31399999999999
 30
0.0
 11
110.9169999999999
 21
239.31399999999999
 31
0.0
  0
LINE
  5
CF
  8
0
  6
AIGENLINE003
 62
     7
 10
110.9169999999999
 20
207.31399999999999
 30
0.0
 11
105.9169999999999
 21
239.31399999999999
 31
0.0
  0
LINE
  5
D0
  8
0
  6
AIGENLINE003
 62
     7
 10
173.517
 20
207.31399999999999
 30
0.0
 11
178.51799999999989
 21
239.31399999999999
 31
0.0
  0
LINE
  5
D1
  8
0
  6
AIGENLINE003
 62
     7
 10
178.51799999999989
 20
207.31399999999999
 30
0.0
 11
173.517
 21
239.31399999999999
 31
0.0
  0
LINE
  5
D2
  8
0
  6
AIGENLINE001
 62
     7
 10
58.736699999999999
 20
153.04300000000001
 30
0.0
 11
59.936599999999999
 21
152.04300000000001
 31
0.0
  0
LINE
  5
D3
  8
0
  6
AIGENLINE001
 62
     7
 10
64.536500000000004
 20
152.04300000000001
 30
0.0
 11
65.736800000000002
 21
153.04300000000001
 31
0.0
  0
LINE
  5
D4
  8
0
  6
AIGENLINE001
 62
     7
 10
58.736699999999999
 20
153.04300000000001
 30
0.0
 11
65.736800000000002
 21
153.04300000000001
 31
0.0
  0
LINE
  5
D5
  8
0
  6
AIGENLINE001
 62
     7
 10
59.936599999999999
 20
152.04300000000001
 30
0.0
 11
64.536500000000004
 21
152.04300000000001
 31
0.0
  0
LINE
  5
D6
  8
0
  6
AIGENLINE001
 62
     7
 10
59.936599999999999
 20
152.04300000000001
 30
0.0
 11
59.936599999999999
 21
148.54300000000001
 31
0.0
  0
LINE
  5
D7
  8
0
  6
AIGENLINE001
 62
     7
 10
64.536500000000004
 20
152.04300000000001
 30
0.0
 11
64.536500000000004
 21
148.54300000000001
 31
0.0
  0
LINE
  5
D8
  8
0
  6
AIGENLINE002
 62
     7
 10
62.236600000000003
 20
146.25200000000001
 30
0.0
 11
62.236600000000003
 21
168.51900000000001
 31
0.0
  0
LINE
  5
D9
  8
0
 62
     7
 10
91.494600000000005
 20
166.54300000000001
 30
0.0
 11
32.978900000000003
 21
166.54300000000001
 31
0.0
  0
ARC
  5
DA
  8
0
 62
     7
 10
91.471681000000004
 20
165.81815599999999
 30
0.0
 40
0.7253750000000001
 50
6.3936349999999988
 51
88.192272999999986
  0
LINE
  5
DB
  8
0
 62
     7
 10
92.236999999999995
 20
165.34200000000001
 30
0.0
 11
92.192499999999995
 21
165.899
 31
0.0
  0
LINE
  5
DC
  8
0
 62
     7
 10
32.280900000000003
 20
165.899
 30
0.0
 11
32.236499999999999
 21
165.34200000000001
 31
0.0
  0
ARC
  5
DD
  8
0
 62
     7
 10
33.000461000000001
 20
165.81881499999989
 30
0.0
 40
0.7239870000000001
 50
91.706452999999996
 51
173.64648600000001
  0
LINE
  5
DE
  8
0
 62
     7
 10
32.236499999999999
 20
165.34200000000001
 30
0.0
 11
92.236999999999995
 21
165.34200000000001
 31
0.0
  0
ARC
  5
DF
  8
0
  6
AIGENLINE001
 62
     7
 10
144.219742
 20
173.222544
 30
0.0
 40
20.378004999999991
 50
199.133723
 51
217.46945699999989
  0
ARC
  5
E0
  8
0
  6
AIGENLINE001
 62
     7
 10
146.44029399999999
 20
174.83892
 30
0.0
 40
23.123811
 50
217.30105499999991
 51
250.49012699999989
  0
ARC
  5
E1
  8
0
 62
     7
 10
143.752838
 20
167.8366959999999
 30
0.0
 40
20.939516000000001
 50
230.71519399999991
 51
247.133386
  0
ARC
  5
E2
  8
0
 62
     7
 10
142.23302699999991
 20
165.76669999999999
 30
0.0
 40
18.375506000000001
 50
206.32780500000001
 51
230.296356
  0
ARC
  5
E3
  8
0
 62
     7
 10
141.66303899999991
 20
165.317905
 30
0.0
 40
17.666231
 50
182.362145
 51
205.84310099999999
  0
LINE
  5
E4
  8
0
 62
     7
 10
124.012
 20
164.59
 30
0.0
 11
123.96599999999999
 21
165.34399999999999
 31
0.0
  0
ARC
  5
E5
  8
0
  6
AIGENLINE001
 62
     7
 10
140.21420900000001
 20
173.22293999999999
 30
0.0
 40
20.379203
 50
322.53174300000001
 51
340.866288
  0
ARC
  5
E6
  8
0
  6
AIGENLINE001
 62
     7
 10
137.99629299999989
 20
174.83703600000001
 30
0.0
 40
23.121531999999998
 50
289.50793900000002
 51
322.700534
  0
LINE
  5
E7
  8
0
  6
AIGENLINE001
 62
     7
 10
138.71700000000001
 20
153.04300000000001
 30
0.0
 11
139.917
 21
152.04300000000001
 31
0.0
  0
LINE
  5
E8
  8
0
  6
AIGENLINE001
 62
     7
 10
144.517
 20
152.04300000000001
 30
0.0
 11
145.71700000000001
 21
153.04300000000001
 31
0.0
  0
LINE
  5
E9
  8
0
  6
AIGENLINE001
 62
     7
 10
138.71700000000001
 20
153.04300000000001
 30
0.0
 11
145.71700000000001
 21
153.04300000000001
 31
0.0
  0
LINE
  5
EA
  8
0
  6
AIGENLINE001
 62
     7
 10
139.917
 20
152.04300000000001
 30
0.0
 11
144.517
 21
152.04300000000001
 31
0.0
  0
LINE
  5
EB
  8
0
  6
AIGENLINE001
 62
     7
 10
139.917
 20
152.04300000000001
 30
0.0
 11
139.917
 21
148.54300000000001
 31
0.0
  0
LINE
  5
EC
  8
0
  6
AIGENLINE001
 62
     7
 10
144.517
 20
152.04300000000001
 30
0.0
 11
144.517
 21
148.54300000000001
 31
0.0
  0
LINE
  5
ED
  8
0
  6
AIGENLINE002
 62
     7
 10
142.21700000000001
 20
146.25200000000001
 30
0.0
 11
142.21700000000001
 21
168.51900000000001
 31
0.0
  0
LINE
  5
EE
  8
0
 62
     7
 10
148.8189999999999
 20
148.54300000000001
 30
0.0
 11
135.61600000000001
 21
148.54300000000001
 31
0.0
  0
LINE
  5
EF
  8
0
 62
     7
 10
161.72499999999999
 20
166.54300000000001
 30
0.0
 11
122.70999999999989
 21
166.54300000000001
 31
0.0
  0
ARC
  5
F0
  8
0
 62
     7
 10
140.68160299999991
 20
167.83768499999999
 30
0.0
 40
20.940809999999999
 50
292.86806899999988
 51
309.28488199999993
  0
ARC
  5
F1
  8
0
 62
     7
 10
142.2018139999999
 20
165.76722100000001
 30
0.0
 40
18.376184999999989
 50
309.70366899999988
 51
333.67144899999988
  0
ARC
  5
F2
  8
0
 62
     7
 10
142.77653000000001
 20
165.317061
 30
0.0
 40
17.662057999999991
 50
334.15340400000002
 51
357.64005800000001
  0
LINE
  5
F3
  8
0
 62
     7
 10
160.42400000000001
 20
164.59
 30
0.0
 11
160.46899999999991
 21
165.34399999999999
 31
0.0
  0
ARC
  5
F4
  8
0
 62
     7
 10
161.702291
 20
165.81815599999999
 30
0.0
 40
0.7253750000000001
 50
6.3936349999999988
 51
88.192272999999986
  0
LINE
  5
F5
  8
0
 62
     7
 10
162.4679999999999
 20
165.34200000000001
 30
0.0
 11
162.423
 21
165.899
 31
0.0
  0
LINE
  5
F6
  8
0
 62
     7
 10
140.60599999999991
 20
166.54300000000001
 30
0.0
 11
140.60599999999991
 21
153.04300000000001
 31
0.0
  0
LINE
  5
F7
  8
0
 62
     7
 10
141.19799999999989
 20
164.3309999999999
 30
0.0
 11
140.60599999999991
 21
166.54300000000001
 31
0.0
  0
LINE
  5
F8
  8
0
 62
     7
 10
140.60599999999991
 20
166.54300000000001
 30
0.0
 11
140.01300000000001
 21
164.3309999999999
 31
0.0
  0
LINE
  5
F9
  8
0
 62
     7
 10
140.01300000000001
 20
164.3309999999999
 30
0.0
 11
141.19799999999989
 21
164.3309999999999
 31
0.0
  0
LINE
  5
FA
  8
0
 62
     7
 10
140.01300000000001
 20
155.255
 30
0.0
 11
140.60599999999991
 21
153.04300000000001
 31
0.0
  0
LINE
  5
FB
  8
0
 62
     7
 10
140.60599999999991
 20
153.04300000000001
 30
0.0
 11
141.19799999999989
 21
155.255
 31
0.0
  0
LINE
  5
FC
  8
0
 62
     7
 10
141.19799999999989
 20
155.255
 30
0.0
 11
140.01300000000001
 21
155.255
 31
0.0
  0
LINE
  5
FD
  8
0
 62
     7
 10
122.012
 20
165.899
 30
0.0
 11
121.967
 21
165.34200000000001
 31
0.0
  0
ARC
  5
FE
  8
0
 62
     7
 10
122.73112399999989
 20
165.81881499999989
 30
0.0
 40
0.7239870000000001
 50
91.706452999999996
 51
173.64648600000001
  0
LINE
  5
FF
  8
0
 62
     7
 10
121.967
 20
165.34200000000001
 30
0.0
 11
162.4679999999999
 21
165.34200000000001
 31
0.0
  0
LINE
  5
100
  8
0
 62
     7
 10
63.631300000000003
 20
220.542
 30
0.0
 11
61.648499999999999
 21
221.68700000000001
 31
0.0
  0
LINE
  5
101
  8
0
 62
     7
 10
61.648499999999999
 20
221.68700000000001
 30
0.0
 11
62.793300000000002
 21
219.70400000000001
 31
0.0
  0
LINE
  5
102
  8
0
 62
     7
 10
62.793300000000002
 20
219.70400000000001
 30
0.0
 11
63.631300000000003
 21
220.542
 31
0.0
  0
LINE
  5
103
  8
0
 62
     7
 10
56.4129
 20
226.08500000000001
 30
0.0
 11
58.395800000000001
 21
224.94
 31
0.0
  0
LINE
  5
104
  8
0
 62
     7
 10
58.395800000000001
 20
224.94
 30
0.0
 11
57.251000000000012
 21
226.92299999999989
 31
0.0
  0
LINE
  5
105
  8
0
 62
     7
 10
57.251000000000012
 20
226.92299999999989
 30
0.0
 11
56.4129
 21
226.08500000000001
 31
0.0
  0
LINE
  5
106
  8
0
 62
     7
 10
54.982700000000001
 20
228.35299999999989
 30
0.0
 11
65.584699999999984
 21
217.75099999999989
 31
0.0
  0
LINE
  5
107
  8
0
 62
     7
 10
80.869799999999998
 20
148.54300000000001
 30
0.0
 11
104.3949999999999
 21
148.54300000000001
 31
0.0
  0
LINE
  5
108
  8
0
 62
     7
 10
92.894699999999986
 20
166.54300000000001
 30
0.0
 11
104.3949999999999
 21
166.54300000000001
 31
0.0
  0
LINE
  5
109
  8
0
 62
     7
 10
104.2799999999999
 20
164.33299999999991
 30
0.0
 11
103.6879999999999
 21
166.5449999999999
 31
0.0
  0
LINE
  5
10A
  8
0
 62
     7
 10
103.6879999999999
 20
166.5449999999999
 30
0.0
 11
103.095
 21
164.33299999999991
 31
0.0
  0
LINE
  5
10B
  8
0
 62
     7
 10
103.095
 20
164.33299999999991
 30
0.0
 11
104.2799999999999
 21
164.33299999999991
 31
0.0
  0
LINE
  5
10C
  8
0
 62
     7
 10
103.10899999999999
 20
150.7529999999999
 30
0.0
 11
103.702
 21
148.54099999999991
 31
0.0
  0
LINE
  5
10D
  8
0
 62
     7
 10
103.702
 20
148.54099999999991
 30
0.0
 11
104.295
 21
150.7529999999999
 31
0.0
  0
LINE
  5
10E
  8
0
 62
     7
 10
104.295
 20
150.7529999999999
 30
0.0
 11
103.10899999999999
 21
150.7529999999999
 31
0.0
  0
LINE
  5
10F
  8
0
 62
     7
 10
162.46700000000001
 20
164.64199999999991
 30
0.0
 11
162.46700000000001
 21
140.56100000000001
 31
0.0
  0
LINE
  5
110
  8
0
 62
     7
 10
142.21700000000001
 20
145.55199999999999
 30
0.0
 11
142.21700000000001
 21
140.56100000000001
 31
0.0
  0
LINE
  5
111
  8
0
 62
     7
 10
103.69499999999999
 20
166.54300000000001
 30
0.0
 11
103.69499999999999
 21
148.54300000000001
 31
0.0
  0
LINE
  5
112
  8
0
 62
     7
 10
98.518600000000021
 20
163.12999999999991
 30
0.0
 11
97.926100000000005
 21
165.34200000000001
 31
0.0
  0
LINE
  5
113
  8
0
 62
     7
 10
97.926100000000005
 20
165.34200000000001
 30
0.0
 11
97.333299999999994
 21
163.12999999999991
 31
0.0
  0
LINE
  5
114
  8
0
 62
     7
 10
97.333299999999994
 20
163.12999999999991
 30
0.0
 11
98.518600000000021
 21
163.12999999999991
 31
0.0
  0
LINE
  5
115
  8
0
 62
     7
 10
97.333500000000015
 20
168.75499999999991
 30
0.0
 11
97.926100000000005
 21
166.54300000000001
 31
0.0
  0
LINE
  5
116
  8
0
 62
     7
 10
97.926100000000005
 20
166.54300000000001
 30
0.0
 11
98.518800000000013
 21
168.75499999999991
 31
0.0
  0
LINE
  5
117
  8
0
 62
     7
 10
98.518800000000013
 20
168.75499999999991
 30
0.0
 11
97.333500000000015
 21
168.75499999999991
 31
0.0
  0
LINE
  5
118
  8
0
 62
     7
 10
97.926100000000005
 20
172.52299999999991
 30
0.0
 11
97.926100000000005
 21
161.35699999999991
 31
0.0
  0
LINE
  5
119
  8
0
 62
     7
 10
98.626099999999994
 20
165.34200000000001
 30
0.0
 11
92.937000000000012
 21
165.34200000000001
 31
0.0
  0
ARC
  5
11A
  8
0
 62
     7
 10
60.022297000000002
 20
223.31379200000001
 30
0.0
 40
3.4999809999999991
 50
0.00142
 51
90.001390000000001
  0
ARC
  5
11B
  8
0
 62
     7
 10
60.022126
 20
223.31379200000001
 30
0.0
 40
3.4999809999999991
 50
89.998589999999993
 51
179.99856
  0
ARC
  5
11C
  8
0
 62
     7
 10
60.022210000000001
 20
223.31387899999999
 30
0.0
 40
3.5000659999999999
 50
179.99996999999991
 51
270.00002000000001
  0
ARC
  5
11D
  8
0
 62
     7
 10
60.022210000000001
 20
223.3138799999999
 30
0.0
 40
3.500067
 50
270.00002000000001
 51
359.99998999999991
  0
LINE
  5
11E
  8
0
  6
AIGENLINE002
 62
     7
 10
91.431200000000004
 20
223.31399999999999
 30
0.0
 11
28.5002
 21
223.31399999999999
 31
0.0
  0
LINE
  5
11F
  8
0
  6
AIGENLINE002
 62
     7
 10
60.022199999999998
 20
201.09999999999999
 30
0.0
 11
60.022199999999998
 21
245.101
 31
0.0
  0
ARC
  5
120
  8
0
 62
     7
 10
60.022297000000002
 20
223.313793
 30
0.0
 40
2.3000470000000002
 50
0.002155
 51
90.002126000000004
  0
ARC
  5
121
  8
0
 62
     7
 10
60.022210999999992
 20
223.31387899999999
 30
0.0
 40
2.2999610000000001
 50
90.0
 51
179.99996999999991
  0
ARC
  5
122
  8
0
 62
     7
 10
60.022297000000002
 20
223.313793
 30
0.0
 40
2.300046
 50
179.99782500000001
 51
269.99787400000002
  0
ARC
  5
123
  8
0
 62
     7
 10
60.022210999999992
 20
223.3138799999999
 30
0.0
 40
2.3001330000000002
 50
270.00002000000001
 51
359.99998999999991
  0
LINE
  5
124
  8
0
 62
     7
 10
87.141800000000003
 20
206.06399999999999
 30
0.0
 11
97.0124
 21
206.06399999999999
 31
0.0
  0
LINE
  5
125
  8
0
 62
     7
 10
49.3108
 20
228.35299999999989
 30
0.0
 11
54.982700000000001
 21
228.35299999999989
 31
0.0
  0
LINE
  5
126
  8
0
 62
     7
 10
87.141800000000003
 20
240.56399999999999
 30
0.0
 11
97.0124
 21
240.56399999999999
 31
0.0
  0
LINE
  5
127
  8
0
 62
     7
 10
79.539100000000005
 20
241.35299999999989
 30
0.0
 11
78.946600000000004
 21
243.56499999999991
 31
0.0
  0
LINE
  5
128
  8
0
 62
     7
 10
78.946600000000004
 20
243.56499999999991
 30
0.0
 11
78.353899999999996
 21
241.35299999999989
 31
0.0
  0
LINE
  5
129
  8
0
 62
     7
 10
78.353899999999996
 20
241.35299999999989
 30
0.0
 11
79.539100000000005
 21
241.35299999999989
 31
0.0
  0
LINE
  5
12A
  8
0
 62
     7
 10
78.368499999999997
 20
205.274
 30
0.0
 11
78.961100000000002
 21
203.0629999999999
 31
0.0
  0
LINE
  5
12B
  8
0
 62
     7
 10
78.961100000000002
 20
203.0629999999999
 30
0.0
 11
79.553799999999995
 21
205.274
 31
0.0
  0
LINE
  5
12C
  8
0
 62
     7
 10
79.553799999999995
 20
205.274
 30
0.0
 11
78.368499999999997
 21
205.274
 31
0.0
  0
LINE
  5
12D
  8
0
 62
     7
 10
78.953800000000001
 20
243.56399999999999
 30
0.0
 11
78.953800000000001
 21
203.06399999999999
 31
0.0
  0
LINE
  5
12E
  8
0
 62
     7
 10
96.897700000000015
 20
238.35299999999989
 30
0.0
 11
96.305199999999999
 21
240.565
 31
0.0
  0
LINE
  5
12F
  8
0
 62
     7
 10
96.305199999999999
 20
240.565
 30
0.0
 11
95.712400000000017
 21
238.35299999999989
 31
0.0
  0
LINE
  5
130
  8
0
 62
     7
 10
95.712400000000017
 20
238.35299999999989
 30
0.0
 11
96.897700000000015
 21
238.35299999999989
 31
0.0
  0
LINE
  5
131
  8
0
 62
     7
 10
95.727099999999979
 20
208.27499999999989
 30
0.0
 11
96.319599999999994
 21
206.0629999999999
 31
0.0
  0
LINE
  5
132
  8
0
 62
     7
 10
96.319599999999994
 20
206.0629999999999
 30
0.0
 11
96.912400000000005
 21
208.27499999999989
 31
0.0
  0
LINE
  5
133
  8
0
 62
     7
 10
96.912400000000005
 20
208.27499999999989
 30
0.0
 11
95.727099999999979
 21
208.27499999999989
 31
0.0
  0
LINE
  5
134
  8
0
 62
     7
 10
96.312399999999997
 20
240.565
 30
0.0
 11
96.312399999999997
 21
206.0629999999999
 31
0.0
  0
LINE
  5
135
  8
0
 62
     7
 10
87.022300000000001
 20
205.13399999999999
 30
0.0
 11
87.022300000000001
 21
192.65499999999989
 31
0.0
  0
LINE
  5
136
  8
0
 62
     7
 10
33.022100000000002
 20
205.13399999999999
 30
0.0
 11
33.022100000000002
 21
192.65499999999989
 31
0.0
  0
LINE
  5
137
  8
0
 62
     7
 10
160.2579999999999
 20
140.68299999999999
 30
0.0
 11
162.46899999999999
 21
141.27600000000001
 31
0.0
  0
LINE
  5
138
  8
0
 62
     7
 10
162.46899999999999
 20
141.27600000000001
 30
0.0
 11
160.2579999999999
 21
141.86899999999989
 31
0.0
  0
LINE
  5
139
  8
0
 62
     7
 10
160.2579999999999
 20
141.86899999999989
 30
0.0
 11
160.2579999999999
 21
140.68299999999999
 31
0.0
  0
LINE
  5
13A
  8
0
 62
     7
 10
144.429
 20
141.8539999999999
 30
0.0
 11
142.21700000000001
 21
141.26099999999991
 31
0.0
  0
LINE
  5
13B
  8
0
 62
     7
 10
142.21700000000001
 20
141.26099999999991
 30
0.0
 11
144.429
 21
140.66800000000001
 31
0.0
  0
LINE
  5
13C
  8
0
 62
     7
 10
144.429
 20
140.66800000000001
 30
0.0
 11
144.429
 21
141.8539999999999
 31
0.0
  0
LINE
  5
13D
  8
0
 62
     7
 10
162.4679999999999
 20
141.26799999999989
 30
0.0
 11
142.2179999999999
 21
141.26799999999989
 31
0.0
  0
LINE
  5
13E
  8
0
 62
     7
 10
41.024599999999992
 20
241.35299999999989
 30
0.0
 11
40.432099999999998
 21
243.56499999999991
 31
0.0
  0
LINE
  5
13F
  8
0
 62
     7
 10
40.432099999999998
 20
243.56499999999991
 30
0.0
 11
39.839300000000001
 21
241.35299999999989
 31
0.0
  0
LINE
  5
140
  8
0
 62
     7
 10
39.839300000000001
 20
241.35299999999989
 30
0.0
 11
41.024599999999992
 21
241.35299999999989
 31
0.0
  0
LINE
  5
141
  8
0
 62
     7
 10
39.853999999999999
 20
225.52500000000001
 30
0.0
 11
40.446499999999993
 21
223.31299999999999
 31
0.0
  0
LINE
  5
142
  8
0
 62
     7
 10
40.446499999999993
 20
223.31299999999999
 30
0.0
 11
41.039299999999997
 21
225.52500000000001
 31
0.0
  0
LINE
  5
143
  8
0
 62
     7
 10
41.039299999999997
 20
225.52500000000001
 30
0.0
 11
39.853999999999999
 21
225.52500000000001
 31
0.0
  0
LINE
  5
144
  8
0
 62
     7
 10
40.439300000000003
 20
243.56399999999999
 30
0.0
 11
40.439300000000003
 21
223.31399999999999
 31
0.0
  0
LINE
  5
145
  8
0
 62
     7
 10
90.022499999999994
 20
205.03599999999989
 30
0.0
 11
90.022499999999994
 21
185.709
 31
0.0
  0
LINE
  5
146
  8
0
 62
     7
 10
30.022099999999991
 20
205.13399999999999
 30
0.0
 11
30.022099999999991
 21
185.709
 31
0.0
  0
LINE
  5
147
  8
0
 62
     7
 10
87.811700000000016
 20
185.82400000000001
 30
0.0
 11
90.023499999999984
 21
186.417
 31
0.0
  0
LINE
  5
148
  8
0
 62
     7
 10
90.023499999999984
 20
186.417
 30
0.0
 11
87.811700000000016
 21
187.00899999999999
 31
0.0
  0
LINE
  5
149
  8
0
 62
     7
 10
87.811700000000016
 20
187.00899999999999
 30
0.0
 11
87.811700000000016
 21
185.82400000000001
 31
0.0
  0
LINE
  5
14A
  8
0
 62
     7
 10
32.232900000000001
 20
186.995
 30
0.0
 11
30.021100000000001
 21
186.40199999999999
 31
0.0
  0
LINE
  5
14B
  8
0
 62
     7
 10
30.021100000000001
 20
186.40199999999999
 30
0.0
 11
32.232900000000001
 21
185.809
 31
0.0
  0
LINE
  5
14C
  8
0
 62
     7
 10
32.232900000000001
 20
185.809
 30
0.0
 11
32.232900000000001
 21
186.995
 31
0.0
  0
LINE
  5
14D
  8
0
 62
     7
 10
90.022499999999994
 20
186.40899999999999
 30
0.0
 11
30.022099999999991
 21
186.40899999999999
 31
0.0
  0
LINE
  5
14E
  8
0
 62
     7
 10
84.811599999999999
 20
192.77000000000001
 30
0.0
 11
87.023300000000006
 21
193.36199999999991
 31
0.0
  0
LINE
  5
14F
  8
0
 62
     7
 10
87.023300000000006
 20
193.36199999999991
 30
0.0
 11
84.811599999999999
 21
193.95500000000001
 31
0.0
  0
LINE
  5
150
  8
0
 62
     7
 10
84.811599999999999
 20
193.95500000000001
 30
0.0
 11
84.811599999999999
 21
192.77000000000001
 31
0.0
  0
LINE
  5
151
  8
0
 62
     7
 10
35.232900000000001
 20
193.94
 30
0.0
 11
33.02109999999999
 21
193.3479999999999
 31
0.0
  0
LINE
  5
152
  8
0
 62
     7
 10
33.02109999999999
 20
193.3479999999999
 30
0.0
 11
35.232900000000001
 21
192.755
 31
0.0
  0
LINE
  5
153
  8
0
 62
     7
 10
35.232900000000001
 20
192.755
 30
0.0
 11
35.232900000000001
 21
193.94
 31
0.0
  0
LINE
  5
154
  8
0
 62
     7
 10
87.023300000000006
 20
193.3549999999999
 30
0.0
 11
33.02109999999999
 21
193.3549999999999
 31
0.0
  0
ARC
  5
155
  8
0
 62
     7
 10
143.8479429999999
 20
126.515558
 30
0.0
 40
1.000289999999999
 50
359.99014299999999
 51
89.990113000000008
  0
ARC
  5
156
  8
0
 62
     7
 10
143.809819
 20
126.5540399999999
 30
0.0
 40
1.0391330000000001
 50
272.112076
 51
357.86819400000002
  0
ARC
  5
157
  8
0
 62
     7
 10
142.21999700000001
 20
126.554016
 30
0.0
 40
1.0391209999999991
 50
182.13050699999999
 51
267.86952200000002
  0
ARC
  5
158
  8
0
 62
     7
 10
142.220685
 20
126.47678399999999
 30
0.0
 40
1.039806999999999
 50
92.166991999999993
 51
177.87245100000001
  0
LINE
  5
159
  8
0
  6
AIGENLINE002
 62
     7
 10
140.6039999999999
 20
126.5149999999999
 30
0.0
 11
145.42599999999999
 21
126.5149999999999
 31
0.0
  0
LINE
  5
15A
  8
0
  6
AIGENLINE002
 62
     7
 10
143.0149999999999
 20
125.13
 30
0.0
 11
143.0149999999999
 21
127.91799999999991
 31
0.0
  0
LINE
  5
15B
  8
0
  6
AIGENLINE002
 62
     7
 10
143.84800000000001
 20
128.0749999999999
 30
0.0
 11
143.84800000000001
 21
124.8869999999999
 31
0.0
  0
LINE
  5
15C
  8
0
  6
AIGENLINE002
 62
     7
 10
142.18100000000001
 20
128.0749999999999
 30
0.0
 11
142.18100000000001
 21
124.8869999999999
 31
0.0
  0
LINE
  5
15D
  8
0
 62
     7
 10
143.84800000000001
 20
127.51600000000001
 30
0.0
 11
142.18100000000001
 21
127.51600000000001
 31
0.0
  0
LINE
  5
15E
  8
0
 62
     7
 10
143.84800000000001
 20
125.51600000000001
 30
0.0
 11
142.18100000000001
 21
125.51600000000001
 31
0.0
  0
LINE
  5
15F
  8
0
  6
AIGENLINE002
 62
     7
 10
143.0149999999999
 20
93.341700000000003
 30
0.0
 11
143.0149999999999
 21
90.459500000000006
 31
0.0
  0
LINE
  5
160
  8
0
 62
     7
 10
135.5149999999999
 20
121.51600000000001
 30
0.0
 11
135.5149999999999
 21
131.51599999999991
 31
0.0
  0
LINE
  5
161
  8
0
 62
     7
 10
132.18100000000001
 20
121.8489999999999
 30
0.0
 11
132.18100000000001
 21
131.18199999999999
 31
0.0
  0
LINE
  5
162
  8
0
 62
     7
 10
147.80999999999989
 20
91.680400000000006
 30
0.0
 11
152.8549999999999
 21
91.680400000000006
 31
0.0
  0
LINE
  5
163
  8
0
 62
     7
 10
147.80999999999989
 20
92.180000000000007
 30
0.0
 11
152.8549999999999
 21
92.180000000000007
 31
0.0
  0
LINE
  5
164
  8
0
 62
     7
 10
147.18199999999999
 20
131.51599999999991
 30
0.0
 11
130.5149999999999
 21
131.51599999999991
 31
0.0
  0
LINE
  5
165
  8
0
 62
     7
 10
130.5149999999999
 20
121.51600000000001
 30
0.0
 11
130.5149999999999
 21
131.51599999999991
 31
0.0
  0
LINE
  5
166
  8
0
 62
     7
 10
147.18199999999999
 20
121.51600000000001
 30
0.0
 11
130.5149999999999
 21
121.51600000000001
 31
0.0
  0
LINE
  5
167
  8
0
 62
     7
 10
147.18199999999999
 20
121.51600000000001
 30
0.0
 11
147.18199999999999
 21
131.51599999999991
 31
0.0
  0
LINE
  5
168
  8
0
 62
     7
 10
147.18199999999999
 20
91.680400000000006
 30
0.0
 11
135.6109999999999
 21
91.680400000000006
 31
0.0
  0
LINE
  5
169
  8
0
 62
     7
 10
135.03399999999991
 20
92.013199999999998
 30
0.0
 11
131.858
 21
97.513700000000014
 31
0.0
  0
ARC
  5
16A
  8
0
 62
     7
 10
135.617402
 20
92.358506000000006
 30
0.0
 40
0.6781080000000002
 50
210.609444
 51
269.47466700000001
  0
LINE
  5
16B
  8
0
 62
     7
 10
135.54900000000001
 20
92.180000000000007
 30
0.0
 11
132.37399999999991
 21
97.680400000000006
 31
0.0
  0
LINE
  5
16C
  8
0
 62
     7
 10
131.79599999999999
 20
98.013199999999998
 30
0.0
 11
130.5149999999999
 21
98.013199999999998
 31
0.0
  0
ARC
  5
16D
  8
0
 62
     7
 10
131.78910400000001
 20
97.333280000000002
 30
0.0
 40
0.680001
 50
30.699383000000001
 51
89.384687999999997
  0
LINE
  5
16E
  8
0
 62
     7
 10
131.858
 20
97.513700000000014
 30
0.0
 11
130.5149999999999
 21
97.513700000000014
 31
0.0
  0
LINE
  5
16F
  8
0
 62
     7
 10
130.5149999999999
 20
97.513700000000014
 30
0.0
 11
130.5149999999999
 21
98.013199999999998
 31
0.0
  0
LINE
  5
170
  8
0
 62
     7
 10
147.18199999999999
 20
92.180000000000007
 30
0.0
 11
135.54900000000001
 21
92.180000000000007
 31
0.0
  0
LINE
  5
171
  8
0
 62
     7
 10
147.18199999999999
 20
91.680400000000006
 30
0.0
 11
147.18199999999999
 21
92.180000000000007
 31
0.0
  0
LINE
  5
172
  8
0
 62
     7
 10
143.0149999999999
 20
124.895
 30
0.0
 11
143.0149999999999
 21
115.92100000000001
 31
0.0
  0
LINE
  5
173
  8
0
 62
     7
 10
145.70699999999991
 20
115.9459999999999
 30
0.0
 11
147.18199999999999
 21
116.342
 31
0.0
  0
LINE
  5
174
  8
0
 62
     7
 10
147.18199999999999
 20
116.342
 30
0.0
 11
145.70699999999991
 21
116.73699999999999
 31
0.0
  0
LINE
  5
175
  8
0
 62
     7
 10
145.70699999999991
 20
116.73699999999999
 30
0.0
 11
145.70699999999991
 21
115.9459999999999
 31
0.0
  0
LINE
  5
176
  8
0
 62
     7
 10
144.489
 20
116.727
 30
0.0
 11
143.0149999999999
 21
116.33199999999999
 31
0.0
  0
LINE
  5
177
  8
0
 62
     7
 10
143.0149999999999
 20
116.33199999999999
 30
0.0
 11
144.489
 21
115.937
 31
0.0
  0
LINE
  5
178
  8
0
 62
     7
 10
144.489
 20
115.937
 30
0.0
 11
144.489
 21
116.727
 31
0.0
  0
LINE
  5
179
  8
0
 62
     7
 10
147.18199999999999
 20
116.33199999999999
 30
0.0
 11
136.54699999999991
 21
116.33199999999999
 31
0.0
  0
LINE
  5
17A
  8
0
 62
     7
 10
130.5149999999999
 20
120.8739999999999
 30
0.0
 11
130.5149999999999
 21
110.9909999999999
 31
0.0
  0
LINE
  5
17B
  8
0
 62
     7
 10
147.18199999999999
 20
120.8739999999999
 30
0.0
 11
147.18199999999999
 21
110.9909999999999
 31
0.0
  0
LINE
  5
17C
  8
0
 62
     7
 10
132.18399999999991
 20
99.318899999999999
 30
0.0
 11
131.42099999999991
 21
97.996700000000004
 31
0.0
  0
LINE
  5
17D
  8
0
 62
     7
 10
131.42099999999991
 20
97.996700000000004
 30
0.0
 11
132.74299999999991
 21
98.760099999999994
 31
0.0
  0
LINE
  5
17E
  8
0
 62
     7
 10
132.74299999999991
 20
98.760099999999994
 30
0.0
 11
132.18399999999991
 21
99.318899999999999
 31
0.0
  0
LINE
  5
17F
  8
0
 62
     7
 10
134.17599999999999
 20
100.752
 30
0.0
 11
131.42099999999991
 21
97.996700000000004
 31
0.0
  0
LINE
  5
180
  8
0
 62
     7
 10
150.4489999999999
 20
100.752
 30
0.0
 11
134.17599999999999
 21
100.752
 31
0.0
  0
LINE
  5
181
  8
0
 62
     7
 10
145.70699999999991
 20
111.01600000000001
 30
0.0
 11
147.18199999999999
 21
111.41199999999991
 31
0.0
  0
LINE
  5
182
  8
0
 62
     7
 10
147.18199999999999
 20
111.41199999999991
 30
0.0
 11
145.70699999999991
 21
111.807
 31
0.0
  0
LINE
  5
183
  8
0
 62
     7
 10
145.70699999999991
 20
111.807
 30
0.0
 11
145.70699999999991
 21
111.01600000000001
 31
0.0
  0
LINE
  5
184
  8
0
 62
     7
 10
131.989
 20
111.797
 30
0.0
 11
130.5149999999999
 21
111.402
 31
0.0
  0
LINE
  5
185
  8
0
 62
     7
 10
130.5149999999999
 20
111.402
 30
0.0
 11
131.989
 21
111.00700000000001
 31
0.0
  0
LINE
  5
186
  8
0
 62
     7
 10
131.989
 20
111.00700000000001
 30
0.0
 11
131.989
 21
111.797
 31
0.0
  0
LINE
  5
187
  8
0
 62
     7
 10
147.18199999999999
 20
111.402
 30
0.0
 11
130.5149999999999
 21
111.402
 31
0.0
  0
LINE
  5
188
  8
0
 62
     7
 10
134.58000000000001
 20
91.680400000000006
 30
0.0
 11
126.33199999999989
 21
91.680400000000006
 31
0.0
  0
LINE
  5
189
  8
0
 62
     7
 10
129.899
 20
98.013199999999998
 30
0.0
 11
126.33199999999989
 21
98.013199999999998
 31
0.0
  0
LINE
  5
18A
  8
0
 62
     7
 10
127.137
 20
96.539400000000001
 30
0.0
 11
126.7419999999999
 21
98.013900000000007
 31
0.0
  0
LINE
  5
18B
  8
0
 62
     7
 10
126.7419999999999
 20
98.013900000000007
 30
0.0
 11
126.34699999999999
 21
96.539400000000001
 31
0.0
  0
LINE
  5
18C
  8
0
 62
     7
 10
126.34699999999999
 20
96.539400000000001
 30
0.0
 11
127.137
 21
96.539400000000001
 31
0.0
  0
LINE
  5
18D
  8
0
 62
     7
 10
126.35599999999999
 20
93.154200000000003
 30
0.0
 11
126.751
 21
91.679699999999997
 31
0.0
  0
LINE
  5
18E
  8
0
 62
     7
 10
126.751
 20
91.679699999999997
 30
0.0
 11
127.14700000000001
 21
93.154200000000003
 31
0.0
  0
LINE
  5
18F
  8
0
 62
     7
 10
127.14700000000001
 20
93.154200000000003
 30
0.0
 11
126.35599999999999
 21
93.154200000000003
 31
0.0
  0
LINE
  5
190
  8
0
 62
     7
 10
126.7419999999999
 20
98.013199999999998
 30
0.0
 11
126.7419999999999
 21
91.680400000000006
 31
0.0
  0
LINE
  5
191
  8
0
 62
     7
 10
147.80999999999989
 20
121.51600000000001
 30
0.0
 11
153.995
 21
121.51600000000001
 31
0.0
  0
LINE
  5
192
  8
0
 62
     7
 10
147.80999999999989
 20
131.51599999999991
 30
0.0
 11
153.995
 21
131.51599999999991
 31
0.0
  0
LINE
  5
193
  8
0
 62
     7
 10
152.83999999999989
 20
90.2059
 30
0.0
 11
152.44399999999999
 21
91.680400000000006
 31
0.0
  0
LINE
  5
194
  8
0
 62
     7
 10
152.44399999999999
 20
91.680400000000006
 30
0.0
 11
152.04900000000001
 21
90.2059
 31
0.0
  0
LINE
  5
195
  8
0
 62
     7
 10
152.04900000000001
 20
90.2059
 30
0.0
 11
152.83999999999989
 21
90.2059
 31
0.0
  0
LINE
  5
196
  8
0
 62
     7
 10
152.04900000000001
 20
93.654499999999999
 30
0.0
 11
152.44399999999999
 21
92.180000000000007
 31
0.0
  0
LINE
  5
197
  8
0
 62
     7
 10
152.44399999999999
 20
92.180000000000007
 30
0.0
 11
152.83999999999989
 21
93.654499999999999
 31
0.0
  0
LINE
  5
198
  8
0
 62
     7
 10
152.83999999999989
 20
93.654499999999999
 30
0.0
 11
152.04900000000001
 21
93.654499999999999
 31
0.0
  0
LINE
  5
199
  8
0
 62
     7
 10
152.44399999999999
 20
97.519900000000007
 30
0.0
 11
152.44399999999999
 21
89.226799999999983
 31
0.0
  0
LINE
  5
19A
  8
0
 62
     7
 10
153.9789999999999
 20
130.041
 30
0.0
 11
153.584
 21
131.51599999999991
 31
0.0
  0
LINE
  5
19B
  8
0
 62
     7
 10
153.584
 20
131.51599999999991
 30
0.0
 11
153.18899999999991
 21
130.041
 31
0.0
  0
LINE
  5
19C
  8
0
 62
     7
 10
153.18899999999991
 20
130.041
 30
0.0
 11
153.9789999999999
 21
130.041
 31
0.0
  0
LINE
  5
19D
  8
0
 62
     7
 10
153.1989999999999
 20
122.9899999999999
 30
0.0
 11
153.59299999999999
 21
121.5149999999999
 31
0.0
  0
LINE
  5
19E
  8
0
 62
     7
 10
153.59299999999999
 20
121.5149999999999
 30
0.0
 11
153.988
 21
122.9899999999999
 31
0.0
  0
LINE
  5
19F
  8
0
 62
     7
 10
153.988
 20
122.9899999999999
 30
0.0
 11
153.1989999999999
 21
122.9899999999999
 31
0.0
  0
LINE
  5
1A0
  8
0
 62
     7
 10
153.584
 20
131.51599999999991
 30
0.0
 11
153.584
 21
121.51600000000001
 31
0.0
  0
TEXT
  5
1A1
  8
_________2
 62
     7
 10
29.525700000000001
 20
22.2272
 30
0.0
 40
3.9357000000000002
  1
実容量：4.0L、重量14.0kg、オーバーフロー付
 41
0.5
  0
LINE
  5
1A2
  8
_________2
 62
     7
 10
105.2389999999999
 20
17.428499999999989
 30
0.0
 11
105.2389999999999
 21
0.4485540000000001
 31
0.0
  0
LINE
  5
1A3
  8
_________2
 62
     7
 10
81.679900000000004
 20
51.324300000000001
 30
0.0
 11
79.493700000000004
 21
51.324300000000001
 31
0.0
  0
LINE
  5
1A4
  8
_________2
 62
     7
 10
82.172600000000017
 20
51.324300000000001
 30
0.0
 11
81.920400000000001
 21
51.324300000000001
 31
0.0
  0
LINE
  5
1A5
  8
_________2
 62
     7
 10
82.665199999999984
 20
51.324300000000001
 30
0.0
 11
85.590100000000007
 21
51.324300000000001
 31
0.0
  0
LINE
  5
1A6
  8
_________2
 62
     7
 10
82.172600000000017
 20
51.324300000000001
 30
0.0
 11
82.424800000000005
 21
51.324300000000001
 31
0.0
  0
LINE
  5
1A7
  8
_________2
 62
     7
 10
75.776399999999995
 20
51.324300000000001
 30
0.0
 11
73.589399999999998
 21
51.324300000000001
 31
0.0
  0
LINE
  5
1A8
  8
_________2
 62
     7
 10
76.2684
 20
51.324300000000001
 30
0.0
 11
76.016900000000007
 21
51.324300000000001
 31
0.0
  0
LINE
  5
1A9
  8
_________2
 62
     7
 10
76.2684
 20
51.817
 30
0.0
 11
76.2684
 21
54.003900000000002
 31
0.0
  0
LINE
  5
1AA
  8
_________2
 62
     7
 10
76.2684
 20
51.324300000000001
 30
0.0
 11
76.2684
 21
51.576900000000002
 31
0.0
  0
LINE
  5
1AB
  8
_________2
 62
     7
 10
76.76100000000001
 20
51.324300000000001
 30
0.0
 11
78.947999999999993
 21
51.324300000000001
 31
0.0
  0
LINE
  5
1AC
  8
_________2
 62
     7
 10
76.2684
 20
51.324300000000001
 30
0.0
 11
76.520499999999998
 21
51.324300000000001
 31
0.0
  0
LINE
  5
1AD
  8
_________2
 62
     7
 10
76.2684
 20
50.832399999999993
 30
0.0
 11
76.2684
 21
48.645699999999998
 31
0.0
  0
LINE
  5
1AE
  8
_________2
 62
     7
 10
76.2684
 20
51.324300000000001
 30
0.0
 11
76.2684
 21
51.072800000000001
 31
0.0
  0
LINE
  5
1AF
  8
_________2
 62
     7
 10
79.979399999999984
 20
50.104799999999997
 30
0.0
 11
85.157399999999996
 21
49.240000000000002
 31
0.0
  0
LINE
  5
1B0
  8
_________2
 62
     7
 10
79.979399999999984
 20
52.544199999999989
 30
0.0
 11
85.157399999999996
 21
53.409700000000001
 31
0.0
  0
LINE
  5
1B1
  8
_________2
 62
     7
 10
85.157399999999996
 20
49.240000000000002
 30
0.0
 11
85.157399999999996
 21
53.409700000000001
 31
0.0
  0
LINE
  5
1B2
  8
_________2
 62
     7
 10
79.979399999999984
 20
50.104799999999997
 30
0.0
 11
79.979399999999984
 21
52.544199999999989
 31
0.0
  0
ARC
  5
1B3
  8
_________2
 62
     7
 10
76.221766000000002
 20
51.277380999999998
 30
0.0
 40
1.267714
 50
2.1220840000000001
 51
87.894083999999992
  0
ARC
  5
1B4
  8
_________2
 62
     7
 10
76.315297000000001
 20
51.277734999999993
 30
0.0
 40
1.267374999999999
 50
92.122849999999985
 51
177.893304
  0
ARC
  5
1B5
  8
_________2
 62
     7
 10
76.315273000000005
 20
51.371245999999992
 30
0.0
 40
1.267363
 50
182.12181499999991
 51
267.87821400000001
  0
ARC
  5
1B6
  8
_________2
 62
     7
 10
76.221461000000005
 20
51.371928999999987
 30
0.0
 40
1.2680439999999991
 50
272.11916400000001
 51
357.84848499999993
  0
ARC
  5
1B7
  8
_________2
 62
     7
 10
76.187981999999991
 20
51.244312999999998
 30
0.0
 40
2.1668310000000002
 50
2.1161439999999989
 51
87.874379000000005
  0
ARC
  5
1B8
  8
_________2
 62
     7
 10
76.348411999999996
 20
51.245334999999997
 30
0.0
 40
2.1657980000000001
 50
92.118487999999999
 51
177.90988599999989
  0
ARC
  5
1B9
  8
_________2
 62
     7
 10
76.348354
 20
51.404327000000002
 30
0.0
 40
2.1657779999999991
 50
182.11700400000001
 51
267.88302499999992
  0
ARC
  5
1BA
  8
_________2
 62
     7
 10
76.188378999999983
 20
51.405009999999997
 30
0.0
 40
2.1664590000000001
 50
272.11546800000002
 51
357.86560400000002
  0
TEXT
  5
1BB
  8
_________2
 62
     7
 10
109.5439999999999
 20
23.199100000000001
 30
0.0
 40
3.0923400000000001
  1
図番
 41
0.5
  0
LINE
  5
1BC
  8
_________2
 62
     7
 10
108.4889999999999
 20
27.4283
 30
0.0
 11
188.49000000000001
 21
27.4283
 31
0.0
  0
TEXT
  5
1BD
  8
_________2
 62
     7
 10
109.5439999999999
 20
33.198900000000002
 30
0.0
 40
3.0923400000000001
  1
品番
 41
0.5
  0
TEXT
  5
1BE
  8
_________2
 62
     7
 10
109.5439999999999
 20
53.338000000000001
 30
0.0
 40
3.0923400000000001
  1
名称
 41
0.5
  0
TEXT
  5
1BF
  8
_________2
 62
     7
 10
96.784058333333334
 20
48.341900000000003
 30
0.0
 40
3.6545800000000002
  1
mm
 41
0.5
 72
     1
 11
98.306799999999996
 21
48.341900000000003
 31
0.0
  0
TEXT
  5
1C0
  8
_________2
 62
     7
 10
90.582099999999997
 20
53.338000000000001
 30
0.0
 40
3.0923400000000001
  1
単位
 41
0.5
  0
TEXT
  5
1C1
  8
_________2
 62
     7
 10
90.582099999999997
 20
40.930399999999999
 30
0.0
 40
3.0923400000000001
  1
尺度
 41
0.5
  0
TEXT
  5
1C2
  8
_________2
 62
     7
 10
95.030836166666674
 20
34.7378
 30
0.0
 40
3.6545800000000002
  1
1 ： 10
 41
0.5
 72
     1
 11
98.898600000000002
 21
34.7378
 31
0.0
  0
TEXT
  5
1C3
  8
_________2
 62
     7
 10
141.27354999999989
 20
30.627800000000001
 30
0.0
 40
3.9357000000000002
  1
VB616300
 41
0.5
 72
     1
 11
148.489
 21
30.627800000000001
 31
0.0
  0
TEXT
  5
1C4
  8
_________2
 62
     7
 10
141.27354999999989
 20
20.626999999999988
 30
0.0
 40
3.9357000000000002
  1
VB616300
 41
0.5
 72
     1
 11
148.489
 21
20.626999999999988
 31
0.0
  0
TEXT
  5
1C5
  8
_________2
 62
     7
 10
114.11799999999999
 20
45.745600000000003
 30
0.0
 40
3.9357000000000002
  1
ループ＆フレンズ アンダーカウンター式洗面器
 41
0.5
  0
TEXT
  5
1C6
  8
_________2
 62
     7
 10
44.364200333333329
 20
35.122999999999998
 30
0.0
 40
3.6545800000000002
  1
早川
 41
0.5
 72
     1
 11
46.252400000000002
 21
35.122999999999998
 31
0.0
  0
TEXT
  5
1C7
  8
_________2
 62
     7
 10
25.729290666666671
 20
35.122999999999998
 30
0.0
 40
3.6545800000000002
  1
菅原
 41
0.5
 72
     1
 11
27.6784
 21
35.122999999999998
 31
0.0
  0
TEXT
  5
1C8
  8
_________2
 62
     7
 10
72.724699999999999
 20
34.7378
 30
0.0
 40
3.6545800000000002
  1
13.06.12
 41
0.5
  0
TEXT
  5
1C9
  8
_________2
 62
     7
 10
71.531999999999996
 20
40.930399999999999
 30
0.0
 40
3.0923400000000001
  1
日付
 41
0.5
  0
TEXT
  5
1CA
  8
_________2
 62
     7
 10
34.578299999999992
 20
40.930399999999999
 30
0.0
 40
3.0923400000000001
  1
検図
 41
0.5
  0
TEXT
  5
1CB
  8
_________2
 62
     7
 10
22.96019999999999
 20
26.730999999999991
 30
0.0
 40
3.0923400000000001
  1
備考
 41
0.5
  0
TEXT
  5
1CC
  8
_________2
 62
     7
 10
22.96019999999999
 20
40.930399999999999
 30
0.0
 40
3.0923400000000001
  1
製図
 41
0.5
  0
TEXT
  5
1CD
  8
_________2
 62
     7
 10
28.727365333333339
 20
49.456400000000002
 30
0.0
 40
4.4979399999999989
  1
セラトレーディング株式会社
 41
0.5
 72
     1
 11
46.119399999999992
 21
49.456400000000002
 31
0.0
  0
LINE
  5
1CE
  8
_________2
 62
     7
 10
188.49000000000001
 20
17.428499999999989
 30
0.0
 11
21.988499999999991
 21
17.428499999999989
 31
0.0
  0
LINE
  5
1CF
  8
_________2
 62
     7
 10
21.988499999999991
 20
17.428499999999989
 30
0.0
 11
21.988499999999991
 21
280.42999999999989
 31
0.0
  0
LINE
  5
1D0
  8
_________2
 62
     7
 10
21.988499999999991
 20
280.42999999999989
 30
0.0
 11
188.49000000000001
 21
280.42999999999989
 31
0.0
  0
LINE
  5
1D1
  8
_________2
 62
     7
 10
188.49000000000001
 20
280.42999999999989
 30
0.0
 11
188.49000000000001
 21
17.428499999999989
 31
0.0
  0
LINE
  5
1D2
  8
_________2
 62
     7
 10
70.488799999999998
 20
30.928899999999999
 30
0.0
 11
70.488799999999998
 21
57.428699999999992
 31
0.0
  0
LINE
  5
1D3
  8
_________2
 62
     7
 10
89.488600000000005
 20
30.928899999999999
 30
0.0
 11
89.488600000000005
 21
57.428699999999992
 31
0.0
  0
LINE
  5
1D4
  8
_________2
 62
     7
 10
108.4889999999999
 20
17.428499999999989
 30
0.0
 11
108.4889999999999
 21
57.428699999999992
 31
0.0
  0
LINE
  5
1D5
  8
_________2
 62
     7
 10
33.488300000000002
 20
30.928899999999999
 30
0.0
 11
33.488300000000002
 21
44.928800000000003
 31
0.0
  0
LINE
  5
1D6
  8
_________2
 62
     7
 10
21.988499999999991
 20
30.928899999999999
 30
0.0
 11
108.4889999999999
 21
30.928899999999999
 31
0.0
  0
LINE
  5
1D7
  8
_________2
 62
     7
 10
21.988499999999991
 20
44.928800000000003
 30
0.0
 11
108.4889999999999
 21
44.928800000000003
 31
0.0
  0
LINE
  5
1D8
  8
_________2
 62
     7
 10
108.4889999999999
 20
37.428100000000001
 30
0.0
 11
188.49000000000001
 21
37.428100000000001
 31
0.0
  0
LINE
  5
1D9
  8
_________2
 62
     7
 10
21.988499999999991
 20
57.428699999999992
 30
0.0
 11
188.49000000000001
 21
57.428699999999992
 31
0.0
  0
LINE
  5
1DA
  8
_________2
 62
     7
 10
210.24000000000001
 20
148.93100000000001
 30
0.0
 11
188.489
 21
148.93100000000001
 31
0.0
  0
LINE
  5
1DB
  8
_________2
 62
     7
 10
105.2389999999999
 20
297.45099999999991
 30
0.0
 11
105.2389999999999
 21
280.42999999999989
 31
0.0
  0
LINE
  5
1DC
  8
_________2
 62
     7
 10
21.988499999999991
 20
148.93100000000001
 30
0.0
 11
0.238402
 21
148.93100000000001
 31
0.0
  0
ENDSEC
  0
EOF
