  0
SECTION
  2
HEADER
  9
$ACADVER
  1
AC1009
  9
$INSBASE
 10
0.0
 20
0.0
 30
0.0
  9
$EXTMIN
 10
-4.70052
 20
-21.070699999999992
 30
0.0
  9
$EXTMAX
 10
205.30099999999999
 20
275.93099999999993
 30
0.0
  9
$LIMMIN
 10
0.0
 20
0.0
  9
$LIMMAX
 10
12.0
 20
9.0
  9
$ORTHOMODE
 70
     0
  9
$REGENMODE
 70
     1
  9
$FILLMODE
 70
     1
  9
$QTEXTMODE
 70
     0
  9
$MIRRTEXT
 70
     1
  9
$DRAGMODE
 70
     2
  9
$LTSCALE
 40
1.0
  9
$OSMODE
 70
    37
  9
$ATTMODE
 70
     1
  9
$TEXTSIZE
 40
0.0
  9
$TRACEWID
 40
0.05
  9
$TEXTSTYLE
  7
STANDARD
  9
$CLAYER
  8
0
  9
$CELTYPE
  6
CONTINUOUS
  9
$CECOLOR
 62
   256
  9
$DIMSCALE
 40
1.0
  9
$DIMASZ
 40
0.18
  9
$DIMEXO
 40
0.0625
  9
$DIMDLI
 40
0.38
  9
$DIMRND
 40
0.0
  9
$DIMDLE
 40
0.0
  9
$DIMEXE
 40
0.18
  9
$DIMTP
 40
0.0
  9
$DIMTM
 40
0.0
  9
$DIMTXT
 40
0.18
  9
$DIMCEN
 40
0.09
  9
$DIMTSZ
 40
0.0
  9
$DIMTOL
 70
     0
  9
$DIMLIM
 70
     0
  9
$DIMTIH
 70
     1
  9
$DIMTOH
 70
     1
  9
$DIMSE1
 70
     0
  9
$DIMSE2
 70
     0
  9
$DIMTAD
 70
     0
  9
$DIMZIN
 70
     0
  9
$DIMBLK
  1

  9
$DIMASO
 70
     1
  9
$DIMSHO
 70
     1
  9
$DIMPOST
  1

  9
$DIMAPOST
  1

  9
$DIMALT
 70
     0
  9
$DIMALTD
 70
     2
  9
$DIMALTF
 40
25.399999999999999
  9
$DIMLFAC
 40
1.0
  9
$DIMTOFL
 70
     0
  9
$DIMTVP
 40
0.0
  9
$DIMTIX
 70
     0
  9
$DIMSOXD
 70
     0
  9
$DIMSAH
 70
     0
  9
$DIMBLK1
  1

  9
$DIMBLK2
  1

  9
$DIMSTYLE
  2
STANDARD
  9
$DIMCLRD
 70
     0
  9
$DIMCLRE
 70
     0
  9
$DIMCLRT
 70
     0
  9
$DIMTFAC
 40
1.0
  9
$DIMGAP
 40
0.09
  9
$LUNITS
 70
     2
  9
$LUPREC
 70
     4
  9
$SKETCHINC
 40
0.1
  9
$FILLETRAD
 40
0.0
  9
$AUNITS
 70
     0
  9
$AUPREC
 70
     0
  9
$MENU
  1
.
  9
$ELEVATION
 40
0.0
  9
$PELEVATION
 40
0.0
  9
$THICKNESS
 40
0.0
  9
$LIMCHECK
 70
     0
  9
$BLIPMODE
 70
     0
  9
$CHAMFERA
 40
0.0
  9
$CHAMFERB
 40
0.0
  9
$SKPOLY
 70
     0
  9
$TDCREATE
 40
2444972.375
  9
$TDUPDATE
 40
2456571.2494231709
  9
$TDINDWG
 40
0.0000066088
  9
$TDUSRTIMER
 40
0.0000066088
  9
$USRTIMER
 70
     1
  9
$ANGBASE
 50
0.0
  9
$ANGDIR
 70
     0
  9
$PDMODE
 70
     0
  9
$PDSIZE
 40
0.0
  9
$PLINEWID
 40
0.0
  9
$COORDS
 70
     1
  9
$SPLFRAME
 70
     0
  9
$SPLINETYPE
 70
     6
  9
$SPLINESEGS
 70
     8
  9
$ATTDIA
 70
     0
  9
$ATTREQ
 70
     1
  9
$HANDLING
 70
     1
  9
$HANDSEED
  5
28F
  9
$SURFTAB1
 70
     6
  9
$SURFTAB2
 70
     6
  9
$SURFTYPE
 70
     6
  9
$SURFU
 70
     6
  9
$SURFV
 70
     6
  9
$UCSNAME
  2

  9
$UCSORG
 10
0.0
 20
0.0
 30
0.0
  9
$UCSXDIR
 10
1.0
 20
0.0
 30
0.0
  9
$UCSYDIR
 10
0.0
 20
1.0
 30
0.0
  9
$PUCSNAME
  2

  9
$PUCSORG
 10
0.0
 20
0.0
 30
0.0
  9
$PUCSXDIR
 10
1.0
 20
0.0
 30
0.0
  9
$PUCSYDIR
 10
0.0
 20
1.0
 30
0.0
  9
$USERI1
 70
     0
  9
$USERI2
 70
     0
  9
$USERI3
 70
     0
  9
$USERI4
 70
     0
  9
$USERI5
 70
     0
  9
$USERR1
 40
0.0
  9
$USERR2
 40
0.0
  9
$USERR3
 40
0.0
  9
$USERR4
 40
0.0
  9
$USERR5
 40
0.0
  9
$WORLDVIEW
 70
     1
  9
$SHADEDGE
 70
     3
  9
$SHADEDIF
 70
    70
  9
$TILEMODE
 70
     1
  9
$MAXACTVP
 70
    48
  9
$PLIMCHECK
 70
     0
  9
$PEXTMIN
 10
1.0000000000000000E+020
 20
1.0000000000000000E+020
 30
1.0000000000000000E+020
  9
$PEXTMAX
 10
-1.0000000000000000E+020
 20
-1.0000000000000000E+020
 30
-1.0000000000000000E+020
  9
$PLIMMIN
 10
0.0
 20
0.0
  9
$PLIMMAX
 10
12.0
 20
9.0
  9
$UNITMODE
 70
     0
  9
$VISRETAIN
 70
     1
  9
$PLINEGEN
 70
     0
  9
$PSLTSCALE
 70
     1
  0
ENDSEC
  0
SECTION
  2
TABLES
  0
TABLE
  2
VPORT
 70
     2
  0
VPORT
  2
*ACTIVE
 70
     0
 10
0.0
 20
0.0
 11
1.0
 21
1.0
 12
209.69275093403411
 22
127.4301499999999
 13
0.0
 23
0.0
 14
1.0
 24
1.0
 15
0.0
 25
0.0
 16
0.0
 26
0.0
 36
1.0
 17
0.0
 27
0.0
 37
0.0
 40
299.37454980026621
 41
2.2894736842105261
 42
50.0
 43
0.0
 44
0.0
 50
0.0
 51
0.0
 71
     0
 72
   100
 73
     1
 74
     1
 75
     0
 76
     0
 77
     0
 78
     0
  0
ENDTAB
  0
TABLE
  2
LTYPE
 70
     3
  0
LTYPE
  2
CONTINUOUS
 70
     0
  3
Solid line
 72
    65
 73
     0
 40
0.0
  0
LTYPE
  2
AIGENLINE001
 70
     0
  3
generate AI->DXF Converter
 72
    65
 73
     2
 40
1.5522299999999991
 49
0.776115
 49
-0.776115
  0
LTYPE
  2
AIGENLINE002
 70
     0
  3
generate AI->DXF Converter
 72
    65
 73
     4
 40
5.8561449999999988
 49
3.5278
 49
-0.776115
 49
0.776115
 49
-0.776115
  0
ENDTAB
  0
TABLE
  2
LAYER
 70
     2
  0
LAYER
  2
0
 70
     0
 62
     7
  6
CONTINUOUS
  0
LAYER
  2
_________2
 70
     0
 62
     7
  6
CONTINUOUS
  0
ENDTAB
  0
TABLE
  2
STYLE
 70
     1
  0
STYLE
  2
STANDARD
 70
     0
 40
0.0
 41
0.0
 50
0.0
 71
     0
 42
0.0
  3
TXT
  4
EXTFONT.SHX
  0
ENDTAB
  0
TABLE
  2
VIEW
 70
     0
  0
ENDTAB
  0
TABLE
  2
UCS
 70
     0
  0
ENDTAB
  0
TABLE
  2
APPID
 70
     1
  0
APPID
  2
ACAD
 70
     0
  0
ENDTAB
  0
TABLE
  2
DIMSTYLE
 70
     1
  0
DIMSTYLE
  2
STANDARD
 70
     0
  3

  4

  5

  6

  7

 40
1.0
 41
0.18
 42
0.0625
 43
0.38
 44
0.18
 45
0.0
 46
0.0
 47
0.0
 48
0.0
140
0.18
141
0.09
142
0.0
143
25.399999999999999
144
1.0
145
0.0
146
1.0
147
0.09
 71
     0
 72
     0
 73
     1
 74
     1
 75
     0
 76
     0
 77
     0
 78
     0
170
     0
171
     2
172
     0
173
     0
174
     0
175
     0
176
     0
177
     0
178
     0
  0
ENDTAB
  0
ENDSEC
  0
SECTION
  2
BLOCKS
  0
BLOCK
  8
0
  2
$MODEL_SPACE
 70
     0
 10
0.0
 20
0.0
 30
0.0
  3
$MODEL_SPACE
  1

  0
ENDBLK
  5
1A
  8
0
  0
BLOCK
 67
     1
  8
0
  2
$PAPER_SPACE
 70
     0
 10
0.0
 20
0.0
 30
0.0
  3
$PAPER_SPACE
  1

  0
ENDBLK
  5
17
 67
     1
  8
0
  0
ENDSEC
  0
SECTION
  2
ENTITIES
  0
TEXT
  5
23
  8
0
 62
     7
 10
144.50074499999999
 20
156.95899999999989
 30
0.0
 40
3.0923400000000001
  1
30
 41
0.5
 72
     2
 11
146.81999999999991
 21
156.95899999999989
 31
0.0
  0
TEXT
  5
24
  8
0
 62
     7
 10
142.86898249999999
 20
191.227
 30
0.0
 40
3.0923400000000001
  1
150
 41
0.5
 72
     1
 11
144.5439999999999
 21
191.227
 31
0.0
  0
TEXT
  5
25
  8
0
 62
     7
 10
131.94099999999989
 20
206.64199999999991
 30
0.0
 40
3.0923400000000001
  1
5
 41
0.5
  0
TEXT
  5
26
  8
0
 62
     7
 10
145.2401349999999
 20
222.75
 30
0.0
 40
3.0923400000000001
  1
200
 41
0.5
 72
     1
 11
147.0439999999999
 21
222.75
 31
0.0
  0
TEXT
  5
27
  8
0
 62
     7
 10
118.1729999999999
 20
183.8287599999999
 30
0.0
 40
3.0923400000000001
  1
カウンター切込寸法
 50
90.0
 41
0.5
 72
     1
 11
118.1729999999999
 21
192.0749999999999
 31
0.0
  0
TEXT
  5
28
  8
0
 62
     7
 10
67.462580000000003
 20
102.495
 30
0.0
 40
3.0923400000000001
  1
%%c35
 41
0.5
 72
     2
 11
71.585700000000003
 21
102.495
 31
0.0
  0
TEXT
  5
29
  8
0
 62
     7
 10
77.239180000000005
 20
99.770899999999997
 30
0.0
 40
3.0923400000000001
  1
%%c46
 41
0.5
 72
     2
 11
81.362300000000005
 21
99.770899999999997
 31
0.0
  0
TEXT
  5
2A
  8
0
 62
     7
 10
108.4679999999999
 20
190.2711349999999
 30
0.0
 40
3.0923400000000001
  1
600
 50
90.0
 41
0.5
 72
     1
 11
108.4679999999999
 21
192.0749999999999
 31
0.0
  0
TEXT
  5
2B
  8
0
 62
     7
 10
39.074699999999993
 20
175.27113499999999
 30
0.0
 40
3.0923400000000001
  1
300
 50
90.0
 41
0.5
 72
     1
 11
39.074699999999993
 21
177.0749999999999
 31
0.0
  0
TEXT
  5
2C
  8
0
 62
     7
 10
39.074699999999993
 20
205.27113499999999
 30
0.0
 40
3.0923400000000001
  1
300
 50
90.0
 41
0.5
 72
     1
 11
39.074699999999993
 21
207.0749999999999
 31
0.0
  0
TEXT
  5
2D
  8
0
 62
     7
 10
117.962
 20
91.985687500000012
 30
0.0
 40
3.0923400000000001
  1
630
 50
90.0
 41
0.5
 72
     1
 11
117.962
 21
93.918400000000005
 31
0.0
  0
TEXT
  5
2E
  8
0
 62
     7
 10
38.433
 20
97.383830000000003
 30
0.0
 40
3.0923400000000001
  1
100
 50
90.0
 41
0.5
 72
     1
 11
38.433
 21
98.930000000000007
 31
0.0
  0
TEXT
  5
2F
  8
0
 62
     7
 10
38.433
 20
87.383629999999997
 30
0.0
 40
3.0923400000000001
  1
100
 50
90.0
 41
0.5
 72
     1
 11
38.433
 21
88.929799999999986
 31
0.0
  0
TEXT
  5
30
  8
0
 62
     7
 10
109.65300000000001
 20
55.313800000000001
 30
0.0
 40
3.0923400000000001
  1
20
 50
90.0
 41
0.5
  0
TEXT
  5
31
  8
0
 62
     7
 10
109.65300000000001
 20
91.985687500000012
 30
0.0
 40
3.0923400000000001
  1
490
 50
90.0
 41
0.5
 72
     1
 11
109.65300000000001
 21
93.918400000000005
 31
0.0
  0
TEXT
  5
32
  8
0
 62
     7
 10
77.369590000000002
 20
202.50599999999989
 30
0.0
 40
3.0923400000000001
  1
27.5
 41
0.5
 72
     2
 11
82.008099999999999
 21
202.50599999999989
 31
0.0
  0
TEXT
  5
33
  8
0
 62
     7
 10
71.809487500000003
 20
237.8479999999999
 30
0.0
 40
3.0923400000000001
  1
490
 41
0.5
 72
     1
 11
73.742199999999997
 21
237.8479999999999
 31
0.0
  0
TEXT
  5
34
  8
0
 62
     7
 10
83.930839999999989
 20
230.83799999999999
 30
0.0
 40
3.0923400000000001
  1
245
 41
0.5
 72
     1
 11
85.992399999999989
 21
230.83799999999999
 31
0.0
  0
TEXT
  5
35
  8
0
 62
     7
 10
58.461065000000012
 20
169.108
 30
0.0
 40
3.0923400000000001
  1
R10
 41
0.5
 72
     2
 11
61.811100000000003
 21
169.108
 31
0.0
  0
TEXT
  5
36
  8
0
 62
     7
 10
53.0441
 20
184.30000000000001
 30
0.0
 40
3.0923400000000001
  1
排水口
 41
0.5
  0
TEXT
  5
37
  8
0
 62
     7
 10
59.430540000000001
 20
230.83799999999999
 30
0.0
 40
3.0923400000000001
  1
245
 41
0.5
 72
     1
 11
61.492100000000001
 21
230.83799999999999
 31
0.0
  0
TEXT
  5
38
  8
0
 62
     7
 10
71.680840000000003
 20
139.1109999999999
 30
0.0
 40
3.0923400000000001
  1
525
 41
0.5
 72
     1
 11
73.742400000000004
 21
139.1109999999999
 31
0.0
  0
TEXT
  5
39
  8
0
 62
     7
 10
40.837699999999998
 20
132.91200000000001
 30
0.0
 40
3.0923400000000001
  1
20
 41
0.5
  0
TEXT
  5
3A
  8
0
 62
     7
 10
60.162125000000003
 20
111.17399999999989
 30
0.0
 40
3.0923400000000001
  1
55
 41
0.5
 72
     1
 11
61.450600000000001
 21
111.17399999999989
 31
0.0
  0
TEXT
  5
3B
  8
0
 62
     7
 10
54.803925
 20
111.17399999999989
 30
0.0
 40
3.0923400000000001
  1
48
 41
0.5
 72
     1
 11
56.092399999999991
 21
111.17399999999989
 31
0.0
  0
TEXT
  5
3C
  8
0
 62
     7
 10
54.938434999999998
 20
132.91200000000001
 30
0.0
 40
3.0923400000000001
  1
145
 41
0.5
 72
     1
 11
56.7423
 21
132.91200000000001
 31
0.0
  0
TEXT
  5
3D
  8
0
 62
     7
 10
76.559787500000013
 20
132.91200000000001
 30
0.0
 40
3.0923400000000001
  1
290
 41
0.5
 72
     1
 11
78.492500000000007
 21
132.91200000000001
 31
0.0
  0
TEXT
  5
3E
  8
0
 62
     7
 10
165.27799999999991
 20
201.76343999999989
 30
0.0
 40
3.0923400000000001
  1
235
 50
90.0
 41
0.5
 72
     1
 11
165.27799999999991
 21
203.82499999999999
 31
0.0
  0
TEXT
  5
3F
  8
0
 62
     7
 10
57.181040000000003
 20
55.318899999999999
 30
0.0
 40
3.0923400000000001
  1
235
 41
0.5
 72
     1
 11
59.242600000000003
 21
55.318899999999999
 31
0.0
  0
ARC
  5
40
  8
0
 62
     7
 10
58.508656999999992
 20
110.4899639999999
 30
0.0
 40
0.440465
 50
182.09190399999989
 51
267.90812599999992
  0
ARC
  5
41
  8
0
 62
     7
 10
58.476500999999999
 20
110.4899639999999
 30
0.0
 40
0.440466
 50
272.09191099999998
 51
357.90809899999999
  0
ARC
  5
42
  8
0
 62
     7
 10
58.476500999999999
 20
110.457808
 30
0.0
 40
0.440466
 50
2.091901
 51
87.908089000000004
  0
ARC
  5
43
  8
0
 62
     7
 10
58.508656999999992
 20
110.457808
 30
0.0
 40
0.440465
 50
92.091874000000004
 51
177.90809599999989
  0
ARC
  5
44
  8
0
 62
     7
 10
97.242569000000003
 20
163.07462599999999
 30
0.0
 40
0.9999450000000001
 50
270.00002000000001
 51
359.99998999999991
  0
ARC
  5
45
  8
0
 62
     7
 10
50.242212000000002
 20
163.07462599999999
 30
0.0
 40
0.9999450000000001
 50
179.99996999999991
 51
270.00002000000001
  0
ARC
  5
46
  8
0
 62
     7
 10
97.242569000000003
 20
221.07507000000001
 30
0.0
 40
0.9999450000000001
 50
0.00001
 51
89.999980000000008
  0
ARC
  5
47
  8
0
 62
     7
 10
50.242212000000002
 20
221.07507000000001
 30
0.0
 40
0.9999450000000001
 50
90.0
 51
179.99996999999991
  0
ARC
  5
48
  8
0
 62
     7
 10
143.23480699999999
 20
211.828611
 30
0.0
 40
0.309536
 50
1.359454999999999
 51
75.745979000000005
  0
ARC
  5
49
  8
0
 62
     7
 10
142.84420800000001
 20
205.875212
 30
0.0
 40
0.30007
 50
179.99996999999991
 51
270.00002000000001
  0
ARC
  5
4A
  8
0
 62
     7
 10
143.23769799999991
 20
208.26455100000001
 30
0.0
 40
0.306583
 50
297.34907500000003
 51
359.263733
  0
ARC
  5
4B
  8
0
 62
     7
 10
143.23741799999991
 20
207.56467399999991
 30
0.0
 40
0.306864
 50
297.38099799999998
 51
359.26467400000001
  0
ARC
  5
4C
  8
0
 62
     7
 10
142.85070899999991
 20
206.68568400000001
 30
0.0
 40
0.306596
 50
117.2781159999999
 51
179.261109
  0
ARC
  5
4D
  8
0
 62
     7
 10
142.85042899999999
 20
207.38573099999999
 30
0.0
 40
0.306316
 50
117.246168
 51
179.26016299999989
  0
ARC
  5
4E
  8
0
 62
     7
 10
156.83626599999999
 20
195.36698200000001
 30
0.0
 40
0.208181
 50
2.2105540000000001
 51
87.740064000000018
  0
ARC
  5
4F
  8
0
 62
     7
 10
156.83644199999989
 20
188.7828899999999
 30
0.0
 40
0.208006
 50
272.21356899999989
 51
357.78644100000002
  0
ARC
  5
50
  8
0
 62
     7
 10
151.59433799999991
 20
185.71069800000001
 30
0.0
 40
1.7377750000000001
 50
183.87399600000001
 51
198.28238899999991
  0
ARC
  5
51
  8
0
 62
     7
 10
152.47322199999991
 20
185.96922699999999
 30
0.0
 40
2.6535669999999989
 50
197.62971999999999
 51
210.169949
  0
ARC
  5
52
  8
0
 62
     7
 10
153.200332
 20
186.34703999999991
 30
0.0
 40
3.4722749999999989
 50
209.52990699999989
 51
218.68664799999991
  0
ARC
  5
53
  8
0
 62
     7
 10
144.87810300000001
 20
179.933953
 30
0.0
 40
7.035158
 50
357.85062499999992
 51
37.090212000000001
  0
ARC
  5
54
  8
0
 62
     7
 10
144.18404699999991
 20
179.936091
 30
0.0
 40
7.7288429999999986
 50
342.39891399999988
 51
358.02775600000001
  0
ARC
  5
55
  8
0
 62
     7
 10
148.86897499999989
 20
178.471453
 30
0.0
 40
2.820427
 50
338.82843600000001
 51
341.98052799999988
  0
ARC
  5
56
  8
0
 62
     7
 10
146.49814499999991
 20
179.526994
 30
0.0
 40
5.4139689999999989
 50
335.34202199999999
 51
337.47324700000001
  0
ARC
  5
57
  8
0
 62
     7
 10
134.26311699999991
 20
185.00034600000001
 30
0.0
 40
18.817274999999999
 50
331.28148499999998
 51
335.73847000000001
  0
ARC
  5
58
  8
0
 62
     7
 10
131.9033499999999
 20
186.1858269999999
 30
0.0
 40
21.456607999999989
 50
322.91953499999988
 51
331.53310299999993
  0
ARC
  5
59
  8
0
 62
     7
 10
136.62667999999999
 20
182.73648299999999
 30
0.0
 40
15.608946
 50
314.98867000000001
 51
322.5670889999999
  0
ARC
  5
5A
  8
0
 62
     7
 10
139.69486599999991
 20
179.76687899999999
 30
0.0
 40
11.339817
 50
306.922415
 51
314.63219399999991
  0
ARC
  5
5B
  8
0
 62
     7
 10
141.07377099999999
 20
178.015173
 30
0.0
 40
9.1112000000000002
 50
303.62235699999991
 51
306.60762399999999
  0
ARC
  5
5C
  8
0
 62
     7
 10
141.66078099999999
 20
177.147716
 30
0.0
 40
9.065042
 50
297.05955599999987
 51
307.67125600000003
  0
ARC
  5
5D
  8
0
 62
     7
 10
139.96650999999989
 20
179.461331
 30
0.0
 40
11.931979
 50
307.32142199999998
 51
315.91150099999987
  0
ARC
  5
5E
  8
0
 62
     7
 10
137.20237399999991
 20
182.250835
 30
0.0
 40
15.85841799999999
 50
315.62099599999988
 51
323.46527300000002
  0
ARC
  5
5F
  8
0
 62
     7
 10
132.81297900000001
 20
185.62827300000001
 30
0.0
 40
21.396139999999988
 50
323.19558999999992
 51
336.43665399999992
  0
ARC
  5
60
  8
0
 62
     7
 10
150.403155
 20
177.8987009999999
 30
0.0
 40
2.1833089999999991
 50
337.83216499999992
 51
341.20625799999999
  0
ARC
  5
61
  8
0
 62
     7
 10
146.02433500000001
 20
179.4545149999999
 30
0.0
 40
6.8301769999999999
 50
340.68469900000002
 51
347.94526999999988
  0
ARC
  5
62
  8
0
 62
     7
 10
144.17416
 20
179.9117029999999
 30
0.0
 40
8.7352460000000001
 50
347.5470959999999
 51
11.27400799999999
  0
ARC
  5
63
  8
0
 62
     7
 10
145.06850900000001
 20
180.006359
 30
0.0
 40
7.8400789999999994
 50
11.873404999999989
 51
37.631261000000002
  0
ARC
  5
64
  8
0
 62
     7
 10
152.03445300000001
 20
185.43341000000001
 30
0.0
 40
0.991291
 50
215.18159900000001
 51
220.21812
  0
ARC
  5
65
  8
0
 62
     7
 10
152.6548929999999
 20
185.90520100000001
 30
0.0
 40
1.7704509999999991
 50
201.3612619999999
 51
216.09199599999991
  0
ARC
  5
66
  8
0
 62
     7
 10
151.91345200000001
 20
185.60129599999991
 30
0.0
 40
0.969335
 50
180.73161500000001
 51
200.59521799999999
  0
ARC
  5
67
  8
0
 62
     7
 10
151.55167099999991
 20
185.57735099999991
 30
0.0
 40
0.607586
 50
167.34853200000001
 51
178.90903299999999
  0
ARC
  5
68
  8
0
 62
     7
 10
150.691316
 20
185.77061
 30
0.0
 40
0.274208
 50
347.32091400000002
 51
10.001879000000001
  0
ARC
  5
69
  8
0
 62
     7
 10
150.4932179999999
 20
185.74690599999991
 30
0.0
 40
0.4735420000000001
 50
8.663374000000001
 51
18.004529000000002
  0
ARC
  5
6A
  8
0
 62
     7
 10
150.23638299999999
 20
185.66393299999999
 30
0.0
 40
0.7434460000000001
 50
17.967870999999992
 51
25.416727999999999
  0
ARC
  5
6B
  8
0
 62
     7
 10
149.81420700000001
 20
185.46310500000001
 30
0.0
 40
1.210955
 50
25.425833999999991
 51
31.629028000000002
  0
ARC
  5
6C
  8
0
 62
     7
 10
149.1408769999999
 20
185.05008099999989
 30
0.0
 40
2.0008669999999991
 50
31.588009
 51
36.277034999999991
  0
ARC
  5
6D
  8
0
 62
     7
 10
148.110354
 20
184.29571899999991
 30
0.0
 40
3.2779879999999988
 50
36.248899000000002
 51
39.778651000000004
  0
ARC
  5
6E
  8
0
 62
     7
 10
146.5311529999999
 20
182.98142300000001
 30
0.0
 40
5.3325559999999994
 50
39.774947999999988
 51
42.579999000000001
  0
ARC
  5
6F
  8
0
 62
     7
 10
143.80118999999999
 20
180.47221899999991
 30
0.0
 40
9.0404929999999997
 50
42.582951000000001
 51
45.139741000000001
  0
LINE
  5
70
  8
0
 62
     7
 10
153.75
 20
200.875
 30
0.0
 11
154.24999999999989
 21
195.27500000000001
 31
0.0
  0
ARC
  5
71
  8
0
 62
     7
 10
154.148653
 20
187.95247800000001
 30
0.0
 40
0.622561
 50
89.934927999999999
 51
111.881518
  0
ARC
  5
72
  8
0
 62
     7
 10
154.11277999999999
 20
188.0841189999999
 30
0.0
 40
0.48729
 50
113.736328
 51
151.9225999999999
  0
ARC
  5
73
  8
0
 62
     7
 10
154.301796
 20
187.97013799999999
 30
0.0
 40
0.707803
 50
150.98322999999999
 51
176.40506799999989
  0
ARC
  5
74
  8
0
 62
     7
 10
132.83962700000001
 20
195.27679499999991
 30
0.0
 40
21.607735999999999
 50
358.92994800000002
 51
359.99505799999997
  0
ARC
  5
75
  8
0
 62
     7
 10
100.08769599999999
 20
195.8388929999999
 30
0.0
 40
54.364474999999992
 50
354.61169699999988
 51
358.98226199999999
  0
ARC
  5
76
  8
0
 62
     7
 10
130.6270419999999
 20
193.06272299999989
 30
0.0
 40
23.699608999999999
 50
351.59725200000003
 51
354.36051499999991
  0
ARC
  5
77
  8
0
 62
     7
 10
144.1424439999999
 20
191.0892399999999
 30
0.0
 40
10.040929999999991
 50
346.665707
 51
351.46764400000001
  0
ARC
  5
78
  8
0
 62
     7
 10
119.24155499999991
 20
190.30874299999999
 30
0.0
 40
34.430351999999999
 50
346.024945
 51
356.17933599999992
  0
ARC
  5
79
  8
0
 62
     7
 10
124.918184
 20
190.345946
 30
0.0
 40
30.261796
 50
350.75969700000002
 51
356.64515899999992
  0
ARC
  5
7A
  8
0
 62
     7
 10
115.43026399999999
 20
191.734815
 30
0.0
 40
39.84990599999999
 50
340.71683400000001
 51
350.979221
  0
ARC
  5
7B
  8
0
 62
     7
 10
147.177356
 20
180.64793499999999
 30
0.0
 40
6.222618999999999
 50
338.56894699999998
 51
340.54019899999997
  0
ARC
  5
7C
  8
0
 62
     7
 10
130.310406
 20
187.08985300000001
 30
0.0
 40
24.277681000000001
 50
334.9634779999999
 51
338.9615609999999
  0
ARC
  5
7D
  8
0
 62
     7
 10
125.74136
 20
189.0889699999999
 30
0.0
 40
29.263684000000001
 50
326.94759399999992
 51
335.20298100000002
  0
ARC
  5
7E
  8
0
 62
     7
 10
131.81387100000001
 20
185.2681169999999
 30
0.0
 40
22.090230999999999
 50
319.995499
 51
326.66370799999987
  0
ARC
  5
7F
  8
0
 62
     7
 10
136.37895599999999
 20
181.53524499999989
 30
0.0
 40
16.193909999999999
 50
311.347127
 51
319.72908499999988
  0
ARC
  5
80
  8
0
 62
     7
 10
139.02434700000001
 20
178.66291699999991
 30
0.0
 40
12.290315
 50
304.83283199999988
 51
310.934845
  0
ARC
  5
81
  8
0
 62
     7
 10
139.490804
 20
176.730602
 30
0.0
 40
10.462655
 50
307.19970299999989
 51
308.78337999999991
  0
ARC
  5
82
  8
0
 62
     7
 10
131.06002899999999
 20
187.60908599999999
 30
0.0
 40
24.225325999999999
 50
306.79939100000001
 51
307.526838
  0
LINE
  5
83
  8
0
 62
     7
 10
155.0439999999999
 20
200.875
 30
0.0
 11
155.5439999999999
 21
195.27500000000001
 31
0.0
  0
ARC
  5
84
  8
0
 62
     7
 10
144.47938300000001
 20
166.7265459999999
 30
0.0
 40
0.7046120000000001
 50
276.70069100000001
 51
345.11804499999988
  0
ARC
  5
85
  8
0
 62
     7
 10
153.66882200000001
 20
204.67952500000001
 30
0.0
 40
0.8753559999999998
 50
346.13618199999991
 51
0.229374
  0
ARC
  5
86
  8
0
 62
     7
 10
153.65214399999999
 20
204.68311499999999
 30
0.0
 40
0.892027
 50
359.9944779999999
 51
89.994447999999991
  0
LINE
  5
87
  8
0
 62
     7
 10
139.756
 20
206.53399999999999
 30
0.0
 11
137.5439999999999
 21
205.94200000000001
 31
0.0
  0
LINE
  5
88
  8
0
 62
     7
 10
137.5439999999999
 20
205.94200000000001
 30
0.0
 11
139.756
 21
205.34899999999999
 31
0.0
  0
LINE
  5
89
  8
0
 62
     7
 10
139.756
 20
205.34899999999999
 30
0.0
 11
139.756
 21
206.53399999999999
 31
0.0
  0
LINE
  5
8A
  8
0
 62
     7
 10
134.833
 20
205.34899999999999
 30
0.0
 11
137.0439999999999
 21
205.94200000000001
 31
0.0
  0
LINE
  5
8B
  8
0
 62
     7
 10
137.0439999999999
 20
205.94200000000001
 30
0.0
 11
134.833
 21
206.535
 31
0.0
  0
LINE
  5
8C
  8
0
 62
     7
 10
134.833
 20
206.535
 30
0.0
 11
134.833
 21
205.34899999999999
 31
0.0
  0
LINE
  5
8D
  8
0
 62
     7
 10
131.94200000000001
 20
205.94200000000001
 30
0.0
 11
141.30799999999991
 21
205.94200000000001
 31
0.0
  0
LINE
  5
8E
  8
0
 62
     7
 10
139.25499999999991
 20
222.63499999999999
 30
0.0
 11
137.04300000000001
 21
222.04299999999989
 31
0.0
  0
LINE
  5
8F
  8
0
 62
     7
 10
137.04300000000001
 20
222.04299999999989
 30
0.0
 11
139.25499999999991
 21
221.44999999999999
 31
0.0
  0
LINE
  5
90
  8
0
 62
     7
 10
139.25499999999991
 20
221.44999999999999
 30
0.0
 11
139.25499999999991
 21
222.63499999999999
 31
0.0
  0
LINE
  5
91
  8
0
 62
     7
 10
154.834
 20
221.465
 30
0.0
 11
157.04599999999991
 21
222.05699999999999
 31
0.0
  0
LINE
  5
92
  8
0
 62
     7
 10
157.04599999999991
 20
222.05699999999999
 30
0.0
 11
154.834
 21
222.65000000000001
 31
0.0
  0
LINE
  5
93
  8
0
 62
     7
 10
154.834
 20
222.65000000000001
 30
0.0
 11
154.834
 21
221.465
 31
0.0
  0
LINE
  5
94
  8
0
 62
     7
 10
137.0439999999999
 20
222.05000000000001
 30
0.0
 11
157.0439999999999
 21
222.05000000000001
 31
0.0
  0
LINE
  5
95
  8
0
 62
     7
 10
137.0439999999999
 20
222.75
 30
0.0
 11
137.0439999999999
 21
214.68199999999999
 31
0.0
  0
LINE
  5
96
  8
0
 62
     7
 10
157.0439999999999
 20
222.75
 30
0.0
 11
157.0439999999999
 21
196.27499999999989
 31
0.0
  0
LINE
  5
97
  8
0
 62
     7
 10
139.25499999999991
 20
191.11299999999989
 30
0.0
 11
137.04300000000001
 21
190.52000000000001
 31
0.0
  0
LINE
  5
98
  8
0
 62
     7
 10
137.04300000000001
 20
190.52000000000001
 30
0.0
 11
139.25499999999991
 21
189.928
 31
0.0
  0
LINE
  5
99
  8
0
 62
     7
 10
139.25499999999991
 20
189.928
 30
0.0
 11
139.25499999999991
 21
191.11299999999989
 31
0.0
  0
LINE
  5
9A
  8
0
 62
     7
 10
149.83399999999989
 20
189.94200000000001
 30
0.0
 11
152.04599999999991
 21
190.535
 31
0.0
  0
LINE
  5
9B
  8
0
 62
     7
 10
152.04599999999991
 20
190.535
 30
0.0
 11
149.83399999999989
 21
191.12700000000001
 31
0.0
  0
LINE
  5
9C
  8
0
 62
     7
 10
149.83399999999989
 20
191.12700000000001
 30
0.0
 11
149.83399999999989
 21
189.94200000000001
 31
0.0
  0
LINE
  5
9D
  8
0
 62
     7
 10
137.0439999999999
 20
190.52699999999999
 30
0.0
 11
152.0439999999999
 21
190.52699999999999
 31
0.0
  0
ARC
  5
9E
  8
0
  6
AIGENLINE001
 62
     7
 10
143.044388
 20
174.86565399999989
 30
0.0
 40
4.790894999999999
 50
269.99979300000001
 51
287.22904899999997
  0
ARC
  5
9F
  8
0
  6
AIGENLINE001
 62
     7
 10
144.33206599999991
 20
170.6977389999999
 30
0.0
 40
0.428625
 50
287.84471200000002
 51
306.17052899999987
  0
ARC
  5
A0
  8
0
  6
AIGENLINE001
 62
     7
 10
144.0256389999999
 20
171.155283
 30
0.0
 40
0.9790969999999997
 50
304.84378599999991
 51
318.22982400000001
  0
ARC
  5
A1
  8
0
  6
AIGENLINE001
 62
     7
 10
143.02357299999991
 20
172.10776599999991
 30
0.0
 40
2.361340999999999
 50
317.18972599999989
 51
325.64941099999987
  0
ARC
  5
A2
  8
0
  6
AIGENLINE001
 62
     7
 10
141.07892200000001
 20
173.503522
 30
0.0
 40
4.754726999999999
 50
324.98594600000001
 51
328.21931999999998
  0
ARC
  5
A3
  8
0
  6
AIGENLINE001
 62
     7
 10
138.17001499999989
 20
175.298608
 30
0.0
 40
8.1729210000000005
 50
328.26196099999993
 51
332.86878899999988
  0
ARC
  5
A4
  8
0
  6
AIGENLINE001
 62
     7
 10
130.40118100000001
 20
179.37207399999991
 30
0.0
 40
16.94473
 50
332.59009900000001
 51
335.98737599999993
  0
ARC
  5
A5
  8
0
  6
AIGENLINE001
 62
     7
 10
113.99876499999991
 20
186.8138659999999
 30
0.0
 40
34.956175999999999
 50
335.78579799999989
 51
338.690111
  0
LINE
  5
A6
  8
0
  6
AIGENLINE001
 62
     7
 10
152.0439999999999
 20
188.5749999999999
 30
0.0
 11
146.56499999999991
 21
174.11000000000001
 31
0.0
  0
LINE
  5
A7
  8
0
 62
     7
 10
156.84399999999999
 20
188.5749999999999
 30
0.0
 11
154.149
 21
188.5749999999999
 31
0.0
  0
LINE
  5
A8
  8
0
  6
AIGENLINE001
 62
     7
 10
137.5439999999999
 20
208.875
 30
0.0
 11
137.5439999999999
 21
199.5749999999999
 31
0.0
  0
ARC
  5
A9
  8
0
  6
AIGENLINE001
 62
     7
 10
137.02503799999991
 20
208.85607799999991
 30
0.0
 40
0.5195610000000001
 50
2.130487
 51
87.869502999999995
  0
LINE
  5
AA
  8
0
  6
AIGENLINE001
 62
     7
 10
138.0439999999999
 20
199.07499999999999
 30
0.0
 11
151.5449999999999
 21
199.07499999999999
 31
0.0
  0
ARC
  5
AB
  8
0
  6
AIGENLINE001
 62
     7
 10
138.0637899999999
 20
199.594605
 30
0.0
 40
0.5199090000000001
 50
182.12809499999989
 51
267.83246099999991
  0
LINE
  5
AC
  8
0
  6
AIGENLINE001
 62
     7
 10
152.0439999999999
 20
198.5749999999999
 30
0.0
 11
152.0439999999999
 21
195.5749999999999
 31
0.0
  0
ARC
  5
AD
  8
0
  6
AIGENLINE001
 62
     7
 10
151.525192
 20
198.5558659999999
 30
0.0
 40
0.5195610000000001
 50
2.130487
 51
87.869502999999995
  0
LINE
  5
AE
  8
0
  6
AIGENLINE002
 62
     7
 10
140.65899999999999
 20
204.5749999999999
 30
0.0
 11
134.75700000000001
 21
204.5749999999999
 31
0.0
  0
LINE
  5
AF
  8
0
  6
AIGENLINE001
 62
     7
 10
137.0439999999999
 20
170.07499999999999
 30
0.0
 11
143.0439999999999
 21
170.07499999999999
 31
0.0
  0
LINE
  5
B0
  8
0
  6
AIGENLINE001
 62
     7
 10
152.0439999999999
 20
195.5749999999999
 30
0.0
 11
152.54499999999999
 21
194.375
 31
0.0
  0
LINE
  5
B1
  8
0
  6
AIGENLINE001
 62
     7
 10
152.0439999999999
 20
188.5749999999999
 30
0.0
 11
152.54499999999999
 21
189.77500000000001
 31
0.0
  0
LINE
  5
B2
  8
0
  6
AIGENLINE001
 62
     7
 10
152.0439999999999
 20
188.5749999999999
 30
0.0
 11
152.0439999999999
 21
195.5749999999999
 31
0.0
  0
LINE
  5
B3
  8
0
  6
AIGENLINE001
 62
     7
 10
157.0439999999999
 20
194.375
 30
0.0
 11
152.54499999999999
 21
194.375
 31
0.0
  0
LINE
  5
B4
  8
0
  6
AIGENLINE001
 62
     7
 10
152.54499999999999
 20
189.77500000000001
 30
0.0
 11
157.0439999999999
 21
189.77500000000001
 31
0.0
  0
LINE
  5
B5
  8
0
  6
AIGENLINE001
 62
     7
 10
152.54499999999999
 20
189.77500000000001
 30
0.0
 11
152.54499999999999
 21
194.375
 31
0.0
  0
LINE
  5
B6
  8
0
 62
     7
 10
140.0439999999999
 20
212.875
 30
0.0
 11
143.31100000000001
 21
212.12899999999999
 31
0.0
  0
LINE
  5
B7
  8
0
 62
     7
 10
142.5439999999999
 20
207.38999999999999
 30
0.0
 11
142.5439999999999
 21
205.87499999999989
 31
0.0
  0
LINE
  5
B8
  8
0
 62
     7
 10
143.5439999999999
 20
208.07499999999999
 30
0.0
 11
143.5439999999999
 21
207.56099999999989
 31
0.0
  0
LINE
  5
B9
  8
0
 62
     7
 10
142.71000000000001
 20
206.958
 30
0.0
 11
143.37899999999991
 21
207.29199999999989
 31
0.0
  0
LINE
  5
BA
  8
0
 62
     7
 10
143.5439999999999
 20
211.83600000000001
 30
0.0
 11
143.5439999999999
 21
208.07499999999999
 31
0.0
  0
LINE
  5
BB
  8
0
 62
     7
 10
142.84399999999991
 20
205.5749999999999
 30
0.0
 11
153.65199999999999
 21
205.5749999999999
 31
0.0
  0
LINE
  5
BC
  8
0
 62
     7
 10
145.16
 20
166.54599999999991
 30
0.0
 11
154.51900000000001
 21
204.47
 31
0.0
  0
LINE
  5
BD
  8
0
 62
     7
 10
140.0439999999999
 20
165.5749999999999
 30
0.0
 11
144.56200000000001
 21
166.02699999999999
 31
0.0
  0
LINE
  5
BE
  8
0
 62
     7
 10
142.71000000000001
 20
207.6579999999999
 30
0.0
 11
143.37899999999991
 21
207.99199999999999
 31
0.0
  0
LINE
  5
BF
  8
0
 62
     7
 10
153.63200000000001
 20
200.875
 30
0.0
 11
155.0439999999999
 21
200.875
 31
0.0
  0
LINE
  5
C0
  8
0
 62
     7
 10
154.24999999999989
 20
195.27500000000001
 30
0.0
 11
155.5439999999999
 21
195.27500000000001
 31
0.0
  0
LINE
  5
C1
  8
0
 62
     7
 10
155.5439999999999
 20
195.5749999999999
 30
0.0
 11
156.84399999999999
 21
195.5749999999999
 31
0.0
  0
LINE
  5
C2
  8
0
 62
     7
 10
157.0439999999999
 20
188.77500000000001
 30
0.0
 11
157.0439999999999
 21
195.375
 31
0.0
  0
LINE
  5
C3
  8
0
  6
AIGENLINE002
 62
     7
 10
158.614
 20
192.0749999999999
 30
0.0
 11
148.9739999999999
 21
192.0749999999999
 31
0.0
  0
LINE
  5
C4
  8
0
 62
     7
 10
140.0439999999999
 20
215.5749999999999
 30
0.0
 11
139.4129999999999
 21
215.53700000000001
 31
0.0
  0
ARC
  5
C5
  8
0
 62
     7
 10
139.44526200000001
 20
214.9651189999999
 30
0.0
 40
0.57265
 50
93.207992000000004
 51
125.488927
  0
ARC
  5
C6
  8
0
 62
     7
 10
139.36126999999999
 20
215.1063539999999
 30
0.0
 40
0.409117
 50
127.394651
 51
163.431117
  0
ARC
  5
C7
  8
0
 62
     7
 10
138.68286000000001
 20
214.5447759999999
 30
0.0
 40
0.4411420000000001
 50
95.198806000000005
 51
141.06435500000001
  0
ARC
  5
C8
  8
0
 62
     7
 10
138.60336499999991
 20
215.3915319999999
 30
0.0
 40
0.409342
 50
275.5407009999999
 51
323.586365
  0
ARC
  5
C9
  8
0
 62
     7
 10
138.67110199999991
 20
215.322395
 30
0.0
 40
0.314169
 50
326.40130199999999
 51
341.56036
  0
LINE
  5
CA
  8
0
 62
     7
 10
137.87299999999999
 20
214.22900000000001
 30
0.0
 11
137.4739999999999
 21
214.11500000000001
 31
0.0
  0
ARC
  5
CB
  8
0
 62
     7
 10
137.65745999999999
 20
214.8485289999999
 30
0.0
 40
0.6553830000000001
 50
289.15982100000002
 51
326.97961900000001
  0
ARC
  5
CC
  8
0
 62
     7
 10
137.75820999999999
 20
214.76320699999991
 30
0.0
 40
0.5246750000000001
 50
328.796874
 51
344.4092839999999
  0
ARC
  5
CD
  8
0
 62
     7
 10
138.85253899999989
 20
214.5137399999999
 30
0.0
 40
0.598522
 50
148.960613
 51
169.560259
  0
ARC
  5
CE
  8
0
 62
     7
 10
137.679824
 20
213.47504399999991
 30
0.0
 40
0.6719350000000001
 50
107.871852
 51
145.4932409999999
  0
ARC
  5
CF
  8
0
 62
     7
 10
137.56844299999989
 20
213.5739189999999
 30
0.0
 40
0.5244590000000001
 50
147.5017179999999
 51
179.443681
  0
LINE
  5
D0
  8
0
 62
     7
 10
137.0439999999999
 20
165.071
 30
0.0
 11
137.0439999999999
 21
213.57900000000001
 31
0.0
  0
LINE
  5
D1
  8
0
 62
     7
 10
138.0439999999999
 20
165.334
 30
0.0
 11
138.0439999999999
 21
213.31700000000001
 31
0.0
  0
LINE
  5
D2
  8
0
 62
     7
 10
139.0439999999999
 20
164.6279999999999
 30
0.0
 11
139.0439999999999
 21
214.02199999999999
 31
0.0
  0
LINE
  5
D3
  8
0
 62
     7
 10
140.0439999999999
 20
163.0749999999999
 30
0.0
 11
140.0439999999999
 21
215.5749999999999
 31
0.0
  0
LINE
  5
D4
  8
0
 62
     7
 10
140.0439999999999
 20
163.0749999999999
 30
0.0
 11
139.4129999999999
 21
163.11299999999989
 31
0.0
  0
ARC
  5
D5
  8
0
 62
     7
 10
139.34448499999999
 20
163.53160500000001
 30
0.0
 40
0.389632
 50
195.56398200000001
 51
236.08747199999991
  0
ARC
  5
D6
  8
0
 62
     7
 10
139.43028699999999
 20
163.64278899999999
 30
0.0
 40
0.5298530000000001
 50
235.09545700000001
 51
268.15371699999992
  0
ARC
  5
D7
  8
0
 62
     7
 10
138.666741
 20
164.075593
 30
0.0
 40
0.410135
 50
217.12162599999991
 51
266.66586000000001
  0
ARC
  5
D8
  8
0
 62
     7
 10
138.65523899999999
 20
163.32174399999991
 30
0.0
 40
0.331097
 50
18.547098999999989
 51
62.428337999999997
  0
ARC
  5
D9
  8
0
 62
     7
 10
138.60617400000001
 20
163.25194899999991
 30
0.0
 40
0.4158270000000001
 50
60.886565000000012
 51
84.934661000000006
  0
LINE
  5
DA
  8
0
 62
     7
 10
137.87299999999999
 20
164.42099999999991
 30
0.0
 11
137.4739999999999
 21
164.53599999999989
 31
0.0
  0
ARC
  5
DB
  8
0
 62
     7
 10
137.73397299999991
 20
163.87924599999991
 30
0.0
 40
0.550071
 50
15.67767799999999
 51
58.548164999999997
  0
ARC
  5
DC
  8
0
 62
     7
 10
137.65379799999991
 20
163.78168999999991
 30
0.0
 40
0.6753550000000002
 50
57.063941
 51
71.09978199999999
  0
ARC
  5
DD
  8
0
 62
     7
 10
138.83302699999999
 20
164.12947299999999
 30
0.0
 40
0.578097
 50
190.12060199999999
 51
211.4239419999999
  0
ARC
  5
DE
  8
0
 62
     7
 10
137.57839199999989
 20
165.07607699999991
 30
0.0
 40
0.5340630000000001
 50
180.53705099999991
 51
234.57281999999989
  0
ARC
  5
DF
  8
0
 62
     7
 10
137.67248599999999
 20
165.17483899999991
 30
0.0
 40
0.6693640000000001
 50
232.90999099999999
 51
252.716218
  0
LINE
  5
E0
  8
0
 62
     7
 10
142.256
 20
156.851
 30
0.0
 11
140.0439999999999
 21
156.2589999999999
 31
0.0
  0
LINE
  5
E1
  8
0
 62
     7
 10
140.0439999999999
 20
156.2589999999999
 30
0.0
 11
142.256
 21
155.66499999999991
 31
0.0
  0
LINE
  5
E2
  8
0
 62
     7
 10
142.256
 20
155.66499999999991
 30
0.0
 11
142.256
 21
156.851
 31
0.0
  0
LINE
  5
E3
  8
0
 62
     7
 10
134.833
 20
155.66499999999991
 30
0.0
 11
137.0439999999999
 21
156.2589999999999
 31
0.0
  0
LINE
  5
E4
  8
0
 62
     7
 10
137.0439999999999
 20
156.2589999999999
 30
0.0
 11
134.833
 21
156.851
 31
0.0
  0
LINE
  5
E5
  8
0
 62
     7
 10
134.833
 20
156.851
 30
0.0
 11
134.833
 21
155.66499999999991
 31
0.0
  0
LINE
  5
E6
  8
0
 62
     7
 10
133.20699999999991
 20
156.2589999999999
 30
0.0
 11
146.81999999999991
 21
156.2589999999999
 31
0.0
  0
LINE
  5
E7
  8
0
 62
     7
 10
140.0439999999999
 20
162.375
 30
0.0
 11
140.0439999999999
 21
155.559
 31
0.0
  0
LINE
  5
E8
  8
0
 62
     7
 10
137.0439999999999
 20
163.78700000000001
 30
0.0
 11
137.0439999999999
 21
155.559
 31
0.0
  0
LINE
  5
E9
  8
0
 62
     7
 10
137.0439999999999
 20
123.422
 30
0.0
 11
137.0439999999999
 21
93.917699999999996
 31
0.0
  0
LINE
  5
EA
  8
0
 62
     7
 10
138.0439999999999
 20
123.16
 30
0.0
 11
138.0439999999999
 21
93.917699999999996
 31
0.0
  0
LINE
  5
EB
  8
0
 62
     7
 10
139.0439999999999
 20
123.86499999999999
 30
0.0
 11
139.0439999999999
 21
93.918400000000005
 31
0.0
  0
LINE
  5
EC
  8
0
 62
     7
 10
140.0439999999999
 20
125.41799999999991
 30
0.0
 11
140.0439999999999
 21
93.918400000000005
 31
0.0
  0
LINE
  5
ED
  8
0
 62
     7
 10
140.0439999999999
 20
125.41799999999991
 30
0.0
 11
139.4139999999999
 21
125.38
 31
0.0
  0
ARC
  5
EE
  8
0
 62
     7
 10
139.44700700000001
 20
124.80322700000001
 30
0.0
 40
0.5776180000000001
 50
93.319558999999984
 51
125.345099
  0
ARC
  5
EF
  8
0
 62
     7
 10
139.359891
 20
124.95004899999989
 30
0.0
 40
0.407697
 50
127.29576899999989
 51
163.42252300000001
  0
ARC
  5
F0
  8
0
 62
     7
 10
138.68533099999999
 20
124.38104299999991
 30
0.0
 40
0.4475310000000001
 50
95.397745
 51
140.558008
  0
ARC
  5
F1
  8
0
 62
     7
 10
138.60094099999989
 20
125.237207
 30
0.0
 40
0.4127900000000001
 50
275.88043499999998
 51
323.92350699999997
  0
ARC
  5
F2
  8
0
 62
     7
 10
138.6729169999999
 20
125.16467299999999
 30
0.0
 40
0.3123260000000001
 50
326.90399400000001
 51
341.52119900000002
  0
LINE
  5
F3
  8
0
 62
     7
 10
137.87299999999999
 20
124.07299999999989
 30
0.0
 11
137.4739999999999
 21
123.95699999999999
 31
0.0
  0
ARC
  5
F4
  8
0
 62
     7
 10
137.6577639999999
 20
124.6925
 30
0.0
 40
0.655872
 50
289.11688900000001
 51
326.87400200000002
  0
ARC
  5
F5
  8
0
 62
     7
 10
137.75859299999991
 20
124.605582
 30
0.0
 40
0.5242300000000001
 50
328.807726
 51
344.42785099999992
  0
ARC
  5
F6
  8
0
 62
     7
 10
138.8483389999999
 20
124.3581489999999
 30
0.0
 40
0.5942
 50
148.8679479999999
 51
169.58750800000001
  0
ARC
  5
F7
  8
0
 62
     7
 10
137.6784199999999
 20
123.31953799999989
 30
0.0
 40
0.669594
 50
107.810177
 51
145.523708
  0
ARC
  5
F8
  8
0
 62
     7
 10
137.56838099999999
 20
123.41695199999999
 30
0.0
 40
0.524049
 50
147.49375900000001
 51
179.48413300000001
  0
LINE
  5
F9
  8
0
 62
     7
 10
140.0439999999999
 20
64.918800000000005
 30
0.0
 11
154.626
 21
66.451800000000006
 31
0.0
  0
LINE
  5
FA
  8
0
 62
     7
 10
154.626
 20
66.451800000000006
 30
0.0
 11
154.626
 21
71.267399999999995
 31
0.0
  0
LINE
  5
FB
  8
0
 62
     7
 10
140.0439999999999
 20
122.917
 30
0.0
 11
154.626
 21
121.384
 31
0.0
  0
LINE
  5
FC
  8
0
 62
     7
 10
154.626
 20
121.384
 30
0.0
 11
154.626
 21
116.569
 31
0.0
  0
LINE
  5
FD
  8
0
 62
     7
 10
140.0439999999999
 20
86.664299999999997
 30
0.0
 11
144.02000000000001
 21
86.246799999999993
 31
0.0
  0
LINE
  5
FE
  8
0
 62
     7
 10
144.02000000000001
 20
86.246799999999993
 30
0.0
 11
144.02000000000001
 21
66.010900000000007
 31
0.0
  0
LINE
  5
FF
  8
0
 62
     7
 10
140.0439999999999
 20
101.172
 30
0.0
 11
144.02000000000001
 21
101.5889999999999
 31
0.0
  0
LINE
  5
100
  8
0
 62
     7
 10
144.02000000000001
 20
101.5889999999999
 30
0.0
 11
144.02000000000001
 21
121.825
 31
0.0
  0
LINE
  5
101
  8
0
 62
     7
 10
140.0439999999999
 20
89.918599999999998
 30
0.0
 11
156.02299999999991
 21
91.271100000000004
 31
0.0
  0
LINE
  5
102
  8
0
 62
     7
 10
156.02299999999991
 20
91.271100000000004
 30
0.0
 11
156.02299999999991
 21
96.564899999999994
 31
0.0
  0
LINE
  5
103
  8
0
 62
     7
 10
156.02299999999991
 20
96.564899999999994
 30
0.0
 11
140.0439999999999
 21
97.917500000000004
 31
0.0
  0
LINE
  5
104
  8
0
 62
     7
 10
137.0439999999999
 20
64.414400000000001
 30
0.0
 11
137.0439999999999
 21
93.918400000000005
 31
0.0
  0
LINE
  5
105
  8
0
 62
     7
 10
138.0439999999999
 20
64.676900000000003
 30
0.0
 11
138.0439999999999
 21
93.918400000000005
 31
0.0
  0
LINE
  5
106
  8
0
 62
     7
 10
139.0439999999999
 20
63.970700000000001
 30
0.0
 11
139.0439999999999
 21
93.917699999999996
 31
0.0
  0
LINE
  5
107
  8
0
 62
     7
 10
109.7679999999999
 20
71.628500000000003
 30
0.0
 11
110.3599999999999
 21
69.416700000000006
 31
0.0
  0
LINE
  5
108
  8
0
 62
     7
 10
110.3599999999999
 20
69.416700000000006
 30
0.0
 11
110.9529999999999
 21
71.628500000000003
 31
0.0
  0
LINE
  5
109
  8
0
 62
     7
 10
110.9529999999999
 20
71.628500000000003
 30
0.0
 11
109.7679999999999
 21
71.628500000000003
 31
0.0
  0
LINE
  5
10A
  8
0
 62
     7
 10
110.9379999999999
 20
116.20699999999999
 30
0.0
 11
110.346
 21
118.419
 31
0.0
  0
LINE
  5
10B
  8
0
 62
     7
 10
110.346
 20
118.419
 30
0.0
 11
109.7529999999999
 21
116.20699999999999
 31
0.0
  0
LINE
  5
10C
  8
0
 62
     7
 10
109.7529999999999
 20
116.20699999999999
 30
0.0
 11
110.9379999999999
 21
116.20699999999999
 31
0.0
  0
LINE
  5
10D
  8
0
 62
     7
 10
110.35299999999989
 20
69.418099999999995
 30
0.0
 11
110.35299999999989
 21
118.41800000000001
 31
0.0
  0
LINE
  5
10E
  8
0
 62
     7
 10
118.077
 20
64.628
 30
0.0
 11
118.669
 21
62.416200000000011
 31
0.0
  0
LINE
  5
10F
  8
0
 62
     7
 10
118.669
 20
62.416200000000011
 30
0.0
 11
119.262
 21
64.628
 31
0.0
  0
LINE
  5
110
  8
0
 62
     7
 10
119.262
 20
64.628
 30
0.0
 11
118.077
 21
64.628
 31
0.0
  0
LINE
  5
111
  8
0
 62
     7
 10
119.24799999999991
 20
123.208
 30
0.0
 11
118.6549999999999
 21
125.4189999999999
 31
0.0
  0
LINE
  5
112
  8
0
 62
     7
 10
118.6549999999999
 20
125.4189999999999
 30
0.0
 11
118.062
 21
123.208
 31
0.0
  0
LINE
  5
113
  8
0
 62
     7
 10
118.062
 20
123.208
 30
0.0
 11
119.24799999999991
 21
123.208
 31
0.0
  0
LINE
  5
114
  8
0
 62
     7
 10
118.66200000000001
 20
62.4176
 30
0.0
 11
118.66200000000001
 21
125.41799999999991
 31
0.0
  0
LINE
  5
115
  8
0
 62
     7
 10
119.36199999999999
 20
62.4176
 30
0.0
 11
100.693
 21
62.4176
 31
0.0
  0
LINE
  5
116
  8
0
 62
     7
 10
119.36199999999999
 20
125.41799999999991
 30
0.0
 11
100.693
 21
125.41799999999991
 31
0.0
  0
LINE
  5
117
  8
0
 62
     7
 10
93.402000000000015
 20
118.41800000000001
 30
0.0
 11
111.053
 21
118.41800000000001
 31
0.0
  0
LINE
  5
118
  8
0
 62
     7
 10
93.402000000000015
 20
69.418099999999995
 30
0.0
 11
111.053
 21
69.418099999999995
 31
0.0
  0
LINE
  5
119
  8
0
 62
     7
 10
166.5629999999999
 20
213.36500000000001
 30
0.0
 11
165.97099999999989
 21
215.57699999999991
 31
0.0
  0
LINE
  5
11A
  8
0
 62
     7
 10
165.97099999999989
 20
215.57699999999991
 30
0.0
 11
165.3779999999999
 21
213.36500000000001
 31
0.0
  0
LINE
  5
11B
  8
0
 62
     7
 10
165.3779999999999
 20
213.36500000000001
 30
0.0
 11
166.5629999999999
 21
213.36500000000001
 31
0.0
  0
LINE
  5
11C
  8
0
 62
     7
 10
165.393
 20
194.28599999999989
 30
0.0
 11
165.98500000000001
 21
192.07400000000001
 31
0.0
  0
LINE
  5
11D
  8
0
 62
     7
 10
165.98500000000001
 20
192.07400000000001
 30
0.0
 11
166.57799999999989
 21
194.28599999999989
 31
0.0
  0
LINE
  5
11E
  8
0
 62
     7
 10
166.57799999999989
 20
194.28599999999989
 30
0.0
 11
165.393
 21
194.28599999999989
 31
0.0
  0
LINE
  5
11F
  8
0
 62
     7
 10
165.97900000000001
 20
215.5749999999999
 30
0.0
 11
165.97900000000001
 21
192.0749999999999
 31
0.0
  0
LINE
  5
120
  8
0
 62
     7
 10
159.31399999999999
 20
192.0749999999999
 30
0.0
 11
166.67899999999989
 21
192.0749999999999
 31
0.0
  0
LINE
  5
121
  8
0
 62
     7
 10
140.744
 20
215.5749999999999
 30
0.0
 11
166.67899999999989
 21
215.5749999999999
 31
0.0
  0
LINE
  5
122
  8
0
 62
     7
 10
68.7821
 20
54.0336
 30
0.0
 11
70.993899999999996
 21
54.626100000000001
 31
0.0
  0
LINE
  5
123
  8
0
 62
     7
 10
70.993899999999996
 20
54.626100000000001
 30
0.0
 11
68.7821
 21
55.218699999999991
 31
0.0
  0
LINE
  5
124
  8
0
 62
     7
 10
68.7821
 20
55.218699999999991
 30
0.0
 11
68.7821
 21
54.0336
 31
0.0
  0
LINE
  5
125
  8
0
 62
     7
 10
49.703099999999999
 20
55.2042
 30
0.0
 11
47.491300000000003
 21
54.611699999999999
 31
0.0
  0
LINE
  5
126
  8
0
 62
     7
 10
47.491300000000003
 20
54.611699999999999
 30
0.0
 11
49.703099999999999
 21
54.019100000000002
 31
0.0
  0
LINE
  5
127
  8
0
 62
     7
 10
49.703099999999999
 20
54.019100000000002
 30
0.0
 11
49.703099999999999
 21
55.2042
 31
0.0
  0
LINE
  5
128
  8
0
 62
     7
 10
70.992500000000007
 20
54.618899999999996
 30
0.0
 11
47.492299999999993
 21
54.618899999999996
 31
0.0
  0
LINE
  5
129
  8
0
 62
     7
 10
47.492299999999993
 20
61.983499999999999
 30
0.0
 11
47.492299999999993
 21
53.918799999999997
 31
0.0
  0
LINE
  5
12A
  8
0
 62
     7
 10
70.992500000000007
 20
87.903199999999984
 30
0.0
 11
70.992500000000007
 21
53.918799999999997
 31
0.0
  0
LINE
  5
12B
  8
0
 62
     7
 10
73.763400000000004
 20
97.527100000000004
 30
0.0
 11
72.618600000000001
 21
95.5441
 31
0.0
  0
LINE
  5
12C
  8
0
 62
     7
 10
72.618600000000001
 20
95.5441
 30
0.0
 11
74.601600000000005
 21
96.689300000000003
 31
0.0
  0
LINE
  5
12D
  8
0
 62
     7
 10
74.601600000000005
 20
96.689300000000003
 30
0.0
 11
73.763400000000004
 21
97.527100000000004
 31
0.0
  0
LINE
  5
12E
  8
0
 62
     7
 10
68.221199999999996
 20
90.308199999999999
 30
0.0
 11
69.366100000000003
 21
92.291199999999989
 31
0.0
  0
LINE
  5
12F
  8
0
 62
     7
 10
69.366100000000003
 20
92.291199999999989
 30
0.0
 11
67.382999999999996
 21
91.146399999999986
 31
0.0
  0
LINE
  5
130
  8
0
 62
     7
 10
67.382999999999996
 20
91.146399999999986
 30
0.0
 11
68.221199999999996
 21
90.308199999999999
 31
0.0
  0
LINE
  5
131
  8
0
 62
     7
 10
65.733500000000006
 20
88.658699999999996
 30
0.0
 11
75.585499999999996
 21
98.511099999999999
 31
0.0
  0
LINE
  5
132
  8
0
 62
     7
 10
56.10990000000001
 20
90.697900000000004
 30
0.0
 11
57.2547
 21
92.680899999999994
 31
0.0
  0
LINE
  5
133
  8
0
 62
     7
 10
57.2547
 20
92.680899999999994
 30
0.0
 11
55.271700000000003
 21
91.536100000000005
 31
0.0
  0
LINE
  5
134
  8
0
 62
     7
 10
55.271700000000003
 20
91.536100000000005
 30
0.0
 11
56.10990000000001
 21
90.697900000000004
 31
0.0
  0
LINE
  5
135
  8
0
 62
     7
 10
60.874200000000002
 20
97.138499999999993
 30
0.0
 11
59.729399999999998
 21
95.155500000000004
 31
0.0
  0
LINE
  5
136
  8
0
 62
     7
 10
59.729399999999998
 20
95.155500000000004
 30
0.0
 11
61.712400000000002
 21
96.300299999999993
 31
0.0
  0
LINE
  5
137
  8
0
 62
     7
 10
61.712400000000002
 20
96.300299999999993
 30
0.0
 11
60.874200000000002
 21
97.138499999999993
 31
0.0
  0
LINE
  5
138
  8
0
 62
     7
 10
65.808999999999983
 20
101.235
 30
0.0
 11
55.003700000000002
 21
90.429199999999994
 31
0.0
  0
LINE
  5
139
  8
0
 62
     7
 10
71.530500000000004
 20
229.5449999999999
 30
0.0
 11
73.742199999999997
 21
230.13799999999989
 31
0.0
  0
LINE
  5
13A
  8
0
 62
     7
 10
73.742199999999997
 20
230.13799999999989
 30
0.0
 11
71.530500000000004
 21
230.72999999999999
 31
0.0
  0
LINE
  5
13B
  8
0
 62
     7
 10
71.530500000000004
 20
230.72999999999999
 30
0.0
 11
71.530500000000004
 21
229.5449999999999
 31
0.0
  0
LINE
  5
13C
  8
0
 62
     7
 10
75.953999999999994
 20
230.72999999999999
 30
0.0
 11
73.742199999999997
 21
230.13799999999989
 31
0.0
  0
LINE
  5
13D
  8
0
 62
     7
 10
73.742199999999997
 20
230.13799999999989
 30
0.0
 11
75.953999999999994
 21
229.5449999999999
 31
0.0
  0
LINE
  5
13E
  8
0
 62
     7
 10
75.953999999999994
 20
229.5449999999999
 30
0.0
 11
75.953999999999994
 21
230.72999999999999
 31
0.0
  0
LINE
  5
13F
  8
0
 62
     7
 10
39.182200000000002
 20
194.28700000000001
 30
0.0
 11
39.774700000000003
 21
192.0749999999999
 31
0.0
  0
LINE
  5
140
  8
0
 62
     7
 10
39.774700000000003
 20
192.0749999999999
 30
0.0
 11
40.3673
 21
194.28700000000001
 31
0.0
  0
LINE
  5
141
  8
0
 62
     7
 10
40.3673
 20
194.28700000000001
 30
0.0
 11
39.182200000000002
 21
194.28700000000001
 31
0.0
  0
LINE
  5
142
  8
0
 62
     7
 10
40.3673
 20
189.86299999999989
 30
0.0
 11
39.774700000000003
 21
192.0749999999999
 31
0.0
  0
LINE
  5
143
  8
0
 62
     7
 10
39.774700000000003
 20
192.0749999999999
 30
0.0
 11
39.182200000000002
 21
189.86299999999989
 31
0.0
  0
LINE
  5
144
  8
0
 62
     7
 10
39.182200000000002
 20
189.86299999999989
 30
0.0
 11
40.3673
 21
189.86299999999989
 31
0.0
  0
LINE
  5
145
  8
0
 62
     7
 10
38.540500000000002
 20
96.130099999999999
 30
0.0
 11
39.133099999999999
 21
93.918400000000005
 31
0.0
  0
LINE
  5
146
  8
0
 62
     7
 10
39.133099999999999
 20
93.918400000000005
 30
0.0
 11
39.7256
 21
96.130099999999999
 31
0.0
  0
LINE
  5
147
  8
0
 62
     7
 10
39.7256
 20
96.130099999999999
 30
0.0
 11
38.540500000000002
 21
96.130099999999999
 31
0.0
  0
LINE
  5
148
  8
0
 62
     7
 10
38.547800000000002
 20
86.151700000000005
 30
0.0
 11
39.140300000000003
 21
83.939899999999994
 31
0.0
  0
LINE
  5
149
  8
0
 62
     7
 10
39.140300000000003
 20
83.939899999999994
 30
0.0
 11
39.732900000000001
 21
86.151700000000005
 31
0.0
  0
LINE
  5
14A
  8
0
 62
     7
 10
39.732900000000001
 20
86.151700000000005
 30
0.0
 11
38.547800000000002
 21
86.151700000000005
 31
0.0
  0
LINE
  5
14B
  8
0
 62
     7
 10
39.7256
 20
91.706599999999995
 30
0.0
 11
39.133099999999999
 21
93.918400000000005
 31
0.0
  0
LINE
  5
14C
  8
0
 62
     7
 10
39.133099999999999
 20
93.918400000000005
 30
0.0
 11
38.540500000000002
 21
91.706599999999995
 31
0.0
  0
LINE
  5
14D
  8
0
 62
     7
 10
38.540500000000002
 20
91.706599999999995
 30
0.0
 11
39.7256
 21
91.706599999999995
 31
0.0
  0
LINE
  5
14E
  8
0
 62
     7
 10
39.718400000000003
 20
101.73099999999999
 30
0.0
 11
39.125900000000001
 21
103.943
 31
0.0
  0
LINE
  5
14F
  8
0
 62
     7
 10
39.125900000000001
 20
103.943
 30
0.0
 11
38.53329999999999
 21
101.73099999999999
 31
0.0
  0
LINE
  5
150
  8
0
 62
     7
 10
38.53329999999999
 20
101.73099999999999
 30
0.0
 11
39.718400000000003
 21
101.73099999999999
 31
0.0
  0
LINE
  5
151
  8
0
 62
     7
 10
39.133099999999999
 20
83.941299999999998
 30
0.0
 11
39.133099999999999
 21
103.94199999999999
 31
0.0
  0
LINE
  5
152
  8
0
 62
     7
 10
44.521299999999989
 20
93.918400000000005
 30
0.0
 11
38.433
 21
93.918400000000005
 31
0.0
  0
LINE
  5
153
  8
0
 62
     7
 10
55.094700000000003
 20
103.94199999999999
 30
0.0
 11
38.433
 21
103.94199999999999
 31
0.0
  0
LINE
  5
154
  8
0
 62
     7
 10
55.094700000000003
 20
83.941299999999998
 30
0.0
 11
38.433
 21
83.941299999999998
 31
0.0
  0
LINE
  5
155
  8
0
 62
     7
 10
109.76000000000001
 20
66.629300000000001
 30
0.0
 11
110.35299999999989
 21
64.417500000000004
 31
0.0
  0
LINE
  5
156
  8
0
 62
     7
 10
110.35299999999989
 20
64.417500000000004
 30
0.0
 11
110.946
 21
66.629300000000001
 31
0.0
  0
LINE
  5
157
  8
0
 62
     7
 10
110.946
 20
66.629300000000001
 30
0.0
 11
109.76000000000001
 21
66.629300000000001
 31
0.0
  0
LINE
  5
158
  8
0
 62
     7
 10
110.946
 20
60.205800000000004
 30
0.0
 11
110.35299999999989
 21
62.4176
 31
0.0
  0
LINE
  5
159
  8
0
 62
     7
 10
110.35299999999989
 20
62.4176
 30
0.0
 11
109.76000000000001
 21
60.205800000000004
 31
0.0
  0
LINE
  5
15A
  8
0
 62
     7
 10
109.76000000000001
 20
60.205800000000004
 30
0.0
 11
110.946
 21
60.205800000000004
 31
0.0
  0
LINE
  5
15B
  8
0
 62
     7
 10
110.35299999999989
 20
55.313800000000001
 30
0.0
 11
110.35299999999989
 21
67.426100000000005
 31
0.0
  0
LINE
  5
15C
  8
0
 62
     7
 10
111.053
 20
64.417500000000004
 30
0.0
 11
98.415800000000004
 21
64.417500000000004
 31
0.0
  0
LINE
  5
15D
  8
0
 62
     7
 10
61.779600000000002
 20
131.61199999999991
 30
0.0
 11
63.991300000000003
 21
132.20400000000001
 31
0.0
  0
LINE
  5
15E
  8
0
 62
     7
 10
63.991300000000003
 20
132.20400000000001
 30
0.0
 11
61.779600000000002
 21
132.797
 31
0.0
  0
LINE
  5
15F
  8
0
 62
     7
 10
61.779600000000002
 20
132.797
 30
0.0
 11
61.779600000000002
 21
131.61199999999991
 31
0.0
  0
LINE
  5
160
  8
0
 62
     7
 10
45.280599999999993
 20
131.61899999999989
 30
0.0
 11
47.492299999999993
 21
132.21199999999999
 31
0.0
  0
LINE
  5
161
  8
0
 62
     7
 10
47.492299999999993
 20
132.21199999999999
 30
0.0
 11
45.280599999999993
 21
132.804
 31
0.0
  0
LINE
  5
162
  8
0
 62
     7
 10
45.280599999999993
 20
132.804
 30
0.0
 11
45.280599999999993
 21
131.61899999999989
 31
0.0
  0
LINE
  5
163
  8
0
 62
     7
 10
51.703999999999994
 20
132.804
 30
0.0
 11
49.492199999999997
 21
132.21199999999999
 31
0.0
  0
LINE
  5
164
  8
0
 62
     7
 10
49.492199999999997
 20
132.21199999999999
 30
0.0
 11
51.703999999999994
 21
131.61899999999989
 31
0.0
  0
LINE
  5
165
  8
0
 62
     7
 10
51.703999999999994
 20
131.61899999999989
 30
0.0
 11
51.703999999999994
 21
132.804
 31
0.0
  0
LINE
  5
166
  8
0
 62
     7
 10
92.993700000000004
 20
132.21199999999999
 30
0.0
 11
40.837699999999998
 21
132.21199999999999
 31
0.0
  0
LINE
  5
167
  8
0
 62
     7
 10
51.480400000000003
 20
109.881
 30
0.0
 11
53.6922
 21
110.4739999999999
 31
0.0
  0
LINE
  5
168
  8
0
 62
     7
 10
53.6922
 20
110.4739999999999
 30
0.0
 11
51.480400000000003
 21
111.0659999999999
 31
0.0
  0
LINE
  5
169
  8
0
 62
     7
 10
51.480400000000003
 20
111.0659999999999
 30
0.0
 11
51.480400000000003
 21
109.881
 31
0.0
  0
LINE
  5
16A
  8
0
 62
     7
 10
66.204099999999997
 20
111.0659999999999
 30
0.0
 11
63.992400000000004
 21
110.4739999999999
 31
0.0
  0
LINE
  5
16B
  8
0
 62
     7
 10
63.992400000000004
 20
110.4739999999999
 30
0.0
 11
66.204099999999997
 21
109.881
 31
0.0
  0
LINE
  5
16C
  8
0
 62
     7
 10
66.204099999999997
 20
109.881
 30
0.0
 11
66.204099999999997
 21
111.0659999999999
 31
0.0
  0
LINE
  5
16D
  8
0
 62
     7
 10
67.7179
 20
110.4739999999999
 30
0.0
 11
50.330800000000004
 21
110.4739999999999
 31
0.0
  0
LINE
  5
16E
  8
0
 62
     7
 10
58.49260000000001
 20
111.17399999999989
 30
0.0
 11
58.49260000000001
 21
106.9679999999999
 31
0.0
  0
LINE
  5
16F
  8
0
 62
     7
 10
90.781899999999993
 20
131.62599999999989
 30
0.0
 11
92.993700000000004
 21
132.21899999999991
 31
0.0
  0
LINE
  5
170
  8
0
 62
     7
 10
92.993700000000004
 20
132.21899999999991
 30
0.0
 11
90.781899999999993
 21
132.81200000000001
 31
0.0
  0
LINE
  5
171
  8
0
 62
     7
 10
90.781899999999993
 20
132.81200000000001
 30
0.0
 11
90.781899999999993
 21
131.62599999999989
 31
0.0
  0
LINE
  5
172
  8
0
 62
     7
 10
66.203100000000006
 20
132.797
 30
0.0
 11
63.991300000000003
 21
132.20400000000001
 31
0.0
  0
LINE
  5
173
  8
0
 62
     7
 10
63.991300000000003
 20
132.20400000000001
 30
0.0
 11
66.203100000000006
 21
131.61199999999991
 31
0.0
  0
LINE
  5
174
  8
0
 62
     7
 10
66.203100000000006
 20
131.61199999999991
 30
0.0
 11
66.203100000000006
 21
132.797
 31
0.0
  0
LINE
  5
175
  8
0
 62
     7
 10
49.703099999999999
 20
138.99700000000001
 30
0.0
 11
47.491300000000003
 21
138.40399999999991
 31
0.0
  0
LINE
  5
176
  8
0
 62
     7
 10
47.491300000000003
 20
138.40399999999991
 30
0.0
 11
49.703099999999999
 21
137.81100000000001
 31
0.0
  0
LINE
  5
177
  8
0
 62
     7
 10
49.703099999999999
 20
137.81100000000001
 30
0.0
 11
49.703099999999999
 21
138.99700000000001
 31
0.0
  0
LINE
  5
178
  8
0
 62
     7
 10
97.781700000000015
 20
137.82599999999999
 30
0.0
 11
99.993499999999983
 21
138.4189999999999
 31
0.0
  0
LINE
  5
179
  8
0
 62
     7
 10
99.993499999999983
 20
138.4189999999999
 30
0.0
 11
97.781700000000015
 21
139.01099999999991
 31
0.0
  0
LINE
  5
17A
  8
0
 62
     7
 10
97.781700000000015
 20
139.01099999999991
 30
0.0
 11
97.781700000000015
 21
137.82599999999999
 31
0.0
  0
LINE
  5
17B
  8
0
 62
     7
 10
47.492299999999993
 20
138.41099999999989
 30
0.0
 11
99.992500000000007
 21
138.41099999999989
 31
0.0
  0
LINE
  5
17C
  8
0
 62
     7
 10
47.492299999999993
 20
139.1109999999999
 30
0.0
 11
47.492299999999993
 21
125.8809999999999
 31
0.0
  0
LINE
  5
17D
  8
0
 62
     7
 10
99.992500000000007
 20
139.1109999999999
 30
0.0
 11
99.992500000000007
 21
125.8809999999999
 31
0.0
  0
LINE
  5
17E
  8
0
 62
     7
 10
92.992699999999985
 20
132.91200000000001
 30
0.0
 11
92.992699999999985
 21
119.1179999999999
 31
0.0
  0
LINE
  5
17F
  8
0
 62
     7
 10
49.492199999999997
 20
132.91200000000001
 30
0.0
 11
49.492199999999997
 21
123.6639999999999
 31
0.0
  0
LINE
  5
180
  8
0
 62
     7
 10
63.992400000000004
 20
132.91200000000001
 30
0.0
 11
63.992400000000004
 21
119.1179999999999
 31
0.0
  0
LINE
  5
181
  8
0
  6
AIGENLINE002
 62
     7
 10
159.52600000000001
 20
93.918400000000005
 30
0.0
 11
134.929
 21
93.918400000000005
 31
0.0
  0
LINE
  5
182
  8
0
 62
     7
 10
53.6922
 20
70.417900000000003
 30
0.0
 11
53.6922
 21
117.41800000000001
 31
0.0
  0
LINE
  5
183
  8
0
 62
     7
 10
63.992400000000004
 20
71.417599999999993
 30
0.0
 11
63.992400000000004
 21
116.41799999999991
 31
0.0
  0
LINE
  5
184
  8
0
 62
     7
 10
92.992699999999985
 20
116.41799999999991
 30
0.0
 11
92.992699999999985
 21
71.417599999999993
 31
0.0
  0
LINE
  5
185
  8
0
 62
     7
 10
54.692300000000003
 20
118.41800000000001
 30
0.0
 11
90.992399999999989
 21
118.41800000000001
 31
0.0
  0
LINE
  5
186
  8
0
  6
AIGENLINE002
 62
     7
 10
58.49260000000001
 20
91.362099999999998
 30
0.0
 11
58.49260000000001
 21
96.724100000000007
 31
0.0
  0
LINE
  5
187
  8
0
  6
AIGENLINE002
 62
     7
 10
45.221299999999992
 20
93.918400000000005
 30
0.0
 11
103.602
 21
93.918400000000005
 31
0.0
  0
ARC
  5
188
  8
0
  6
AIGENLINE001
 62
     7
 10
70.992324999999994
 20
192.074761
 30
0.0
 40
3.4997229999999999
 50
0.00283
 51
90.002800000000008
  0
ARC
  5
189
  8
0
  6
AIGENLINE001
 62
     7
 10
70.991810000000001
 20
192.074589
 30
0.0
 40
3.4998949999999991
 50
89.994360000000015
 51
179.99432999999991
  0
ARC
  5
18A
  8
0
  6
AIGENLINE001
 62
     7
 10
70.992153000000002
 20
192.07493299999999
 30
0.0
 40
3.5002390000000001
 50
179.99996999999991
 51
270.00002000000001
  0
ARC
  5
18B
  8
0
  6
AIGENLINE001
 62
     7
 10
70.99198100000001
 20
192.07476199999999
 30
0.0
 40
3.500067
 50
270.00283999999988
 51
0.00281
  0
LINE
  5
18C
  8
0
  6
AIGENLINE002
 62
     7
 10
70.992199999999997
 20
186.75999999999991
 30
0.0
 11
70.992199999999997
 21
197.232
 31
0.0
  0
ARC
  5
18D
  8
0
  6
AIGENLINE001
 62
     7
 10
70.992324999999994
 20
192.074761
 30
0.0
 40
2.2997879999999991
 50
0.004301
 51
90.004271999999986
  0
ARC
  5
18E
  8
0
  6
AIGENLINE001
 62
     7
 10
70.991809000000003
 20
192.074589
 30
0.0
 40
2.2999610000000001
 50
89.991418000000024
 51
179.991388
  0
ARC
  5
18F
  8
0
  6
AIGENLINE001
 62
     7
 10
70.992153000000002
 20
192.07493299999999
 30
0.0
 40
2.3003040000000001
 50
179.99996999999991
 51
270.00002000000001
  0
ARC
  5
190
  8
0
  6
AIGENLINE001
 62
     7
 10
70.99198100000001
 20
192.07476199999999
 30
0.0
 40
2.3001330000000002
 50
270.00431099999992
 51
0.004281
  0
ARC
  5
191
  8
0
 62
     7
 10
70.99266999999999
 20
93.918202000000008
 30
0.0
 40
3.4997229999999999
 50
0.00283
 51
90.002800000000008
  0
ARC
  5
192
  8
0
 62
     7
 10
70.992153999999999
 20
93.918030000000016
 30
0.0
 40
3.4998949999999991
 50
89.994360000000015
 51
179.99432999999991
  0
ARC
  5
193
  8
0
 62
     7
 10
70.992497
 20
93.918374999999983
 30
0.0
 40
3.5002390000000001
 50
179.99996999999991
 51
270.00002000000001
  0
ARC
  5
194
  8
0
 62
     7
 10
70.992324999999994
 20
93.918204000000003
 30
0.0
 40
3.500067
 50
270.00283999999988
 51
0.00281
  0
LINE
  5
195
  8
0
  6
AIGENLINE002
 62
     7
 10
141.0439999999999
 20
196.55699999999999
 30
0.0
 11
141.0439999999999
 21
201.464
 31
0.0
  0
LINE
  5
196
  8
0
  6
AIGENLINE002
 62
     7
 10
141.0439999999999
 20
91.338699999999989
 30
0.0
 11
141.0439999999999
 21
96.245199999999997
 31
0.0
  0
ARC
  5
197
  8
0
  6
AIGENLINE001
 62
     7
 10
140.99663000000001
 20
93.824030000000008
 30
0.0
 40
1.2986070000000001
 50
2.0958450000000002
 51
87.888354000000007
  0
ARC
  5
198
  8
0
  6
AIGENLINE001
 62
     7
 10
141.091994
 20
93.824006000000026
 30
0.0
 40
1.2986180000000001
 50
92.096873999999985
 51
177.90309600000001
  0
ARC
  5
199
  8
0
  6
AIGENLINE001
 62
     7
 10
141.04413400000001
 20
93.871865999999983
 30
0.0
 40
1.249887999999999
 50
180.01580300000001
 51
270.01581299999992
  0
ARC
  5
19A
  8
0
  6
AIGENLINE001
 62
     7
 10
141.0446509999999
 20
93.871693999999991
 30
0.0
 40
1.2497169999999991
 50
269.99212199999988
 51
359.99209300000001
  0
LINE
  5
19B
  8
0
  6
AIGENLINE002
 62
     7
 10
58.49260000000001
 20
81.361599999999996
 30
0.0
 11
58.49260000000001
 21
86.268100000000004
 31
0.0
  0
LINE
  5
19C
  8
0
  6
AIGENLINE002
 62
     7
 10
55.794699999999999
 20
83.941299999999998
 30
0.0
 11
60.819099999999999
 21
83.941299999999998
 31
0.0
  0
LINE
  5
19D
  8
0
  6
AIGENLINE002
 62
     7
 10
70.992500000000007
 20
88.603199999999987
 30
0.0
 11
70.992500000000007
 21
99.075699999999983
 31
0.0
  0
LINE
  5
19E
  8
0
 62
     7
 10
49.992400000000004
 20
124.41799999999991
 30
0.0
 11
97.492699999999999
 21
124.41799999999991
 31
0.0
  0
ARC
  5
19F
  8
0
 62
     7
 10
50.11569999999999
 20
122.79509299999989
 30
0.0
 40
0.62357
 50
92.146034000000014
 51
177.88683700000001
  0
ARC
  5
1A0
  8
0
 62
     7
 10
97.392431000000016
 20
122.81808599999999
 30
0.0
 40
0.6001400000000001
 50
0.00001
 51
89.999980000000008
  0
LINE
  5
1A1
  8
0
 62
     7
 10
50.092300000000002
 20
123.41800000000001
 30
0.0
 11
97.392399999999995
 21
123.41800000000001
 31
0.0
  0
ARC
  5
1A2
  8
0
 62
     7
 10
54.730164000000002
 20
70.456104000000011
 30
0.0
 40
1.0387159999999991
 50
182.11046399999989
 51
267.90930600000002
  0
ARC
  5
1A3
  8
0
 62
     7
 10
54.730885999999998
 20
117.37923599999991
 30
0.0
 40
1.0394639999999991
 50
92.128997999999996
 51
177.85123200000001
  0
ARC
  5
1A4
  8
0
 62
     7
 10
97.435529000000002
 20
122.8608379999999
 30
0.0
 40
1.5582089999999991
 50
2.1021099999999988
 51
87.897879999999986
  0
ARC
  5
1A5
  8
0
 62
     7
 10
97.435117000000005
 20
64.975634999999997
 30
0.0
 40
1.5586349999999991
 50
272.11669399999988
 51
357.88331599999998
  0
ARC
  5
1A6
  8
0
 62
     7
 10
97.392431000000016
 20
65.017976000000004
 30
0.0
 40
0.6001400000000001
 50
270.00002000000001
 51
359.99998999999991
  0
ARC
  5
1A7
  8
0
 62
     7
 10
50.115633000000003
 20
65.040901000000005
 30
0.0
 40
0.6235000000000001
 50
182.10718299999991
 51
267.85994599999998
  0
ARC
  5
1A8
  8
0
 62
     7
 10
50.049605999999997
 20
122.860829
 30
0.0
 40
1.5582180000000001
 50
92.10243100000001
 51
177.89753899999999
  0
ARC
  5
1A9
  8
0
 62
     7
 10
50.049987999999999
 20
64.975614000000007
 30
0.0
 40
1.5586139999999991
 50
182.11597299999991
 51
267.88405599999987
  0
LINE
  5
1AA
  8
0
 62
     7
 10
49.492199999999997
 20
65.018000000000001
 30
0.0
 11
49.492199999999997
 21
122.818
 31
0.0
  0
LINE
  5
1AB
  8
0
 62
     7
 10
97.992599999999996
 20
65.018000000000001
 30
0.0
 11
97.992599999999996
 21
122.818
 31
0.0
  0
LINE
  5
1AC
  8
0
 62
     7
 10
50.092300000000002
 20
64.4178
 30
0.0
 11
97.392399999999995
 21
64.4178
 31
0.0
  0
LINE
  5
1AD
  8
0
 62
     7
 10
49.992400000000004
 20
63.418100000000003
 30
0.0
 11
97.492699999999999
 21
63.418100000000003
 31
0.0
  0
LINE
  5
1AE
  8
0
 62
     7
 10
48.492400000000004
 20
122.91799999999991
 30
0.0
 11
48.492400000000004
 21
64.918099999999995
 31
0.0
  0
LINE
  5
1AF
  8
0
 62
     7
 10
98.992700000000013
 20
64.918099999999995
 30
0.0
 11
98.992700000000013
 21
122.91799999999991
 31
0.0
  0
ARC
  5
1B0
  8
0
 62
     7
 10
66.068709999999996
 20
116.3416229999999
 30
0.0
 40
2.077766
 50
92.108774999999994
 51
177.88132400000001
  0
ARC
  5
1B1
  8
0
 62
     7
 10
66.068386000000004
 20
71.494113999999996
 30
0.0
 40
2.0774300000000001
 50
182.1100689999999
 51
267.899832
  0
LINE
  5
1B2
  8
0
 62
     7
 10
90.992399999999989
 20
69.418099999999995
 30
0.0
 11
54.692300000000003
 21
69.418099999999995
 31
0.0
  0
ARC
  5
1B3
  8
0
 62
     7
 10
90.915999999999997
 20
71.494777999999997
 30
0.0
 40
2.078104999999999
 50
272.10794399999997
 51
357.87232599999999
  0
ARC
  5
1B4
  8
0
 62
     7
 10
90.916639000000004
 20
116.3419219999999
 30
0.0
 40
2.0774430000000002
 50
2.1107259999999992
 51
87.90900400000001
  0
LINE
  5
1B5
  8
0
 62
     7
 10
99.992500000000007
 20
123.2179999999999
 30
0.0
 11
99.992500000000007
 21
64.617699999999999
 31
0.0
  0
ARC
  5
1B6
  8
0
 62
     7
 10
97.707892000000015
 20
123.1339039999999
 30
0.0
 40
2.2861319999999989
 50
2.1183700000000001
 51
87.872646999999986
  0
LINE
  5
1B7
  8
0
 62
     7
 10
49.692399999999999
 20
125.41799999999991
 30
0.0
 11
97.792799999999986
 21
125.41799999999991
 31
0.0
  0
ARC
  5
1B8
  8
0
 62
     7
 10
49.776895000000003
 20
123.13388499999991
 30
0.0
 40
2.2861379999999998
 50
92.118820000000014
 51
177.88114999999991
  0
LINE
  5
1B9
  8
0
 62
     7
 10
47.492299999999993
 20
64.617699999999999
 30
0.0
 11
47.492299999999993
 21
123.2179999999999
 31
0.0
  0
ARC
  5
1BA
  8
0
 62
     7
 10
49.776513000000001
 20
64.701793999999992
 30
0.0
 40
2.2857419999999991
 50
182.109634
 51
267.89039500000001
  0
LINE
  5
1BB
  8
0
 62
     7
 10
97.792799999999986
 20
62.4176
 30
0.0
 11
49.692399999999999
 21
62.4176
 31
0.0
  0
ARC
  5
1BC
  8
0
 62
     7
 10
97.708617000000004
 20
64.701790000000003
 30
0.0
 40
2.2857379999999998
 50
272.10952099999992
 51
357.890488
  0
LINE
  5
1BD
  8
0
 62
     7
 10
154.626
 20
113.488
 30
0.0
 11
154.626
 21
111.05200000000001
 31
0.0
  0
LINE
  5
1BE
  8
0
 62
     7
 10
154.626
 20
111.05200000000001
 30
0.0
 11
154.626
 21
108.6149999999999
 31
0.0
  0
ARC
  5
1BF
  8
0
 62
     7
 10
353.57783799999987
 20
-1764.286239999999
 30
0.0
 40
1883.437999999999
 50
96.063580000000002
 51
96.122624000000002
  0
ARC
  5
1C0
  8
0
 62
     7
 10
522.30803000000003
 20
-3363.8400000000001
 30
0.0
 40
3491.8649999999998
 50
96.076096000000007
 51
96.107949000000005
  0
ARC
  5
1C1
  8
0
 62
     7
 10
154.80046899999991
 20
114.97348599999999
 30
0.0
 40
1.6046519999999991
 50
96.236007999999984
 51
181.99079199999991
  0
ARC
  5
1C2
  8
0
 62
     7
 10
154.78551200000001
 20
115.076707
 30
0.0
 40
1.5966590000000001
 50
185.71387799999991
 51
264.27234399999998
  0
ARC
  5
1C3
  8
0
 62
     7
 10
154.80046899999991
 20
72.752884999999992
 30
0.0
 40
1.6046519999999991
 50
96.236007999999984
 51
181.99079199999991
  0
ARC
  5
1C4
  8
0
 62
     7
 10
154.78551200000001
 20
72.856106000000011
 30
0.0
 40
1.5966590000000001
 50
185.71387799999991
 51
264.27234399999998
  0
LINE
  5
1C5
  8
0
 62
     7
 10
154.626
 20
74.347999999999999
 30
0.0
 11
154.626
 21
76.7851
 31
0.0
  0
LINE
  5
1C6
  8
0
 62
     7
 10
154.626
 20
76.7851
 30
0.0
 11
154.626
 21
79.221500000000006
 31
0.0
  0
ARC
  5
1C7
  8
0
 62
     7
 10
74.293537999999998
 20
-664.183132
 30
0.0
 40
747.73242900000002
 50
83.832515999999984
 51
83.981240999999997
  0
LINE
  5
1C8
  8
0
 62
     7
 10
152.696
 20
79.427499999999995
 30
0.0
 11
150.76599999999999
 21
79.633499999999998
 31
0.0
  0
ARC
  5
1C9
  8
0
 62
     7
 10
136.32207500000001
 20
97.593571999999995
 30
0.0
 40
20.236800999999989
 50
358.94275499999992
 51
0.002104
  0
ARC
  5
1CA
  8
0
 62
     7
 10
137.22961000000001
 20
97.590487999999993
 30
0.0
 40
19.329264999999989
 50
0.011345
 51
9.9506019999999982
  0
ARC
  5
1CB
  8
0
 62
     7
 10
155.6614439999999
 20
100.809838
 30
0.0
 40
0.61856
 50
11.25512
 51
83.092411999999996
  0
LINE
  5
1CC
  8
0
 62
     7
 10
153.46000000000001
 20
101.648
 30
0.0
 11
155.7359999999999
 21
101.42400000000001
 31
0.0
  0
ARC
  5
1CD
  8
0
 62
     7
 10
155.661012
 20
87.026690000000002
 30
0.0
 40
0.6190750000000002
 50
276.94208300000003
 51
348.71038499999997
  0
ARC
  5
1CE
  8
0
 62
     7
 10
137.27462199999999
 20
90.243611999999985
 30
0.0
 40
19.284252999999989
 50
350.0318529999999
 51
359.99445600000001
  0
ARC
  5
1CF
  8
0
 62
     7
 10
136.39956100000001
 20
90.243203000000008
 30
0.0
 40
20.159313999999998
 50
359.99585999999988
 51
1.059280999999999
  0
LINE
  5
1D0
  8
0
 62
     7
 10
153.46000000000001
 20
86.188900000000004
 30
0.0
 11
155.7359999999999
 21
86.412199999999999
 31
0.0
  0
LINE
  5
1D1
  8
0
 62
     7
 10
144.02000000000001
 20
86.246799999999993
 30
0.0
 11
145.51099999999991
 21
86.089699999999993
 31
0.0
  0
LINE
  5
1D2
  8
0
 62
     7
 10
145.51099999999991
 20
86.089699999999993
 30
0.0
 11
145.51099999999991
 21
73.590100000000007
 31
0.0
  0
ARC
  5
1D3
  8
0
 62
     7
 10
130.54946099999989
 20
91.778474000000003
 30
0.0
 40
23.551570999999999
 50
309.44112100000001
 51
358.36829599999987
  0
ARC
  5
1D4
  8
0
 62
     7
 10
130.54772299999991
 20
96.057424999999995
 30
0.0
 40
23.553332999999991
 50
1.6336539999999999
 51
50.55692899999999
  0
LINE
  5
1D5
  8
0
 62
     7
 10
145.51099999999991
 20
101.746
 30
0.0
 11
145.51099999999991
 21
114.247
 31
0.0
  0
LINE
  5
1D6
  8
0
 62
     7
 10
144.02000000000001
 20
101.5889999999999
 30
0.0
 11
145.51099999999991
 21
101.746
 31
0.0
  0
ARC
  5
1D7
  8
0
 62
     7
 10
143.21569
 20
121.78362799999989
 30
0.0
 40
0.8050659999999998
 50
2.9601500000000001
 51
75.332308999999995
  0
ARC
  5
1D8
  8
0
 62
     7
 10
143.21581199999989
 20
66.052334000000002
 30
0.0
 40
0.804939
 50
284.66108000000003
 51
357.04646200000002
  0
LINE
  5
1D9
  8
0
 62
     7
 10
140.0439999999999
 20
62.4176
 30
0.0
 11
140.0439999999999
 21
93.918400000000005
 31
0.0
  0
LINE
  5
1DA
  8
0
 62
     7
 10
140.0439999999999
 20
62.4176
 30
0.0
 11
139.4139999999999
 21
62.456200000000003
 31
0.0
  0
ARC
  5
1DB
  8
0
 62
     7
 10
139.344773
 20
62.874730000000007
 30
0.0
 40
0.389857
 50
195.52507099999991
 51
236.06634799999989
  0
ARC
  5
1DC
  8
0
 62
     7
 10
139.43101899999991
 20
62.987697999999988
 30
0.0
 40
0.5317980000000001
 50
235.15108499999999
 51
268.11865399999999
  0
ARC
  5
1DD
  8
0
 62
     7
 10
156.77659199999999
 20
96.920765000000003
 30
0.0
 40
0.269225
 50
5.3664480000000001
 51
53.765574999999998
  0
ARC
  5
1DE
  8
0
 62
     7
 10
156.723704
 20
96.863609999999994
 30
0.0
 40
0.346701
 50
52.298591999999992
 51
83.062251000000003
  0
LINE
  5
1DF
  8
0
 62
     7
 10
156.7649999999999
 20
97.207800000000006
 30
0.0
 11
154.0449999999999
 21
97.373099999999994
 31
0.0
  0
ARC
  5
1E0
  8
0
 62
     7
 10
156.71723
 20
90.973984000000016
 30
0.0
 40
0.349013
 50
277.90634
 51
329.322384
  0
ARC
  5
1E1
  8
0
 62
     7
 10
156.78738899999991
 20
90.913459999999986
 30
0.0
 40
0.258305
 50
332.93107700000002
 51
354.81523099999998
  0
LINE
  5
1E2
  8
0
 62
     7
 10
156.7649999999999
 20
90.628299999999996
 30
0.0
 11
154.0689999999999
 21
90.464299999999994
 31
0.0
  0
LINE
  5
1E3
  8
0
 62
     7
 10
157.0449999999999
 20
90.890100000000004
 30
0.0
 11
157.0449999999999
 21
96.945899999999995
 31
0.0
  0
ARC
  5
1E4
  8
0
 62
     7
 10
138.656047
 20
63.407856999999993
 30
0.0
 40
0.395356
 50
216.8590899999999
 51
256.93839999999989
  0
ARC
  5
1E5
  8
0
 62
     7
 10
138.68448499999991
 20
63.475146000000002
 30
0.0
 40
0.467497
 50
255.40675499999989
 51
264.93751099999992
  0
ARC
  5
1E6
  8
0
 62
     7
 10
138.65530000000001
 20
62.664527999999997
 30
0.0
 40
0.33121
 50
18.638484999999989
 51
62.406382999999998
  0
ARC
  5
1E7
  8
0
 62
     7
 10
138.6044379999999
 20
62.592536000000003
 30
0.0
 40
0.418737
 50
60.801029
 51
84.684147999999993
  0
LINE
  5
1E8
  8
0
 62
     7
 10
137.87299999999999
 20
63.763300000000001
 30
0.0
 11
137.4739999999999
 21
63.878999999999998
 31
0.0
  0
ARC
  5
1E9
  8
0
 62
     7
 10
137.73480399999991
 20
63.222416000000003
 30
0.0
 40
0.5493120000000001
 50
15.716199
 51
58.582881999999998
  0
ARC
  5
1EA
  8
0
 62
     7
 10
137.65378299999989
 20
63.123015000000002
 30
0.0
 40
0.676596
 50
57.115310000000001
 51
71.134443999999974
  0
ARC
  5
1EB
  8
0
 62
     7
 10
138.83481499999991
 20
63.472431999999998
 30
0.0
 40
0.5797939999999999
 50
190.05442600000001
 51
211.35948300000001
  0
ARC
  5
1EC
  8
0
 62
     7
 10
137.577696
 20
64.419227000000006
 30
0.0
 40
0.533365
 50
180.5195159999999
 51
234.01609400000001
  0
ARC
  5
1ED
  8
0
 62
     7
 10
137.67288799999989
 20
64.518975999999995
 30
0.0
 40
0.6702640000000001
 50
232.441338
 51
252.70414400000001
  0
ARC
  5
1EE
  8
0
 62
     7
 10
70.99266999999999
 20
93.918203000000005
 30
0.0
 40
2.2997879999999991
 50
0.004301
 51
90.004271999999986
  0
ARC
  5
1EF
  8
0
 62
     7
 10
70.992153999999999
 20
93.918030000000016
 30
0.0
 40
2.2999610000000001
 50
89.991418000000024
 51
179.991388
  0
ARC
  5
1F0
  8
0
 62
     7
 10
70.992497999999983
 20
93.918374999999983
 30
0.0
 40
2.3003040000000001
 50
179.99996999999991
 51
270.00002000000001
  0
ARC
  5
1F1
  8
0
 62
     7
 10
70.992324999999994
 20
93.918203000000005
 30
0.0
 40
2.3001330000000002
 50
270.00431099999992
 51
0.004281
  0
LINE
  5
1F2
  8
0
  6
AIGENLINE002
 62
     7
 10
58.49260000000001
 20
101.36199999999999
 30
0.0
 11
58.49260000000001
 21
106.2679999999999
 31
0.0
  0
LINE
  5
1F3
  8
0
  6
AIGENLINE002
 62
     7
 10
55.794699999999999
 20
103.94199999999999
 30
0.0
 11
60.819099999999999
 21
103.94199999999999
 31
0.0
  0
ARC
  5
1F4
  8
0
  6
AIGENLINE001
 62
     7
 10
58.425013
 20
103.8743909999999
 30
0.0
 40
1.8185839999999991
 50
2.1179339999999991
 51
87.870776000000006
  0
ARC
  5
1F5
  8
0
  6
AIGENLINE001
 62
     7
 10
58.559404000000001
 20
103.874774
 30
0.0
 40
1.8181729999999989
 50
92.106315000000023
 51
177.89365599999999
  0
ARC
  5
1F6
  8
0
  6
AIGENLINE001
 62
     7
 10
58.492579000000013
 20
103.9415989999999
 30
0.0
 40
1.7501189999999991
 50
179.99996999999991
 51
270.00002000000001
  0
ARC
  5
1F7
  8
0
  6
AIGENLINE001
 62
     7
 10
58.492406000000003
 20
103.9414269999999
 30
0.0
 40
1.7499480000000001
 50
270.00565999999998
 51
0.00563
  0
ARC
  5
1F8
  8
0
 62
     7
 10
58.492750999999991
 20
93.918203000000005
 30
0.0
 40
1.7496029999999989
 50
0.005651
 51
90.005621000000005
  0
ARC
  5
1F9
  8
0
 62
     7
 10
58.492235000000001
 20
93.918030000000016
 30
0.0
 40
1.7497750000000001
 50
89.988718999999989
 51
179.98868899999991
  0
ARC
  5
1FA
  8
0
 62
     7
 10
58.492579000000013
 20
93.918374999999983
 30
0.0
 40
1.7501189999999991
 50
179.99996999999991
 51
270.00002000000001
  0
ARC
  5
1FB
  8
0
 62
     7
 10
58.492406000000003
 20
93.918203000000005
 30
0.0
 40
1.7499480000000001
 50
270.00565999999998
 51
0.00563
  0
ARC
  5
1FC
  8
0
  6
AIGENLINE001
 62
     7
 10
58.492406000000003
 20
83.894633999999996
 30
0.0
 40
1.7499480000000001
 50
359.99437
 51
89.994339999999994
  0
ARC
  5
1FD
  8
0
  6
AIGENLINE001
 62
     7
 10
58.492579000000013
 20
83.894462000000004
 30
0.0
 40
1.7501199999999999
 50
90.0
 51
179.99996999999991
  0
ARC
  5
1FE
  8
0
  6
AIGENLINE001
 62
     7
 10
58.492233999999989
 20
83.894806000000003
 30
0.0
 40
1.7497750000000001
 50
180.011291
 51
270.01130099999989
  0
ARC
  5
1FF
  8
0
  6
AIGENLINE001
 62
     7
 10
58.492750999999991
 20
83.894634999999994
 30
0.0
 40
1.7496029999999989
 50
269.99437899999992
 51
359.994349
  0
LINE
  5
200
  8
0
 62
     7
 10
109.8689999999999
 20
222.0749999999999
 30
0.0
 11
98.942599999999999
 21
222.0749999999999
 31
0.0
  0
LINE
  5
201
  8
0
 62
     7
 10
109.8689999999999
 20
162.0749999999999
 30
0.0
 11
98.942599999999999
 21
162.0749999999999
 31
0.0
  0
LINE
  5
202
  8
0
 62
     7
 10
108.583
 20
164.28499999999991
 30
0.0
 11
109.176
 21
162.0739999999999
 31
0.0
  0
LINE
  5
203
  8
0
 62
     7
 10
109.176
 20
162.0739999999999
 30
0.0
 11
109.7679999999999
 21
164.28499999999991
 31
0.0
  0
LINE
  5
204
  8
0
 62
     7
 10
109.7679999999999
 20
164.28499999999991
 30
0.0
 11
108.583
 21
164.28499999999991
 31
0.0
  0
LINE
  5
205
  8
0
 62
     7
 10
109.75399999999991
 20
219.864
 30
0.0
 11
109.1609999999999
 21
222.07599999999991
 31
0.0
  0
LINE
  5
206
  8
0
 62
     7
 10
109.1609999999999
 20
222.07599999999991
 30
0.0
 11
108.569
 21
219.864
 31
0.0
  0
LINE
  5
207
  8
0
 62
     7
 10
108.569
 20
219.864
 30
0.0
 11
109.75399999999991
 21
219.864
 31
0.0
  0
LINE
  5
208
  8
0
 62
     7
 10
109.169
 20
162.0749999999999
 30
0.0
 11
109.169
 21
222.0749999999999
 31
0.0
  0
LINE
  5
209
  8
0
 62
     7
 10
39.189399999999999
 20
164.28499999999991
 30
0.0
 11
39.781999999999989
 21
162.0739999999999
 31
0.0
  0
LINE
  5
20A
  8
0
 62
     7
 10
39.781999999999989
 20
162.0739999999999
 30
0.0
 11
40.374499999999991
 21
164.28499999999991
 31
0.0
  0
LINE
  5
20B
  8
0
 62
     7
 10
40.374499999999991
 20
164.28499999999991
 30
0.0
 11
39.189399999999999
 21
164.28499999999991
 31
0.0
  0
LINE
  5
20C
  8
0
 62
     7
 10
51.518099999999997
 20
163.51300000000001
 30
0.0
 11
49.5351
 21
162.36799999999999
 31
0.0
  0
LINE
  5
20D
  8
0
 62
     7
 10
49.5351
 20
162.36799999999999
 30
0.0
 11
50.679900000000004
 21
164.351
 31
0.0
  0
LINE
  5
20E
  8
0
 62
     7
 10
50.679900000000004
 20
164.351
 30
0.0
 11
51.518099999999997
 21
163.51300000000001
 31
0.0
  0
LINE
  5
20F
  8
0
 62
     7
 10
55.5854
 20
168.40700000000001
 30
0.0
 11
49.540999999999997
 21
162.363
 31
0.0
  0
LINE
  5
210
  8
0
 62
     7
 10
55.5854
 20
168.40700000000001
 30
0.0
 11
61.811100000000003
 21
168.40700000000001
 31
0.0
  0
LINE
  5
211
  8
0
 62
     7
 10
66.529300000000006
 20
188.46000000000001
 30
0.0
 11
68.5124
 21
189.6049999999999
 31
0.0
  0
LINE
  5
212
  8
0
 62
     7
 10
68.5124
 20
189.6049999999999
 30
0.0
 11
67.367500000000007
 21
187.62200000000001
 31
0.0
  0
LINE
  5
213
  8
0
 62
     7
 10
67.367500000000007
 20
187.62200000000001
 30
0.0
 11
66.529300000000006
 21
188.46000000000001
 31
0.0
  0
LINE
  5
214
  8
0
 62
     7
 10
62.461999999999989
 20
183.565
 30
0.0
 11
68.506500000000003
 21
189.60900000000001
 31
0.0
  0
LINE
  5
215
  8
0
 62
     7
 10
62.461999999999989
 20
183.565
 30
0.0
 11
53.0441
 21
183.565
 31
0.0
  0
LINE
  5
216
  8
0
 62
     7
 10
40.360100000000003
 20
219.864
 30
0.0
 11
39.767499999999998
 21
222.07599999999991
 31
0.0
  0
LINE
  5
217
  8
0
 62
     7
 10
39.767499999999998
 20
222.07599999999991
 30
0.0
 11
39.174900000000001
 21
219.864
 31
0.0
  0
LINE
  5
218
  8
0
 62
     7
 10
39.174900000000001
 20
219.864
 30
0.0
 11
40.360100000000003
 21
219.864
 31
0.0
  0
LINE
  5
219
  8
0
 62
     7
 10
39.774700000000003
 20
162.0749999999999
 30
0.0
 11
39.774700000000003
 21
222.0749999999999
 31
0.0
  0
LINE
  5
21A
  8
0
 62
     7
 10
39.074699999999993
 20
162.0749999999999
 30
0.0
 11
48.542200000000001
 21
162.0749999999999
 31
0.0
  0
LINE
  5
21B
  8
0
 62
     7
 10
39.074699999999993
 20
192.0749999999999
 30
0.0
 11
45.567399999999999
 21
192.0749999999999
 31
0.0
  0
LINE
  5
21C
  8
0
 62
     7
 10
39.074699999999993
 20
222.0749999999999
 30
0.0
 11
48.542200000000001
 21
222.0749999999999
 31
0.0
  0
LINE
  5
21D
  8
0
 62
     7
 10
73.742199999999997
 20
230.83799999999999
 30
0.0
 11
73.742199999999997
 21
225.52199999999999
 31
0.0
  0
LINE
  5
21E
  8
0
 62
     7
 10
70.992199999999997
 20
202.50599999999989
 30
0.0
 11
70.992199999999997
 21
197.93199999999999
 31
0.0
  0
LINE
  5
21F
  8
0
 62
     7
 10
75.953999999999994
 20
202.39899999999989
 30
0.0
 11
73.742199999999997
 21
201.8059999999999
 31
0.0
  0
LINE
  5
220
  8
0
 62
     7
 10
73.742199999999997
 20
201.8059999999999
 30
0.0
 11
75.953999999999994
 21
201.214
 31
0.0
  0
LINE
  5
221
  8
0
 62
     7
 10
75.953999999999994
 20
201.214
 30
0.0
 11
75.953999999999994
 21
202.39899999999989
 31
0.0
  0
LINE
  5
222
  8
0
 62
     7
 10
68.7804
 20
201.214
 30
0.0
 11
70.992199999999997
 21
201.8059999999999
 31
0.0
  0
LINE
  5
223
  8
0
 62
     7
 10
70.992199999999997
 20
201.8059999999999
 30
0.0
 11
68.7804
 21
202.39899999999989
 31
0.0
  0
LINE
  5
224
  8
0
 62
     7
 10
68.7804
 20
202.39899999999989
 30
0.0
 11
68.7804
 21
201.214
 31
0.0
  0
LINE
  5
225
  8
0
 62
     7
 10
67.138300000000001
 20
201.8059999999999
 30
0.0
 11
82.008099999999999
 21
201.8059999999999
 31
0.0
  0
LINE
  5
226
  8
0
 62
     7
 10
98.242500000000007
 20
237.8479999999999
 30
0.0
 11
98.242500000000007
 21
222.77499999999989
 31
0.0
  0
LINE
  5
227
  8
0
 62
     7
 10
49.2423
 20
237.8479999999999
 30
0.0
 11
49.2423
 21
222.77499999999989
 31
0.0
  0
LINE
  5
228
  8
0
 62
     7
 10
51.453000000000003
 20
237.73400000000001
 30
0.0
 11
49.241199999999999
 21
237.14099999999999
 31
0.0
  0
LINE
  5
229
  8
0
 62
     7
 10
49.241199999999999
 20
237.14099999999999
 30
0.0
 11
51.453000000000003
 21
236.548
 31
0.0
  0
LINE
  5
22A
  8
0
 62
     7
 10
51.453000000000003
 20
236.548
 30
0.0
 11
51.453000000000003
 21
237.73400000000001
 31
0.0
  0
LINE
  5
22B
  8
0
 62
     7
 10
96.0321
 20
236.5629999999999
 30
0.0
 11
98.243900000000011
 21
237.15599999999989
 31
0.0
  0
LINE
  5
22C
  8
0
 62
     7
 10
98.243900000000011
 20
237.15599999999989
 30
0.0
 11
96.0321
 21
237.74799999999991
 31
0.0
  0
LINE
  5
22D
  8
0
 62
     7
 10
96.0321
 20
237.74799999999991
 30
0.0
 11
96.0321
 21
236.5629999999999
 31
0.0
  0
LINE
  5
22E
  8
0
 62
     7
 10
49.2423
 20
237.148
 30
0.0
 11
98.242500000000007
 21
237.148
 31
0.0
  0
LINE
  5
22F
  8
0
 62
     7
 10
51.453000000000003
 20
230.72300000000001
 30
0.0
 11
49.241199999999999
 21
230.12999999999991
 31
0.0
  0
LINE
  5
230
  8
0
 62
     7
 10
49.241199999999999
 20
230.12999999999991
 30
0.0
 11
51.453000000000003
 21
229.5379999999999
 31
0.0
  0
LINE
  5
231
  8
0
 62
     7
 10
51.453000000000003
 20
229.5379999999999
 30
0.0
 11
51.453000000000003
 21
230.72300000000001
 31
0.0
  0
LINE
  5
232
  8
0
 62
     7
 10
96.0321
 20
229.55199999999999
 30
0.0
 11
98.243900000000011
 21
230.1449999999999
 31
0.0
  0
LINE
  5
233
  8
0
 62
     7
 10
98.243900000000011
 20
230.1449999999999
 30
0.0
 11
96.0321
 21
230.738
 31
0.0
  0
LINE
  5
234
  8
0
 62
     7
 10
96.0321
 20
230.738
 30
0.0
 11
96.0321
 21
229.55199999999999
 31
0.0
  0
LINE
  5
235
  8
0
 62
     7
 10
49.2423
 20
230.13799999999989
 30
0.0
 11
98.242500000000007
 21
230.13799999999989
 31
0.0
  0
LINE
  5
236
  8
0
  6
AIGENLINE002
 62
     7
 10
73.742199999999997
 20
60.13519999999999
 30
0.0
 11
73.742199999999997
 21
128.32099999999991
 31
0.0
  0
LINE
  5
237
  8
0
  6
AIGENLINE002
 62
     7
 10
73.742199999999997
 20
159.21000000000001
 30
0.0
 11
73.742199999999997
 21
224.82199999999989
 31
0.0
  0
LINE
  5
238
  8
0
  6
AIGENLINE002
 62
     7
 10
46.267400000000002
 20
192.0749999999999
 30
0.0
 11
100.971
 21
192.0749999999999
 31
0.0
  0
LINE
  5
239
  8
0
 62
     7
 10
50.24219999999999
 20
162.0749999999999
 30
0.0
 11
97.24260000000001
 21
162.0749999999999
 31
0.0
  0
LINE
  5
23A
  8
0
 62
     7
 10
50.24219999999999
 20
222.0749999999999
 30
0.0
 11
97.24260000000001
 21
222.0749999999999
 31
0.0
  0
LINE
  5
23B
  8
0
 62
     7
 10
98.242500000000007
 20
163.0749999999999
 30
0.0
 11
98.242500000000007
 21
221.0749999999999
 31
0.0
  0
LINE
  5
23C
  8
0
 62
     7
 10
49.2423
 20
163.0749999999999
 30
0.0
 11
49.2423
 21
221.0749999999999
 31
0.0
  0
LINE
  5
23D
  8
0
 62
     7
 10
71.585700000000003
 20
101.235
 30
0.0
 11
65.808999999999983
 21
101.235
 31
0.0
  0
LINE
  5
23E
  8
0
 62
     7
 10
81.362300000000005
 20
98.511099999999999
 30
0.0
 11
75.585499999999996
 21
98.511099999999999
 31
0.0
  0
TEXT
  5
23F
  8
_________2
 62
     7
 10
90.092336166666669
 20
13.218199999999991
 30
0.0
 40
3.6545800000000002
  1
1 ： 10
 41
0.5
 72
     1
 11
93.960099999999997
 21
13.218199999999991
 31
0.0
  0
LINE
  5
240
  8
_________2
 62
     7
 10
205.30099999999999
 20
127.41200000000001
 30
0.0
 11
183.55000000000001
 21
127.41200000000001
 31
0.0
  0
LINE
  5
241
  8
_________2
 62
     7
 10
100.2999999999999
 20
-4.0903900000000002
 30
0.0
 11
100.2999999999999
 21
-21.070699999999992
 31
0.0
  0
LINE
  5
242
  8
_________2
 62
     7
 10
100.2999999999999
 20
275.93099999999993
 30
0.0
 11
100.2999999999999
 21
258.911
 31
0.0
  0
LINE
  5
243
  8
_________2
 62
     7
 10
17.049499999999998
 20
127.41200000000001
 30
0.0
 11
-4.70052
 21
127.41200000000001
 31
0.0
  0
LINE
  5
244
  8
_________2
 62
     7
 10
76.741399999999999
 20
29.805099999999999
 30
0.0
 11
74.554699999999997
 21
29.805099999999999
 31
0.0
  0
LINE
  5
245
  8
_________2
 62
     7
 10
77.233999999999995
 20
29.805099999999999
 30
0.0
 11
76.981800000000007
 21
29.805099999999999
 31
0.0
  0
LINE
  5
246
  8
_________2
 62
     7
 10
77.726299999999995
 20
29.805099999999999
 30
0.0
 11
80.651600000000002
 21
29.805099999999999
 31
0.0
  0
LINE
  5
247
  8
_________2
 62
     7
 10
77.233999999999995
 20
29.805099999999999
 30
0.0
 11
77.485900000000001
 21
29.805099999999999
 31
0.0
  0
LINE
  5
248
  8
_________2
 62
     7
 10
70.837500000000006
 20
29.805099999999999
 30
0.0
 11
68.650499999999994
 21
29.805099999999999
 31
0.0
  0
LINE
  5
249
  8
_________2
 62
     7
 10
71.329800000000006
 20
29.805099999999999
 30
0.0
 11
71.0779
 21
29.805099999999999
 31
0.0
  0
LINE
  5
24A
  8
_________2
 62
     7
 10
71.329800000000006
 20
30.2974
 30
0.0
 11
71.329800000000006
 21
32.484400000000001
 31
0.0
  0
LINE
  5
24B
  8
_________2
 62
     7
 10
71.329800000000006
 20
29.805099999999999
 30
0.0
 11
71.329800000000006
 21
30.057600000000001
 31
0.0
  0
LINE
  5
24C
  8
_________2
 62
     7
 10
71.822400000000002
 20
29.805099999999999
 30
0.0
 11
74.009
 21
29.805099999999999
 31
0.0
  0
LINE
  5
24D
  8
_________2
 62
     7
 10
71.329800000000006
 20
29.805099999999999
 30
0.0
 11
71.581999999999994
 21
29.805099999999999
 31
0.0
  0
LINE
  5
24E
  8
_________2
 62
     7
 10
71.329800000000006
 20
29.312799999999999
 30
0.0
 11
71.329800000000006
 21
27.126200000000001
 31
0.0
  0
LINE
  5
24F
  8
_________2
 62
     7
 10
71.329800000000006
 20
29.805099999999999
 30
0.0
 11
71.329800000000006
 21
29.5532
 31
0.0
  0
LINE
  5
250
  8
_________2
 62
     7
 10
75.040899999999993
 20
28.585899999999992
 30
0.0
 11
80.218500000000006
 21
27.720400000000001
 31
0.0
  0
LINE
  5
251
  8
_________2
 62
     7
 10
75.040899999999993
 20
31.024699999999999
 30
0.0
 11
80.218500000000006
 21
31.8901
 31
0.0
  0
LINE
  5
252
  8
_________2
 62
     7
 10
80.218500000000006
 20
27.720400000000001
 30
0.0
 11
80.218500000000006
 21
31.8901
 31
0.0
  0
LINE
  5
253
  8
_________2
 62
     7
 10
75.040899999999993
 20
28.585899999999992
 30
0.0
 11
75.040899999999993
 21
31.024699999999999
 31
0.0
  0
ARC
  5
254
  8
_________2
 62
     7
 10
71.283201000000005
 20
29.758156
 30
0.0
 40
1.2673589999999999
 50
2.122214
 51
87.893958999999995
  0
ARC
  5
255
  8
_________2
 62
     7
 10
71.376300000000001
 20
29.758562000000001
 30
0.0
 40
1.2669509999999991
 50
92.104485999999994
 51
177.89548500000001
  0
ARC
  5
256
  8
_________2
 62
     7
 10
71.376343999999989
 20
29.852014
 30
0.0
 40
1.2670099999999991
 50
182.1225849999999
 51
267.89363300000002
  0
ARC
  5
257
  8
_________2
 62
     7
 10
71.282900999999995
 20
29.852677
 30
0.0
 40
1.267684
 50
272.11907200000002
 51
357.848567
  0
ARC
  5
258
  8
_________2
 62
     7
 10
71.249426999999997
 20
29.725096999999991
 30
0.0
 40
2.1664659999999989
 50
2.1159629999999998
 51
87.874558999999991
  0
ARC
  5
259
  8
_________2
 62
     7
 10
71.409410999999992
 20
29.725809000000002
 30
0.0
 40
2.1657280000000001
 50
92.107296999999988
 51
177.902142
  0
ARC
  5
25A
  8
_________2
 62
     7
 10
71.409789000000004
 20
29.885100999999999
 30
0.0
 40
2.1661329999999999
 50
182.116929
 51
267.88310000000001
  0
ARC
  5
25B
  8
_________2
 62
     7
 10
71.249769999999998
 20
29.88509199999999
 30
0.0
 40
2.1661229999999989
 50
272.11667999999992
 51
357.88332999999989
  0
TEXT
  5
25C
  8
_________2
 62
     7
 10
104.605
 20
1.6794899999999999
 30
0.0
 40
3.0923400000000001
  1
図番
 41
0.5
  0
LINE
  5
25D
  8
_________2
 62
     7
 10
103.55
 20
5.9087199999999989
 30
0.0
 11
183.55099999999999
 21
5.9087199999999989
 31
0.0
  0
TEXT
  5
25E
  8
_________2
 62
     7
 10
104.605
 20
11.679600000000001
 30
0.0
 40
3.0923400000000001
  1
品番
 41
0.5
  0
TEXT
  5
25F
  8
_________2
 62
     7
 10
104.605
 20
31.8184
 30
0.0
 40
3.0923400000000001
  1
名称
 41
0.5
  0
TEXT
  5
260
  8
_________2
 62
     7
 10
91.84545833333334
 20
26.822299999999998
 30
0.0
 40
3.6545800000000002
  1
mm
 41
0.5
 72
     1
 11
93.368200000000016
 21
26.822299999999998
 31
0.0
  0
TEXT
  5
261
  8
_________2
 62
     7
 10
85.643199999999993
 20
31.8184
 30
0.0
 40
3.0923400000000001
  1
単位
 41
0.5
  0
TEXT
  5
262
  8
_________2
 62
     7
 10
85.643199999999993
 20
19.411200000000001
 30
0.0
 40
3.0923400000000001
  1
尺度
 41
0.5
  0
TEXT
  5
263
  8
_________2
 62
     7
 10
136.17056249999999
 20
9.1082000000000001
 30
0.0
 40
3.9357000000000002
  1
VB710263
 41
0.5
 72
     1
 11
143.55000000000001
 21
9.1082000000000001
 31
0.0
  0
TEXT
  5
264
  8
_________2
 62
     7
 10
136.17056249999999
 20
-0.8919409999999999
 30
0.0
 40
3.9357000000000002
  1
VB710263
 41
0.5
 72
     1
 11
143.55000000000001
 21
-0.8919409999999999
 31
0.0
  0
TEXT
  5
265
  8
_________2
 62
     7
 10
24.587099999999989
 20
0.707627
 30
0.0
 40
3.9357000000000002
  1
実容量：8.6L、重量21.0kg、オーバーフロー付
 41
0.5
  0
TEXT
  5
266
  8
_________2
 62
     7
 10
109.179
 20
24.226400000000002
 30
0.0
 40
3.9357000000000002
  1
オマージュ 洗面器
 41
0.5
  0
TEXT
  5
267
  8
_________2
 62
     7
 10
39.425300333333333
 20
13.603400000000001
 30
0.0
 40
3.6545800000000002
  1
早川
 41
0.5
 72
     1
 11
41.313499999999998
 21
13.603400000000001
 31
0.0
  0
TEXT
  5
268
  8
_________2
 62
     7
 10
20.79039066666666
 20
13.603400000000001
 30
0.0
 40
3.6545800000000002
  1
麻生
 41
0.5
 72
     1
 11
22.7395
 21
13.603400000000001
 31
0.0
  0
TEXT
  5
269
  8
_________2
 62
     7
 10
67.785799999999995
 20
13.218199999999991
 30
0.0
 40
3.6545800000000002
  1
13.10.01
 41
0.5
  0
TEXT
  5
26A
  8
_________2
 62
     7
 10
66.593100000000007
 20
19.411200000000001
 30
0.0
 40
3.0923400000000001
  1
日付
 41
0.5
  0
TEXT
  5
26B
  8
_________2
 62
     7
 10
29.639399999999998
 20
19.411200000000001
 30
0.0
 40
3.0923400000000001
  1
検図
 41
0.5
  0
TEXT
  5
26C
  8
_________2
 62
     7
 10
18.021399999999989
 20
5.2117699999999987
 30
0.0
 40
3.0923400000000001
  1
備考
 41
0.5
  0
TEXT
  5
26D
  8
_________2
 62
     7
 10
18.021399999999989
 20
19.411200000000001
 30
0.0
 40
3.0923400000000001
  1
製図
 41
0.5
  0
TEXT
  5
26E
  8
_________2
 62
     7
 10
23.78886533333333
 20
27.936800000000002
 30
0.0
 40
4.4979399999999989
  1
セラトレーディング株式会社
 41
0.5
 72
     1
 11
41.180900000000001
 21
27.936800000000002
 31
0.0
  0
LINE
  5
26F
  8
_________2
 62
     7
 10
183.55099999999999
 20
-4.0910799999999998
 30
0.0
 11
17.049499999999998
 21
-4.0910799999999998
 31
0.0
  0
LINE
  5
270
  8
_________2
 62
     7
 10
17.049499999999998
 20
-4.0910799999999998
 30
0.0
 11
17.049499999999998
 21
258.911
 31
0.0
  0
LINE
  5
271
  8
_________2
 62
     7
 10
17.049499999999998
 20
258.911
 30
0.0
 11
183.55099999999999
 21
258.911
 31
0.0
  0
LINE
  5
272
  8
_________2
 62
     7
 10
183.55099999999999
 20
258.911
 30
0.0
 11
183.55099999999999
 21
-4.0910799999999998
 31
0.0
  0
LINE
  5
273
  8
_________2
 62
     7
 10
65.549899999999994
 20
9.4096499999999992
 30
0.0
 11
65.549899999999994
 21
35.909500000000001
 31
0.0
  0
LINE
  5
274
  8
_________2
 62
     7
 10
84.550099999999986
 20
9.4096499999999992
 30
0.0
 11
84.550099999999986
 21
35.909500000000001
 31
0.0
  0
LINE
  5
275
  8
_________2
 62
     7
 10
103.55
 20
-4.0910799999999998
 30
0.0
 11
103.55
 21
35.909500000000001
 31
0.0
  0
LINE
  5
276
  8
_________2
 62
     7
 10
28.549700000000001
 20
9.4096499999999992
 30
0.0
 11
28.549700000000001
 21
23.409199999999998
 31
0.0
  0
LINE
  5
277
  8
_________2
 62
     7
 10
17.049499999999998
 20
9.4096499999999992
 30
0.0
 11
103.55
 21
9.4096499999999992
 31
0.0
  0
LINE
  5
278
  8
_________2
 62
     7
 10
17.049499999999998
 20
23.409199999999998
 30
0.0
 11
103.55
 21
23.409199999999998
 31
0.0
  0
LINE
  5
279
  8
_________2
 62
     7
 10
103.55
 20
15.9092
 30
0.0
 11
183.55099999999999
 21
15.9092
 31
0.0
  0
LINE
  5
27A
  8
_________2
 62
     7
 10
17.049499999999998
 20
35.909500000000001
 30
0.0
 11
183.55099999999999
 21
35.909500000000001
 31
0.0
  0
ENDSEC
  0
EOF
