  0
SECTION
  2
HEADER
  9
$ACADVER
  1
AC1009
  9
$INSBASE
 10
0.0
 20
0.0
 30
0.0
  9
$EXTMIN
 10
0.238402
 20
0.4485540000000001
 30
0.0
  9
$EXTMAX
 10
210.24000000000001
 20
297.45099999999991
 30
0.0
  9
$LIMMIN
 10
0.0
 20
0.0
  9
$LIMMAX
 10
12.0
 20
9.0
  9
$ORTHOMODE
 70
     0
  9
$REGENMODE
 70
     1
  9
$FILLMODE
 70
     1
  9
$QTEXTMODE
 70
     0
  9
$MIRRTEXT
 70
     1
  9
$DRAGMODE
 70
     2
  9
$LTSCALE
 40
1.0
  9
$OSMODE
 70
    37
  9
$ATTMODE
 70
     1
  9
$TEXTSIZE
 40
0.0
  9
$TRACEWID
 40
0.05
  9
$TEXTSTYLE
  7
STANDARD
  9
$CLAYER
  8
0
  9
$CELTYPE
  6
CONTINUOUS
  9
$CECOLOR
 62
   256
  9
$DIMSCALE
 40
1.0
  9
$DIMASZ
 40
0.18
  9
$DIMEXO
 40
0.0625
  9
$DIMDLI
 40
0.38
  9
$DIMRND
 40
0.0
  9
$DIMDLE
 40
0.0
  9
$DIMEXE
 40
0.18
  9
$DIMTP
 40
0.0
  9
$DIMTM
 40
0.0
  9
$DIMTXT
 40
0.18
  9
$DIMCEN
 40
0.09
  9
$DIMTSZ
 40
0.0
  9
$DIMTOL
 70
     0
  9
$DIMLIM
 70
     0
  9
$DIMTIH
 70
     1
  9
$DIMTOH
 70
     1
  9
$DIMSE1
 70
     0
  9
$DIMSE2
 70
     0
  9
$DIMTAD
 70
     0
  9
$DIMZIN
 70
     0
  9
$DIMBLK
  1

  9
$DIMASO
 70
     1
  9
$DIMSHO
 70
     1
  9
$DIMPOST
  1

  9
$DIMAPOST
  1

  9
$DIMALT
 70
     0
  9
$DIMALTD
 70
     2
  9
$DIMALTF
 40
25.399999999999999
  9
$DIMLFAC
 40
1.0
  9
$DIMTOFL
 70
     0
  9
$DIMTVP
 40
0.0
  9
$DIMTIX
 70
     0
  9
$DIMSOXD
 70
     0
  9
$DIMSAH
 70
     0
  9
$DIMBLK1
  1

  9
$DIMBLK2
  1

  9
$DIMSTYLE
  2
STANDARD
  9
$DIMCLRD
 70
     0
  9
$DIMCLRE
 70
     0
  9
$DIMCLRT
 70
     0
  9
$DIMTFAC
 40
1.0
  9
$DIMGAP
 40
0.09
  9
$LUNITS
 70
     2
  9
$LUPREC
 70
     4
  9
$SKETCHINC
 40
0.1
  9
$FILLETRAD
 40
0.0
  9
$AUNITS
 70
     0
  9
$AUPREC
 70
     0
  9
$MENU
  1
.
  9
$ELEVATION
 40
0.0
  9
$PELEVATION
 40
0.0
  9
$THICKNESS
 40
0.0
  9
$LIMCHECK
 70
     0
  9
$BLIPMODE
 70
     0
  9
$CHAMFERA
 40
0.0
  9
$CHAMFERB
 40
0.0
  9
$SKPOLY
 70
     0
  9
$TDCREATE
 40
2444972.375
  9
$TDUPDATE
 40
2456787.2486083671
  9
$TDINDWG
 40
0.0000082176
  9
$TDUSRTIMER
 40
0.0000082176
  9
$USRTIMER
 70
     1
  9
$ANGBASE
 50
0.0
  9
$ANGDIR
 70
     0
  9
$PDMODE
 70
     0
  9
$PDSIZE
 40
0.0
  9
$PLINEWID
 40
0.0
  9
$COORDS
 70
     1
  9
$SPLFRAME
 70
     0
  9
$SPLINETYPE
 70
     6
  9
$SPLINESEGS
 70
     8
  9
$ATTDIA
 70
     0
  9
$ATTREQ
 70
     1
  9
$HANDLING
 70
     1
  9
$HANDSEED
  5
228
  9
$SURFTAB1
 70
     6
  9
$SURFTAB2
 70
     6
  9
$SURFTYPE
 70
     6
  9
$SURFU
 70
     6
  9
$SURFV
 70
     6
  9
$UCSNAME
  2

  9
$UCSORG
 10
0.0
 20
0.0
 30
0.0
  9
$UCSXDIR
 10
1.0
 20
0.0
 30
0.0
  9
$UCSYDIR
 10
0.0
 20
1.0
 30
0.0
  9
$PUCSNAME
  2

  9
$PUCSORG
 10
0.0
 20
0.0
 30
0.0
  9
$PUCSXDIR
 10
1.0
 20
0.0
 30
0.0
  9
$PUCSYDIR
 10
0.0
 20
1.0
 30
0.0
  9
$USERI1
 70
     0
  9
$USERI2
 70
     0
  9
$USERI3
 70
     0
  9
$USERI4
 70
     0
  9
$USERI5
 70
     0
  9
$USERR1
 40
0.0
  9
$USERR2
 40
0.0
  9
$USERR3
 40
0.0
  9
$USERR4
 40
0.0
  9
$USERR5
 40
0.0
  9
$WORLDVIEW
 70
     1
  9
$SHADEDGE
 70
     3
  9
$SHADEDIF
 70
    70
  9
$TILEMODE
 70
     1
  9
$MAXACTVP
 70
    48
  9
$PLIMCHECK
 70
     0
  9
$PEXTMIN
 10
1.0000000000000000E+020
 20
1.0000000000000000E+020
 30
1.0000000000000000E+020
  9
$PEXTMAX
 10
-1.0000000000000000E+020
 20
-1.0000000000000000E+020
 30
-1.0000000000000000E+020
  9
$PLIMMIN
 10
0.0
 20
0.0
  9
$PLIMMAX
 10
12.0
 20
9.0
  9
$UNITMODE
 70
     0
  9
$VISRETAIN
 70
     1
  9
$PLINEGEN
 70
     0
  9
$PSLTSCALE
 70
     1
  0
ENDSEC
  0
SECTION
  2
TABLES
  0
TABLE
  2
VPORT
 70
     2
  0
VPORT
  2
*ACTIVE
 70
     0
 10
0.0
 20
0.0
 11
1.0
 21
1.0
 12
206.98016390466589
 22
148.7254999999999
 13
0.0
 23
0.0
 14
1.0
 24
1.0
 15
0.0
 25
0.0
 16
0.0
 26
0.0
 36
1.0
 17
0.0
 27
0.0
 37
0.0
 40
299.90589133425021
 41
2.2894736842105261
 42
50.0
 43
0.0
 44
0.0
 50
0.0
 51
0.0
 71
     0
 72
   100
 73
     1
 74
     1
 75
     0
 76
     0
 77
     0
 78
     0
  0
ENDTAB
  0
TABLE
  2
LTYPE
 70
     4
  0
LTYPE
  2
CONTINUOUS
 70
     0
  3
Solid line
 72
    65
 73
     0
 40
0.0
  0
LTYPE
  2
AIGENLINE001
 70
     0
  3
generate AI->DXF Converter
 72
    65
 73
     2
 40
1.5522299999999991
 49
0.776115
 49
-0.776115
  0
LTYPE
  2
AIGENLINE002
 70
     0
  3
generate AI->DXF Converter
 72
    65
 73
     0
 40
0.0
  0
LTYPE
  2
AIGENLINE003
 70
     0
  3
generate AI->DXF Converter
 72
    65
 73
     4
 40
5.8561449999999988
 49
3.5278
 49
-0.776115
 49
0.776115
 49
-0.776115
  0
ENDTAB
  0
TABLE
  2
LAYER
 70
     2
  0
LAYER
  2
0
 70
     0
 62
     7
  6
CONTINUOUS
  0
LAYER
  2
_________2
 70
     0
 62
     7
  6
CONTINUOUS
  0
ENDTAB
  0
TABLE
  2
STYLE
 70
     1
  0
STYLE
  2
STANDARD
 70
     0
 40
0.0
 41
0.0
 50
0.0
 71
     0
 42
0.0
  3
TXT
  4
EXTFONT.SHX
  0
ENDTAB
  0
TABLE
  2
VIEW
 70
     0
  0
ENDTAB
  0
TABLE
  2
UCS
 70
     0
  0
ENDTAB
  0
TABLE
  2
APPID
 70
     1
  0
APPID
  2
ACAD
 70
     0
  0
ENDTAB
  0
TABLE
  2
DIMSTYLE
 70
     1
  0
DIMSTYLE
  2
STANDARD
 70
     0
  3

  4

  5

  6

  7

 40
1.0
 41
0.18
 42
0.0625
 43
0.38
 44
0.18
 45
0.0
 46
0.0
 47
0.0
 48
0.0
140
0.18
141
0.09
142
0.0
143
25.399999999999999
144
1.0
145
0.0
146
1.0
147
0.09
 71
     0
 72
     0
 73
     1
 74
     1
 75
     0
 76
     0
 77
     0
 78
     0
170
     0
171
     2
172
     0
173
     0
174
     0
175
     0
176
     0
177
     0
178
     0
  0
ENDTAB
  0
ENDSEC
  0
SECTION
  2
BLOCKS
  0
BLOCK
  8
0
  2
$MODEL_SPACE
 70
     0
 10
0.0
 20
0.0
 30
0.0
  3
$MODEL_SPACE
  1

  0
ENDBLK
  5
1A
  8
0
  0
BLOCK
 67
     1
  8
0
  2
$PAPER_SPACE
 70
     0
 10
0.0
 20
0.0
 30
0.0
  3
$PAPER_SPACE
  1

  0
ENDBLK
  5
17
 67
     1
  8
0
  0
ENDSEC
  0
SECTION
  2
ENTITIES
  0
TEXT
  5
24
  8
0
 62
     7
 10
29.700199999999992
 20
67.051299999999998
 30
0.0
 40
4.9911399999999997
  1
※排水栓を閉めた状態で毎分10L以上吐水させないでください。
 41
0.5
  0
TEXT
  5
25
  8
0
 62
     7
 10
29.700199999999992
 20
60.812399999999997
 30
0.0
 40
4.9911399999999997
  1
※壁取付部には厚さ30mm以上の補強材を入れてください。
 41
0.5
  0
TEXT
  5
26
  8
0
 62
     7
 10
78.931173333333334
 20
203.4559999999999
 30
0.0
 40
3.660169999999999
  1
%%c46
 41
0.5
 72
     2
 11
83.811400000000006
 21
203.4559999999999
 31
0.0
  0
TEXT
  5
27
  8
0
 62
     7
 10
52.791899999999991
 20
235.95699999999999
 30
0.0
 40
3.660169999999999
  1
%%c35
 41
0.5
  0
TEXT
  5
28
  8
0
 62
     7
 10
68.352493749999994
 20
137.94799999999989
 30
0.0
 40
3.660169999999999
  1
280
 41
0.5
 72
     1
 11
70.640100000000004
 21
137.94799999999989
 31
0.0
  0
TEXT
  5
29
  8
0
 62
     7
 10
68.352493749999994
 20
168.08799999999991
 30
0.0
 40
3.660169999999999
  1
550
 41
0.5
 72
     1
 11
70.640100000000004
 21
168.08799999999991
 31
0.0
  0
TEXT
  5
2A
  8
0
 62
     7
 10
63.810114999999989
 20
240.71599999999989
 30
0.0
 40
3.660169999999999
  1
100
 41
0.5
 72
     1
 11
65.640199999999993
 21
240.71599999999989
 31
0.0
  0
TEXT
  5
2B
  8
0
 62
     7
 10
73.810214999999999
 20
240.71599999999989
 30
0.0
 40
3.660169999999999
  1
100
 41
0.5
 72
     1
 11
75.640299999999996
 21
240.71599999999989
 31
0.0
  0
TEXT
  5
2C
  8
0
 62
     7
 10
44.767736249999999
 20
176.00699999999989
 30
0.0
 40
3.660169999999999
  1
60
 41
0.5
 72
     1
 11
46.140300000000003
 21
176.00699999999989
 31
0.0
  0
TEXT
  5
2D
  8
0
 62
     7
 10
93.767636249999995
 20
176.00699999999989
 30
0.0
 40
3.660169999999999
  1
60
 41
0.5
 72
     1
 11
95.140199999999993
 21
176.00699999999989
 31
0.0
  0
TEXT
  5
2E
  8
0
 62
     7
 10
68.352493749999994
 20
175.93700000000001
 30
0.0
 40
3.660169999999999
  1
430
 41
0.5
 72
     1
 11
70.640100000000004
 21
175.93700000000001
 31
0.0
  0
TEXT
  5
2F
  8
0
 62
     7
 10
89.440100000000001
 20
218.50492916666661
 30
0.0
 40
3.660169999999999
  1
65
 50
90.0
 41
0.5
 72
     1
 11
89.440100000000001
 21
220.02999999999989
 31
0.0
  0
TEXT
  5
30
  8
0
 62
     7
 10
89.440100000000001
 20
225.00692916666659
 30
0.0
 40
3.660169999999999
  1
65
 50
90.0
 41
0.5
 72
     1
 11
89.440100000000001
 21
226.53200000000001
 31
0.0
  0
TEXT
  5
31
  8
0
 62
     7
 10
90.371600000000001
 20
133.56487250000001
 30
0.0
 40
3.660169999999999
  1
60
 50
90.0
 41
0.5
 72
     2
 11
90.371600000000001
 21
136.30999999999989
 31
0.0
  0
TEXT
  5
32
  8
0
 62
     7
 10
104.41
 20
125.1024362499999
 30
0.0
 40
3.660169999999999
  1
70
 50
90.0
 41
0.5
 72
     1
 11
104.41
 21
126.47499999999999
 31
0.0
  0
TEXT
  5
33
  8
0
 62
     7
 10
153.708
 20
123.64740791666659
 30
0.0
 40
3.660169999999999
  1
105
 50
90.0
 41
0.5
 72
     1
 11
153.708
 21
125.6299999999999
 31
0.0
  0
TEXT
  5
34
  8
0
 62
     7
 10
111.464
 20
120.5899008333333
 30
0.0
 40
3.660169999999999
  1
145
 50
90.0
 41
0.5
 72
     1
 11
111.464
 21
122.72499999999989
 31
0.0
  0
TEXT
  5
35
  8
0
 62
     7
 10
116.50700000000001
 20
205.49439375
 30
0.0
 40
3.660169999999999
  1
440
 50
90.0
 41
0.5
 72
     1
 11
116.50700000000001
 21
207.78200000000001
 31
0.0
  0
TEXT
  5
36
  8
0
 62
     7
 10
163.30190083333329
 20
106.126
 30
0.0
 40
3.660169999999999
  1
200
 41
0.5
 72
     1
 11
165.43700000000001
 21
106.126
 31
0.0
  0
TEXT
  5
37
  8
0
 62
     7
 10
35.243400000000001
 20
217.64690083333329
 30
0.0
 40
3.660169999999999
  1
200
 50
90.0
 41
0.5
 72
     1
 11
35.243400000000001
 21
219.78200000000001
 31
0.0
  0
TEXT
  5
38
  8
0
 62
     7
 10
107.96599999999999
 20
179.29699999999991
 30
0.0
 40
3.660169999999999
  1
30
 50
90.0
 41
0.5
  0
TEXT
  5
39
  8
0
 62
     7
 10
107.96599999999999
 20
221.29940791666661
 30
0.0
 40
3.660169999999999
  1
130
 50
90.0
 41
0.5
 72
     1
 11
107.96599999999999
 21
223.28200000000001
 31
0.0
  0
TEXT
  5
3A
  8
0
 62
     7
 10
107.96599999999999
 20
200.49339374999991
 30
0.0
 40
3.660169999999999
  1
280
 50
90.0
 41
0.5
 72
     1
 11
107.96599999999999
 21
202.78099999999989
 31
0.0
  0
ARC
  5
3B
  8
0
 62
     7
 10
93.310607000000005
 20
122.3687729999999
 30
0.0
 40
0.5921030000000001
 50
106.50458399999999
 51
173.27703099999999
  0
ARC
  5
3C
  8
0
 62
     7
 10
93.404081000000005
 20
122.1400459999999
 30
0.0
 40
0.8383229999999999
 50
94.718695000000025
 51
108.189065
  0
ARC
  5
3D
  8
0
 62
     7
 10
90.171821999999977
 20
116.486605
 30
0.0
 40
1.951341999999999
 50
276.20763599999998
 51
311.47749399999992
  0
ARC
  5
3E
  8
0
 62
     7
 10
90.277451999999997
 20
116.295585
 30
0.0
 40
1.7389110000000001
 50
313.03874500000001
 51
350.27418499999999
  0
ARC
  5
3F
  8
0
 62
     7
 10
89.857640000000004
 20
116.405953
 30
0.0
 40
2.1716639999999989
 50
349.27522199999999
 51
354.877994
  0
ARC
  5
40
  8
0
 62
     7
 10
84.553783999999979
 20
1091.855
 30
0.0
 40
976.32313599999998
 50
270.207671
 51
270.23880700000001
  0
ARC
  5
41
  8
0
 62
     7
 10
87.871155000000002
 20
165.55872099999999
 30
0.0
 40
50.021000999999991
 50
269.16498100000001
 51
270.25336099999993
  0
ARC
  5
42
  8
0
 62
     7
 10
88.083166000000006
 20
174.67182500000001
 30
0.0
 40
59.136279999999999
 50
268.16806899999989
 51
269.08826599999998
  0
ARC
  5
43
  8
0
 62
     7
 10
85.245373999999984
 20
86.034377000000006
 30
0.0
 40
29.546582999999998
 50
88.162653000000006
 51
90.084324999999993
  0
ARC
  5
44
  8
0
 62
     7
 10
85.197873000000001
 20
138.18398400000001
 30
0.0
 40
22.603055999999999
 50
267.39114699999999
 51
270.01017699999989
  0
ARC
  5
45
  8
0
 62
     7
 10
85.15437
 20
138.08960599999989
 30
0.0
 40
22.50682999999999
 50
264.86069399999991
 51
267.49084099999999
  0
ARC
  5
46
  8
0
 62
     7
 10
78.463082999999997
 20
62.94595300000001
 30
0.0
 40
52.934165999999998
 50
84.932993000000025
 51
85.631190999999987
  0
ARC
  5
47
  8
0
 62
     7
 10
82.553154000000006
 20
116.72484799999999
 30
0.0
 40
1.000205
 50
251.69917599999991
 51
266.68978799999991
  0
ARC
  5
48
  8
0
 62
     7
 10
82.562588000000005
 20
116.764707
 30
0.0
 40
1.0410159999999991
 50
237.557154
 51
251.89506
  0
ARC
  5
49
  8
0
 62
     7
 10
102.92978599999999
 20
148.74130299999999
 30
0.0
 40
38.953091000000001
 50
237.31662700000001
 51
237.50667799999991
  0
ARC
  5
4A
  8
0
 62
     7
 10
227.43784600000001
 20
342.83370200000002
 30
0.0
 40
269.54822699999988
 50
237.10287199999999
 51
237.319773
  0
LINE
  5
4B
  8
0
 62
     7
 10
81.037400000000005
 20
116.5079999999999
 30
0.0
 11
80.178899999999985
 21
117.06
 31
0.0
  0
ARC
  5
4C
  8
0
 62
     7
 10
113.121337
 20
154.30206000000001
 30
0.0
 40
49.720776000000001
 50
228.2580089999999
 51
228.50547399999999
  0
ARC
  5
4D
  8
0
 62
     7
 10
79.174334000000002
 20
116.2484649999999
 30
0.0
 40
1.2740910000000001
 50
48.512692000000001
 51
68.224855000000005
  0
ARC
  5
4E
  8
0
 62
     7
 10
79.143674000000004
 20
116.199108
 30
0.0
 40
1.331337999999999
 50
67.787482999999995
 51
86.603967999999995
  0
ARC
  5
4F
  8
0
 62
     7
 10
79.386483999999996
 20
121.0065629999999
 30
0.0
 40
3.482316
 50
264.58092299999993
 51
267.30155799999989
  0
ARC
  5
50
  8
0
 62
     7
 10
81.745194999999995
 20
148.11762599999989
 30
0.0
 40
30.695698
 50
263.43521900000002
 51
264.97701199999989
  0
ARC
  5
51
  8
0
 62
     7
 10
75.982923999999997
 20
97.154262000000017
 30
0.0
 40
20.59254399999999
 50
83.718958000000001
 51
88.044644000000005
  0
ARC
  5
52
  8
0
 62
     7
 10
75.972261000000003
 20
97.250271999999995
 30
0.0
 40
20.496959
 50
88.005697999999995
 51
92.349997999999999
  0
LINE
  5
53
  8
0
 62
     7
 10
75.131799999999998
 20
117.73
 30
0.0
 11
74.355999999999995
 21
117.69799999999989
 31
0.0
  0
LINE
  5
54
  8
0
 62
     7
 10
74.355999999999995
 20
117.69799999999989
 30
0.0
 11
72.497699999999995
 21
117.691
 31
0.0
  0
LINE
  5
55
  8
0
 62
     7
 10
72.497699999999995
 20
117.691
 30
0.0
 11
70.640100000000004
 21
117.6849999999999
 31
0.0
  0
ARC
  5
56
  8
0
 62
     7
 10
106.958799
 20
120.4275879999999
 30
0.0
 40
14.377489000000001
 50
171.96157999999991
 51
173.3083969999999
  0
ARC
  5
57
  8
0
 62
     7
 10
210.50259800000001
 20
107.590011
 30
0.0
 40
118.713796
 50
172.97793300000001
 51
173.5393399999999
  0
ARC
  5
58
  8
0
 62
     7
 10
390.03276799999998
 20
87.061524000000006
 30
0.0
 40
299.41378199999991
 50
173.50159099999991
 51
173.738552
  0
LINE
  5
59
  8
0
 62
     7
 10
92.405100000000004
 20
119.717
 30
0.0
 11
92.050899999999999
 21
116.4889999999999
 31
0.0
  0
ARC
  5
5A
  8
0
 62
     7
 10
239.88330999999999
 20
100.1682519999999
 30
0.0
 40
148.730548
 50
173.699994
 51
173.80733599999999
  0
ARC
  5
5B
  8
0
 62
     7
 10
142.87755999999999
 20
-1160.421
 30
0.0
 40
1276.048
 50
92.357718999999989
 51
92.408315000000002
  0
ARC
  5
5C
  8
0
 62
     7
 10
89.407808000000003
 20
110.13851
 30
0.0
 40
4.3639479999999997
 50
91.980930000000015
 51
92.841110000000015
  0
ARC
  5
5D
  8
0
 62
     7
 10
89.180719999999994
 20
114.83274900000001
 30
0.0
 40
0.335828
 50
249.03988399999989
 51
271.839945
  0
ARC
  5
5E
  8
0
 62
     7
 10
89.179645999999991
 20
114.848775
 30
0.0
 40
0.3504739999999999
 50
228.23649900000001
 51
250.14104900000001
  0
ARC
  5
5F
  8
0
 62
     7
 10
98.36013299999999
 20
124.8815399999999
 30
0.0
 40
13.94962999999999
 50
227.060733
 51
227.557422
  0
ARC
  5
60
  8
0
 62
     7
 10
89.084265000000002
 20
114.91535
 30
0.0
 40
0.33469
 50
208.13146999999989
 51
227.30798399999989
  0
ARC
  5
61
  8
0
 62
     7
 10
89.093698999999987
 20
114.9220909999999
 30
0.0
 40
0.346191
 50
189.833619
 51
208.379122
  0
ARC
  5
62
  8
0
 62
     7
 10
82.747687999999997
 20
113.826424
 30
0.0
 40
6.093710999999999
 50
9.7936469999999982
 51
11.840173999999999
  0
ARC
  5
63
  8
0
 62
     7
 10
-751.81072699999993
 20
-45.818089000000001
 30
0.0
 40
855.78337099999999
 50
10.836603999999999
 51
10.868202999999999
  0
ARC
  5
64
  8
0
 62
     7
 10
47.970215000000003
 20
122.369128
 30
0.0
 40
0.59137
 50
6.696661999999999
 51
72.89050300000001
  0
ARC
  5
65
  8
0
 62
     7
 10
47.875523000000001
 20
122.13752099999989
 30
0.0
 40
0.8408830000000001
 50
71.366557
 51
85.260012000000003
  0
ARC
  5
66
  8
0
 62
     7
 10
51.108302999999992
 20
116.486605
 30
0.0
 40
1.951341999999999
 50
228.52252599999991
 51
263.79238399999991
  0
ARC
  5
67
  8
0
 62
     7
 10
51.002673000000001
 20
116.295585
 30
0.0
 40
1.7389110000000001
 50
189.72583499999999
 51
226.96127499999989
  0
ARC
  5
68
  8
0
 62
     7
 10
51.422484999999988
 20
116.405953
 30
0.0
 40
2.1716639999999989
 50
185.12202600000001
 51
190.72479799999991
  0
ARC
  5
69
  8
0
 62
     7
 10
174.91720399999991
 20
129.45612600000001
 30
0.0
 40
0.51955
 50
2.1293950000000001
 51
87.870594999999994
  0
ARC
  5
6A
  8
0
 62
     7
 10
132.73345499999999
 20
123.389304
 30
0.0
 40
0.413952
 50
189.82593199999999
 51
268.33394099999998
  0
ARC
  5
6B
  8
0
 62
     7
 10
174.91720399999991
 20
115.016285
 30
0.0
 40
0.51955
 50
272.12940499999991
 51
357.8706049999999
  0
ARC
  5
6C
  8
0
 62
     7
 10
174.93641599999989
 20
114.98257
 30
0.0
 40
0.4854760000000001
 50
262.83633900000001
 51
270.01101299999999
  0
ARC
  5
6D
  8
0
  6
AIGENLINE001
 62
     7
 10
158.60136900000001
 20
123.2197449999999
 30
0.0
 40
3.8361000000000001
 50
282.54907300000002
 51
314.66647899999992
  0
ARC
  5
6E
  8
0
  6
AIGENLINE001
 62
     7
 10
159.2874239999999
 20
122.4595249999999
 30
0.0
 40
2.8135240000000001
 50
315.61323700000003
 51
335.54038199999991
  0
ARC
  5
6F
  8
0
  6
AIGENLINE001
 62
     7
 10
159.638429
 20
122.2624519999999
 30
0.0
 40
2.4126629999999998
 50
336.34906599999999
 51
0.170297
  0
LINE
  5
70
  8
0
  6
AIGENLINE001
 62
     7
 10
157.73500000000001
 20
117.97499999999999
 30
0.0
 11
159.435
 21
119.47499999999989
 31
0.0
  0
LINE
  5
71
  8
0
  6
AIGENLINE001
 62
     7
 10
153.13499999999991
 20
117.97499999999999
 30
0.0
 11
151.43600000000001
 21
119.47499999999989
 31
0.0
  0
LINE
  5
72
  8
0
  6
AIGENLINE002
 62
     7
 10
162.05099999999999
 20
122.2699999999999
 30
0.0
 11
162.43600000000001
 21
129.97499999999991
 31
0.0
  0
LINE
  5
73
  8
0
  6
AIGENLINE001
 62
     7
 10
157.73500000000001
 20
115.476
 30
0.0
 11
157.73500000000001
 21
117.97499999999999
 31
0.0
  0
LINE
  5
74
  8
0
  6
AIGENLINE001
 62
     7
 10
153.13499999999991
 20
117.97499999999999
 30
0.0
 11
153.13499999999991
 21
115.476
 31
0.0
  0
LINE
  5
75
  8
0
 62
     7
 10
158.86500000000001
 20
115.476
 30
0.0
 11
159.02199999999999
 21
116.7259999999999
 31
0.0
  0
LINE
  5
76
  8
0
 62
     7
 10
158.86500000000001
 20
115.476
 30
0.0
 11
152.00599999999989
 21
115.476
 31
0.0
  0
LINE
  5
77
  8
0
  6
AIGENLINE003
 62
     7
 10
155.43600000000001
 20
120.65600000000001
 30
0.0
 11
155.43600000000001
 21
111.27500000000001
 31
0.0
  0
LINE
  5
78
  8
0
 62
     7
 10
151.71399999999991
 20
117.752
 30
0.0
 11
152.00599999999989
 21
115.476
 31
0.0
  0
ARC
  5
79
  8
0
 62
     7
 10
131.8272739999999
 20
129.571775
 30
0.0
 40
0.391227
 50
180.03299799999999
 51
188.33687299999991
  0
ARC
  5
7A
  8
0
 62
     7
 10
131.855231
 20
129.55613299999999
 30
0.0
 40
0.4194670000000001
 50
92.106180000000009
 51
177.89379099999991
  0
ARC
  5
7B
  8
0
 62
     7
 10
167.16450199999991
 20
128.2991429999999
 30
0.0
 40
32.171847
 50
189.52481
 51
190.41902300000001
  0
ARC
  5
7C
  8
0
 62
     7
 10
142.31248999999991
 20
123.75546799999989
 30
0.0
 40
6.9079519999999999
 50
190.631472
 51
195.506361
  0
ARC
  5
7D
  8
0
 62
     7
 10
138.98183700000001
 20
122.857721
 30
0.0
 40
3.4586169999999989
 50
195.92654599999989
 51
206.45512899999991
  0
ARC
  5
7E
  8
0
 62
     7
 10
138.121906
 20
122.469427
 30
0.0
 40
2.5160009999999988
 50
207.26275499999991
 51
238.70790400000001
  0
ARC
  5
7F
  8
0
 62
     7
 10
138.87384299999991
 20
123.564127
 30
0.0
 40
3.8427239999999991
 50
237.60501400000001
 51
247.01222899999991
  0
ARC
  5
80
  8
0
 62
     7
 10
139.75217599999991
 20
125.5301919999999
 30
0.0
 40
5.995817999999999
 50
246.62266099999999
 51
255.06046499999991
  0
ARC
  5
81
  8
0
 62
     7
 10
141.0091689999999
 20
129.8792389999999
 30
0.0
 40
10.522325999999991
 50
254.5523069999999
 51
261.39755999999988
  0
ARC
  5
82
  8
0
  6
AIGENLINE001
 62
     7
 10
149.8888169999999
 20
136.355433
 30
0.0
 40
16.718703000000001
 50
202.43380099999999
 51
211.88272499999991
  0
ARC
  5
83
  8
0
  6
AIGENLINE001
 62
     7
 10
148.07078499999989
 20
135.33062699999999
 30
0.0
 40
14.633948999999991
 50
212.23532800000001
 51
236.56688299999999
  0
ARC
  5
84
  8
0
  6
AIGENLINE001
 62
     7
 10
149.80573000000001
 20
137.77508899999989
 30
0.0
 40
17.630105
 50
236.23847000000001
 51
246.18913900000001
  0
ARC
  5
85
  8
0
  6
AIGENLINE001
 62
     7
 10
151.70761899999999
 20
141.83310499999999
 30
0.0
 40
22.110776999999999
 50
245.92557999999991
 51
253.509412
  0
ARC
  5
86
  8
0
  6
AIGENLINE001
 62
     7
 10
153.5861439999999
 20
147.81568100000001
 30
0.0
 40
28.380690000000001
 50
253.30136699999991
 51
260.06605500000001
  0
ARC
  5
87
  8
0
  6
AIGENLINE001
 62
     7
 10
155.13552899999999
 20
155.826123
 30
0.0
 40
36.538606999999999
 50
259.839856
 51
264.18883999999991
  0
LINE
  5
88
  8
0
  6
AIGENLINE001
 62
     7
 10
72.939300000000003
 20
117.97499999999999
 30
0.0
 11
74.638499999999993
 21
119.47499999999989
 31
0.0
  0
ARC
  5
89
  8
0
  6
AIGENLINE001
 62
     7
 10
78.699204000000009
 20
132.23150699999991
 30
0.0
 40
13.62867999999999
 50
339.89112599999987
 51
350.470979
  0
ARC
  5
8A
  8
0
  6
AIGENLINE001
 62
     7
 10
81.445641000000009
 20
131.34631200000001
 30
0.0
 40
10.745922999999991
 50
300.15589299999988
 51
339.28858300000002
  0
ARC
  5
8B
  8
0
  6
AIGENLINE001
 62
     7
 10
79.622192999999996
 20
134.26234099999991
 30
0.0
 40
14.18375799999999
 50
289.45390200000003
 51
300.607462
  0
ARC
  5
8C
  8
0
  6
AIGENLINE001
 62
     7
 10
77.756837000000004
 20
139.07199
 30
0.0
 40
19.340714999999989
 50
281.72863299999989
 51
289.91906399999999
  0
ARC
  5
8D
  8
0
  6
AIGENLINE001
 62
     7
 10
76.083282999999994
 20
146.31984
 30
0.0
 40
26.777944000000002
 50
275.30009699999988
 51
282.08231000000001
  0
ARC
  5
8E
  8
0
  6
AIGENLINE001
 62
     7
 10
74.966853
 20
156.143449
 30
0.0
 40
36.663249
 50
271.21351299999992
 51
275.61925899999989
  0
ARC
  5
8F
  8
0
  6
AIGENLINE001
 62
     7
 10
74.648779000000005
 20
165.08372700000001
 30
0.0
 40
45.608438999999997
 50
269.98878500000001
 51
271.37515000000002
  0
ARC
  5
90
  8
0
  6
AIGENLINE001
 62
     7
 10
62.586868999999993
 20
132.23305199999999
 30
0.0
 40
13.63480199999999
 50
189.531307
 51
200.106391
  0
ARC
  5
91
  8
0
  6
AIGENLINE001
 62
     7
 10
59.835348000000003
 20
131.34705500000001
 30
0.0
 40
10.746999000000001
 50
200.71349900000001
 51
239.84212999999991
  0
ARC
  5
92
  8
0
  6
AIGENLINE001
 62
     7
 10
61.657931999999988
 20
134.26234099999991
 30
0.0
 40
14.18375799999999
 50
239.3925569999999
 51
250.54611800000001
  0
ARC
  5
93
  8
0
  6
AIGENLINE001
 62
     7
 10
63.523288000000001
 20
139.07199
 30
0.0
 40
19.340714999999989
 50
250.08095599999999
 51
258.271387
  0
ARC
  5
94
  8
0
  6
AIGENLINE001
 62
     7
 10
65.196842000000004
 20
146.31984
 30
0.0
 40
26.777944000000002
 50
257.91770999999989
 51
264.69992300000001
  0
ARC
  5
95
  8
0
  6
AIGENLINE001
 62
     7
 10
66.313271
 20
156.143449
 30
0.0
 40
36.663249
 50
264.38076100000001
 51
268.78650699999992
  0
ARC
  5
96
  8
0
  6
AIGENLINE001
 62
     7
 10
66.631345999999994
 20
165.08372700000001
 30
0.0
 40
45.608438999999997
 50
268.62486999999999
 51
270.01123499999989
  0
LINE
  5
97
  8
0
 62
     7
 10
153.81599999999989
 20
121.687
 30
0.0
 11
154.4079999999999
 21
119.47499999999989
 31
0.0
  0
LINE
  5
98
  8
0
 62
     7
 10
154.4079999999999
 20
119.47499999999989
 30
0.0
 11
155.001
 21
121.687
 31
0.0
  0
LINE
  5
99
  8
0
 62
     7
 10
155.001
 20
121.687
 30
0.0
 11
153.81599999999989
 21
121.687
 31
0.0
  0
LINE
  5
9A
  8
0
 62
     7
 10
111.5779999999999
 20
117.68600000000001
 30
0.0
 11
112.17099999999991
 21
115.4739999999999
 31
0.0
  0
LINE
  5
9B
  8
0
 62
     7
 10
112.17099999999991
 20
115.4739999999999
 30
0.0
 11
112.7639999999999
 21
117.68600000000001
 31
0.0
  0
LINE
  5
9C
  8
0
 62
     7
 10
112.7639999999999
 20
117.68600000000001
 30
0.0
 11
111.5779999999999
 21
117.68600000000001
 31
0.0
  0
LINE
  5
9D
  8
0
 62
     7
 10
112.7489999999999
 20
127.7649999999999
 30
0.0
 11
112.15600000000001
 21
129.976
 31
0.0
  0
LINE
  5
9E
  8
0
 62
     7
 10
112.15600000000001
 20
129.976
 30
0.0
 11
111.56399999999989
 21
127.7649999999999
 31
0.0
  0
LINE
  5
9F
  8
0
 62
     7
 10
111.56399999999989
 20
127.7649999999999
 30
0.0
 11
112.7489999999999
 21
127.7649999999999
 31
0.0
  0
LINE
  5
A0
  8
0
 62
     7
 10
112.1639999999999
 20
115.476
 30
0.0
 11
112.1639999999999
 21
129.97499999999991
 31
0.0
  0
LINE
  5
A1
  8
0
 62
     7
 10
112.8639999999999
 20
115.476
 30
0.0
 11
74.769400000000005
 21
115.476
 31
0.0
  0
LINE
  5
A2
  8
0
 62
     7
 10
58.850900000000003
 20
137.833
 30
0.0
 11
56.639499999999991
 21
137.24000000000001
 31
0.0
  0
LINE
  5
A3
  8
0
 62
     7
 10
56.639499999999991
 20
137.24000000000001
 30
0.0
 11
58.850900000000003
 21
136.64699999999999
 31
0.0
  0
LINE
  5
A4
  8
0
 62
     7
 10
58.850900000000003
 20
136.64699999999999
 30
0.0
 11
58.850900000000003
 21
137.833
 31
0.0
  0
LINE
  5
A5
  8
0
 62
     7
 10
82.429299999999984
 20
136.66200000000001
 30
0.0
 11
84.641000000000005
 21
137.25499999999991
 31
0.0
  0
LINE
  5
A6
  8
0
 62
     7
 10
84.641000000000005
 20
137.25499999999991
 30
0.0
 11
82.429299999999984
 21
137.84700000000001
 31
0.0
  0
LINE
  5
A7
  8
0
 62
     7
 10
82.429299999999984
 20
137.84700000000001
 30
0.0
 11
82.429299999999984
 21
136.66200000000001
 31
0.0
  0
LINE
  5
A8
  8
0
 62
     7
 10
56.640500000000003
 20
137.24799999999991
 30
0.0
 11
84.640299999999996
 21
137.24799999999991
 31
0.0
  0
LINE
  5
A9
  8
0
 62
     7
 10
84.640299999999996
 20
126.60599999999999
 30
0.0
 11
84.640299999999996
 21
137.94799999999989
 31
0.0
  0
LINE
  5
AA
  8
0
 62
     7
 10
56.639800000000001
 20
126.60599999999999
 30
0.0
 11
56.639800000000001
 21
137.94799999999989
 31
0.0
  0
LINE
  5
AB
  8
0
  6
AIGENLINE001
 62
     7
 10
157.7359999999999
 20
117.97499999999999
 30
0.0
 11
153.136
 21
117.97499999999999
 31
0.0
  0
LINE
  5
AC
  8
0
  6
AIGENLINE001
 62
     7
 10
159.435
 20
119.47499999999989
 30
0.0
 11
151.43700000000001
 21
119.47499999999989
 31
0.0
  0
LINE
  5
AD
  8
0
  6
AIGENLINE001
 62
     7
 10
72.939300000000003
 20
117.97499999999999
 30
0.0
 11
68.339399999999998
 21
117.97499999999999
 31
0.0
  0
LINE
  5
AE
  8
0
  6
AIGENLINE001
 62
     7
 10
74.638499999999993
 20
119.47499999999989
 30
0.0
 11
66.640299999999996
 21
119.47499999999989
 31
0.0
  0
LINE
  5
AF
  8
0
  6
AIGENLINE001
 62
     7
 10
68.339399999999998
 20
117.97499999999999
 30
0.0
 11
66.640299999999996
 21
119.47499999999989
 31
0.0
  0
LINE
  5
B0
  8
0
  6
AIGENLINE001
 62
     7
 10
72.939300000000003
 20
115.476
 30
0.0
 11
72.939300000000003
 21
117.97499999999999
 31
0.0
  0
LINE
  5
B1
  8
0
  6
AIGENLINE001
 62
     7
 10
68.339399999999998
 20
117.97499999999999
 30
0.0
 11
68.339399999999998
 21
115.476
 31
0.0
  0
ARC
  5
B2
  8
0
 62
     7
 10
957.685475
 20
5.3824740000000002
 30
0.0
 40
890.44818100000009
 50
172.82581399999989
 51
172.897885
  0
ARC
  5
B3
  8
0
 62
     7
 10
1516.5940000000001
 20
-64.376353000000009
 30
0.0
 40
1453.693
 50
172.80480399999999
 51
172.84895399999991
  0
LINE
  5
B4
  8
0
 62
     7
 10
74.069299999999998
 20
115.476
 30
0.0
 11
67.210099999999997
 21
115.476
 31
0.0
  0
LINE
  5
B5
  8
0
 62
     7
 10
112.8639999999999
 20
129.97499999999991
 30
0.0
 11
98.620099999999994
 21
129.97499999999991
 31
0.0
  0
LINE
  5
B6
  8
0
  6
AIGENLINE003
 62
     7
 10
159.57599999999999
 20
125.9759999999999
 30
0.0
 11
165.04099999999991
 21
125.9759999999999
 31
0.0
  0
LINE
  5
B7
  8
0
  6
AIGENLINE003
 62
     7
 10
67.788899999999998
 20
125.9759999999999
 30
0.0
 11
73.253500000000003
 21
125.9759999999999
 31
0.0
  0
ARC
  5
B8
  8
0
  6
AIGENLINE001
 62
     7
 10
70.640062
 20
125.97553599999991
 30
0.0
 40
1.249889
 50
0.00001
 51
89.999980000000008
  0
ARC
  5
B9
  8
0
  6
AIGENLINE001
 62
     7
 10
70.640062999999984
 20
125.97553599999991
 30
0.0
 40
1.249889
 50
90.0
 51
179.99996999999991
  0
ARC
  5
BA
  8
0
  6
AIGENLINE001
 62
     7
 10
70.640062
 20
125.97553599999991
 30
0.0
 40
1.249887999999999
 50
179.99996999999991
 51
270.00002000000001
  0
ARC
  5
BB
  8
0
  6
AIGENLINE001
 62
     7
 10
70.640062
 20
125.97553599999991
 30
0.0
 40
1.249889
 50
270.00002000000001
 51
359.99998999999991
  0
LINE
  5
BC
  8
0
 62
     7
 10
175.43599999999989
 20
113.744
 30
0.0
 11
175.43599999999989
 21
104.726
 31
0.0
  0
LINE
  5
BD
  8
0
 62
     7
 10
155.43600000000001
 20
104.726
 30
0.0
 11
155.43600000000001
 21
110.5739999999999
 31
0.0
  0
LINE
  5
BE
  8
0
 62
     7
 10
157.64699999999999
 20
106.011
 30
0.0
 11
155.435
 21
105.41799999999991
 31
0.0
  0
LINE
  5
BF
  8
0
 62
     7
 10
155.435
 20
105.41799999999991
 30
0.0
 11
157.64699999999999
 21
104.82599999999999
 31
0.0
  0
LINE
  5
C0
  8
0
 62
     7
 10
157.64699999999999
 20
104.82599999999999
 30
0.0
 11
157.64699999999999
 21
106.011
 31
0.0
  0
LINE
  5
C1
  8
0
 62
     7
 10
173.226
 20
104.8399999999999
 30
0.0
 11
175.43700000000001
 21
105.43299999999989
 31
0.0
  0
LINE
  5
C2
  8
0
 62
     7
 10
175.43700000000001
 20
105.43299999999989
 30
0.0
 11
173.226
 21
106.02500000000001
 31
0.0
  0
LINE
  5
C3
  8
0
 62
     7
 10
173.226
 20
106.02500000000001
 30
0.0
 11
173.226
 21
104.8399999999999
 31
0.0
  0
LINE
  5
C4
  8
0
 62
     7
 10
155.43600000000001
 20
105.4259999999999
 30
0.0
 11
175.43599999999989
 21
105.4259999999999
 31
0.0
  0
LINE
  5
C5
  8
0
 62
     7
 10
63.109000000000002
 20
209.78200000000001
 30
0.0
 11
35.243400000000001
 21
209.78200000000001
 31
0.0
  0
LINE
  5
C6
  8
0
 62
     7
 10
35.243400000000001
 20
229.78200000000001
 30
0.0
 11
42.44019999999999
 21
229.78200000000001
 31
0.0
  0
LINE
  5
C7
  8
0
 62
     7
 10
36.528399999999991
 20
227.571
 30
0.0
 11
35.9358
 21
229.7829999999999
 31
0.0
  0
LINE
  5
C8
  8
0
 62
     7
 10
35.9358
 20
229.7829999999999
 30
0.0
 11
35.343299999999999
 21
227.571
 31
0.0
  0
LINE
  5
C9
  8
0
 62
     7
 10
35.343299999999999
 20
227.571
 30
0.0
 11
36.528399999999991
 21
227.571
 31
0.0
  0
LINE
  5
CA
  8
0
 62
     7
 10
35.35779999999999
 20
211.99299999999999
 30
0.0
 11
35.950299999999991
 21
209.78099999999989
 31
0.0
  0
LINE
  5
CB
  8
0
 62
     7
 10
35.950299999999991
 20
209.78099999999989
 30
0.0
 11
36.542900000000003
 21
211.99299999999999
 31
0.0
  0
LINE
  5
CC
  8
0
 62
     7
 10
36.542900000000003
 20
211.99299999999999
 30
0.0
 11
35.35779999999999
 21
211.99299999999999
 31
0.0
  0
LINE
  5
CD
  8
0
 62
     7
 10
35.94339999999999
 20
229.78200000000001
 30
0.0
 11
35.94339999999999
 21
209.78200000000001
 31
0.0
  0
LINE
  5
CE
  8
0
 62
     7
 10
45.350700000000003
 20
167.9729999999999
 30
0.0
 11
43.139200000000002
 21
167.38099999999989
 31
0.0
  0
LINE
  5
CF
  8
0
 62
     7
 10
43.139200000000002
 20
167.38099999999989
 30
0.0
 11
45.350700000000003
 21
166.7879999999999
 31
0.0
  0
LINE
  5
D0
  8
0
 62
     7
 10
45.350700000000003
 20
166.7879999999999
 30
0.0
 11
45.350700000000003
 21
167.9729999999999
 31
0.0
  0
LINE
  5
D1
  8
0
 62
     7
 10
95.929500000000004
 20
166.80199999999999
 30
0.0
 11
98.140900000000002
 21
167.39500000000001
 31
0.0
  0
LINE
  5
D2
  8
0
 62
     7
 10
98.140900000000002
 20
167.39500000000001
 30
0.0
 11
95.929500000000004
 21
167.98799999999989
 31
0.0
  0
LINE
  5
D3
  8
0
 62
     7
 10
95.929500000000004
 20
167.98799999999989
 30
0.0
 11
95.929500000000004
 21
166.80199999999999
 31
0.0
  0
LINE
  5
D4
  8
0
 62
     7
 10
43.140300000000003
 20
167.38800000000001
 30
0.0
 11
98.139799999999994
 21
167.38800000000001
 31
0.0
  0
LINE
  5
D5
  8
0
 62
     7
 10
43.140300000000003
 20
166.6879999999999
 30
0.0
 11
43.140300000000003
 21
185.08199999999991
 31
0.0
  0
LINE
  5
D6
  8
0
 62
     7
 10
98.139799999999994
 20
166.6879999999999
 30
0.0
 11
98.139799999999994
 21
185.08199999999991
 31
0.0
  0
LINE
  5
D7
  8
0
 62
     7
 10
94.352599999999995
 20
175.83799999999999
 30
0.0
 11
92.141199999999984
 21
175.245
 31
0.0
  0
LINE
  5
D8
  8
0
 62
     7
 10
92.141199999999984
 20
175.245
 30
0.0
 11
94.352599999999995
 21
174.65199999999999
 31
0.0
  0
LINE
  5
D9
  8
0
 62
     7
 10
94.352599999999995
 20
174.65199999999999
 30
0.0
 11
94.352599999999995
 21
175.83799999999999
 31
0.0
  0
LINE
  5
DA
  8
0
 62
     7
 10
45.351699999999987
 20
175.83000000000001
 30
0.0
 11
43.140300000000003
 21
175.23699999999991
 31
0.0
  0
LINE
  5
DB
  8
0
 62
     7
 10
43.140300000000003
 20
175.23699999999991
 30
0.0
 11
45.351699999999987
 21
174.64500000000001
 31
0.0
  0
LINE
  5
DC
  8
0
 62
     7
 10
45.351699999999987
 20
174.64500000000001
 30
0.0
 11
45.351699999999987
 21
175.83000000000001
 31
0.0
  0
LINE
  5
DD
  8
0
 62
     7
 10
51.350700000000003
 20
175.82299999999989
 30
0.0
 11
49.139299999999999
 21
175.23099999999999
 31
0.0
  0
LINE
  5
DE
  8
0
 62
     7
 10
49.139299999999999
 20
175.23099999999999
 30
0.0
 11
51.350700000000003
 21
174.63800000000001
 31
0.0
  0
LINE
  5
DF
  8
0
 62
     7
 10
51.350700000000003
 20
174.63800000000001
 30
0.0
 11
51.350700000000003
 21
175.82299999999989
 31
0.0
  0
LINE
  5
E0
  8
0
 62
     7
 10
95.928100000000001
 20
174.64500000000001
 30
0.0
 11
98.139799999999994
 21
175.23699999999991
 31
0.0
  0
LINE
  5
E1
  8
0
 62
     7
 10
98.139799999999994
 20
175.23699999999991
 30
0.0
 11
95.928100000000001
 21
175.83000000000001
 31
0.0
  0
LINE
  5
E2
  8
0
 62
     7
 10
95.928100000000001
 20
175.83000000000001
 30
0.0
 11
95.928100000000001
 21
174.64500000000001
 31
0.0
  0
LINE
  5
E3
  8
0
 62
     7
 10
46.927500000000002
 20
174.63800000000001
 30
0.0
 11
49.139299999999999
 21
175.23099999999999
 31
0.0
  0
LINE
  5
E4
  8
0
 62
     7
 10
49.139299999999999
 20
175.23099999999999
 30
0.0
 11
46.927500000000002
 21
175.82299999999989
 31
0.0
  0
LINE
  5
E5
  8
0
 62
     7
 10
46.927500000000002
 20
175.82299999999989
 30
0.0
 11
46.927500000000002
 21
174.63800000000001
 31
0.0
  0
LINE
  5
E6
  8
0
 62
     7
 10
89.929400000000001
 20
174.65199999999999
 30
0.0
 11
92.141199999999984
 21
175.245
 31
0.0
  0
LINE
  5
E7
  8
0
 62
     7
 10
92.141199999999984
 20
175.245
 30
0.0
 11
89.929400000000001
 21
175.83799999999999
 31
0.0
  0
LINE
  5
E8
  8
0
 62
     7
 10
89.929400000000001
 20
175.83799999999999
 30
0.0
 11
89.929400000000001
 21
174.65199999999999
 31
0.0
  0
LINE
  5
E9
  8
0
 62
     7
 10
43.140300000000003
 20
175.23699999999991
 30
0.0
 11
98.139799999999994
 21
175.23699999999991
 31
0.0
  0
LINE
  5
EA
  8
0
 62
     7
 10
49.140300000000003
 20
174.53700000000001
 30
0.0
 11
49.140300000000003
 21
189.66
 31
0.0
  0
LINE
  5
EB
  8
0
 62
     7
 10
92.140500000000003
 20
174.53700000000001
 30
0.0
 11
92.140500000000003
 21
189.66
 31
0.0
  0
LINE
  5
EC
  8
0
 62
     7
 10
108.0659999999999
 20
218.994
 30
0.0
 11
108.65899999999991
 21
216.78200000000001
 31
0.0
  0
LINE
  5
ED
  8
0
 62
     7
 10
108.65899999999991
 20
216.78200000000001
 30
0.0
 11
109.252
 21
218.994
 31
0.0
  0
LINE
  5
EE
  8
0
 62
     7
 10
109.252
 20
218.994
 30
0.0
 11
108.0659999999999
 21
218.994
 31
0.0
  0
LINE
  5
EF
  8
0
 62
     7
 10
108.081
 20
190.99199999999999
 30
0.0
 11
108.6729999999999
 21
188.78099999999989
 31
0.0
  0
LINE
  5
F0
  8
0
 62
     7
 10
108.6729999999999
 20
188.78099999999989
 30
0.0
 11
109.26600000000001
 21
190.99199999999999
 31
0.0
  0
LINE
  5
F1
  8
0
 62
     7
 10
109.26600000000001
 20
190.99199999999999
 30
0.0
 11
108.081
 21
190.99199999999999
 31
0.0
  0
LINE
  5
F2
  8
0
 62
     7
 10
109.2589999999999
 20
183.56999999999991
 30
0.0
 11
108.6659999999999
 21
185.78200000000001
 31
0.0
  0
LINE
  5
F3
  8
0
 62
     7
 10
108.6659999999999
 20
185.78200000000001
 30
0.0
 11
108.074
 21
183.56999999999991
 31
0.0
  0
LINE
  5
F4
  8
0
 62
     7
 10
108.074
 20
183.56999999999991
 30
0.0
 11
109.2589999999999
 21
183.56999999999991
 31
0.0
  0
LINE
  5
F5
  8
0
 62
     7
 10
109.251
 20
214.571
 30
0.0
 11
108.65899999999991
 21
216.78200000000001
 31
0.0
  0
LINE
  5
F6
  8
0
 62
     7
 10
108.65899999999991
 20
216.78200000000001
 30
0.0
 11
108.0659999999999
 21
214.571
 31
0.0
  0
LINE
  5
F7
  8
0
 62
     7
 10
108.0659999999999
 20
214.571
 30
0.0
 11
109.251
 21
214.571
 31
0.0
  0
LINE
  5
F8
  8
0
 62
     7
 10
108.6659999999999
 20
179.29699999999991
 30
0.0
 11
108.6659999999999
 21
229.78200000000001
 31
0.0
  0
LINE
  5
F9
  8
0
 62
     7
 10
109.366
 20
188.78099999999989
 30
0.0
 11
92.588399999999993
 21
188.78099999999989
 31
0.0
  0
LINE
  5
FA
  8
0
 62
     7
 10
109.366
 20
216.78200000000001
 30
0.0
 11
92.588399999999993
 21
216.78200000000001
 31
0.0
  0
LINE
  5
FB
  8
0
 62
     7
 10
116.622
 20
187.99299999999991
 30
0.0
 11
117.2139999999999
 21
185.78099999999989
 31
0.0
  0
LINE
  5
FC
  8
0
 62
     7
 10
117.2139999999999
 20
185.78099999999989
 30
0.0
 11
117.8069999999999
 21
187.99299999999991
 31
0.0
  0
LINE
  5
FD
  8
0
 62
     7
 10
117.8069999999999
 20
187.99299999999991
 30
0.0
 11
116.622
 21
187.99299999999991
 31
0.0
  0
LINE
  5
FE
  8
0
 62
     7
 10
109.2589999999999
 20
227.56999999999999
 30
0.0
 11
108.6659999999999
 21
229.78200000000001
 31
0.0
  0
LINE
  5
FF
  8
0
 62
     7
 10
108.6659999999999
 20
229.78200000000001
 30
0.0
 11
108.074
 21
227.56999999999999
 31
0.0
  0
LINE
  5
100
  8
0
 62
     7
 10
108.074
 20
227.56999999999999
 30
0.0
 11
109.2589999999999
 21
227.56999999999999
 31
0.0
  0
LINE
  5
101
  8
0
 62
     7
 10
117.792
 20
227.571
 30
0.0
 11
117.2
 21
229.7829999999999
 31
0.0
  0
LINE
  5
102
  8
0
 62
     7
 10
117.2
 20
229.7829999999999
 30
0.0
 11
116.607
 21
227.571
 31
0.0
  0
LINE
  5
103
  8
0
 62
     7
 10
116.607
 20
227.571
 30
0.0
 11
117.792
 21
227.571
 31
0.0
  0
LINE
  5
104
  8
0
 62
     7
 10
117.20699999999999
 20
185.78200000000001
 30
0.0
 11
117.20699999999999
 21
229.78200000000001
 31
0.0
  0
LINE
  5
105
  8
0
 62
     7
 10
117.907
 20
185.78200000000001
 30
0.0
 11
98.840599999999995
 21
185.78200000000001
 31
0.0
  0
LINE
  5
106
  8
0
 62
     7
 10
117.907
 20
229.78200000000001
 30
0.0
 11
98.840599999999995
 21
229.78200000000001
 31
0.0
  0
LINE
  5
107
  8
0
 62
     7
 10
131.44
 20
129.5149999999999
 30
0.0
 11
132.32599999999991
 21
123.319
 31
0.0
  0
LINE
  5
108
  8
0
  6
AIGENLINE003
 62
     7
 10
168.93599999999989
 20
133.35499999999999
 30
0.0
 11
168.93599999999989
 21
126.98999999999999
 31
0.0
  0
LINE
  5
109
  8
0
 62
     7
 10
175.43599999999989
 20
129.47499999999999
 30
0.0
 11
175.43599999999989
 21
114.997
 31
0.0
  0
LINE
  5
10A
  8
0
 62
     7
 10
98.139799999999994
 20
229.78200000000001
 30
0.0
 11
98.139799999999994
 21
187.78200000000001
 31
0.0
  0
LINE
  5
10B
  8
0
 62
     7
 10
45.139800000000001
 20
185.78200000000001
 30
0.0
 11
96.140299999999996
 21
185.78200000000001
 31
0.0
  0
ARC
  5
10C
  8
0
 62
     7
 10
96.063006000000001
 20
187.858383
 30
0.0
 40
2.0782560000000001
 50
272.13154300000002
 51
357.88820800000002
  0
LINE
  5
10D
  8
0
 62
     7
 10
43.140300000000003
 20
229.78200000000001
 30
0.0
 11
43.140300000000003
 21
187.78200000000001
 31
0.0
  0
ARC
  5
10E
  8
0
 62
     7
 10
45.217385
 20
187.85865000000001
 30
0.0
 40
2.0785309999999999
 50
182.11887400000001
 51
267.86141499999991
  0
LINE
  5
10F
  8
0
 62
     7
 10
43.140300000000003
 20
229.78200000000001
 30
0.0
 11
98.140500000000003
 21
229.78200000000001
 31
0.0
  0
LINE
  5
110
  8
0
 62
     7
 10
92.140500000000003
 20
214.68199999999999
 30
0.0
 11
92.140500000000003
 21
190.88200000000001
 31
0.0
  0
LINE
  5
111
  8
0
 62
     7
 10
51.240400000000001
 20
188.78099999999989
 30
0.0
 11
90.040400000000005
 21
188.78099999999989
 31
0.0
  0
ARC
  5
112
  8
0
 62
     7
 10
89.959862000000001
 20
190.962063
 30
0.0
 40
2.1821470000000001
 50
272.11460499999993
 51
357.88540499999988
  0
LINE
  5
113
  8
0
 62
     7
 10
51.240400000000001
 20
216.78200000000001
 30
0.0
 11
90.040400000000005
 21
216.78200000000001
 31
0.0
  0
ARC
  5
114
  8
0
 62
     7
 10
89.960205000000002
 20
214.60126199999999
 30
0.0
 40
2.1818040000000001
 50
2.1152980000000001
 51
87.894091999999986
  0
LINE
  5
115
  8
0
 62
     7
 10
49.140300000000003
 20
214.68199999999999
 30
0.0
 11
49.140300000000003
 21
190.88200000000001
 31
0.0
  0
ARC
  5
116
  8
0
 62
     7
 10
51.32091299999999
 20
214.60095799999999
 30
0.0
 40
2.1821189999999988
 50
92.113577000000021
 51
177.876994
  0
ARC
  5
117
  8
0
 62
     7
 10
51.320957
 20
190.96206699999991
 30
0.0
 40
2.1821509999999988
 50
182.11472499999991
 51
267.8853049999999
  0
ARC
  5
118
  8
0
 62
     7
 10
70.640233999999992
 20
223.281667
 30
0.0
 40
1.7499480000000001
 50
0.00565
 51
90.005619999999993
  0
ARC
  5
119
  8
0
 62
     7
 10
70.707662999999997
 20
223.21388099999999
 30
0.0
 40
1.8189900000000001
 50
92.129819999999995
 51
177.85887099999999
  0
ARC
  5
11A
  8
0
 62
     7
 10
70.707273999999984
 20
223.349052
 30
0.0
 40
1.8185739999999999
 50
182.11807699999989
 51
267.8819529999999
  0
ARC
  5
11B
  8
0
 62
     7
 10
70.640062
 20
223.2818399999999
 30
0.0
 40
1.7501199999999999
 50
270.00002000000001
 51
359.99998999999991
  0
LINE
  5
11C
  8
0
 62
     7
 10
58.6648
 20
235.25700000000001
 30
0.0
 11
52.791899999999991
 21
235.25700000000001
 31
0.0
  0
LINE
  5
11D
  8
0
 62
     7
 10
73.860600000000005
 20
220.90000000000001
 30
0.0
 11
71.877499999999998
 21
222.0439999999999
 31
0.0
  0
LINE
  5
11E
  8
0
 62
     7
 10
71.877499999999998
 20
222.0439999999999
 30
0.0
 11
73.0227
 21
220.06200000000001
 31
0.0
  0
LINE
  5
11F
  8
0
 62
     7
 10
73.0227
 20
220.06200000000001
 30
0.0
 11
73.860600000000005
 21
220.90000000000001
 31
0.0
  0
LINE
  5
120
  8
0
 62
     7
 10
67.419899999999998
 20
225.66399999999999
 30
0.0
 11
69.402600000000007
 21
224.51900000000001
 31
0.0
  0
LINE
  5
121
  8
0
 62
     7
 10
69.402600000000007
 20
224.51900000000001
 30
0.0
 11
68.258099999999999
 21
226.50200000000001
 31
0.0
  0
LINE
  5
122
  8
0
 62
     7
 10
68.258099999999999
 20
226.50200000000001
 30
0.0
 11
67.419899999999998
 21
225.66399999999999
 31
0.0
  0
LINE
  5
123
  8
0
 62
     7
 10
58.6648
 20
235.25700000000001
 30
0.0
 11
75.142099999999999
 21
218.78
 31
0.0
  0
LINE
  5
124
  8
0
 62
     7
 10
89.904499999999999
 20
218.9909999999999
 30
0.0
 11
90.497000000000014
 21
216.779
 31
0.0
  0
LINE
  5
125
  8
0
 62
     7
 10
90.497000000000014
 20
216.779
 30
0.0
 11
91.089600000000004
 21
218.9909999999999
 31
0.0
  0
LINE
  5
126
  8
0
 62
     7
 10
91.089600000000004
 20
218.9909999999999
 30
0.0
 11
89.904499999999999
 21
218.9909999999999
 31
0.0
  0
LINE
  5
127
  8
0
 62
     7
 10
91.075100000000006
 20
221.06899999999999
 30
0.0
 11
90.482600000000005
 21
223.28099999999989
 31
0.0
  0
LINE
  5
128
  8
0
 62
     7
 10
90.482600000000005
 20
223.28099999999989
 30
0.0
 11
89.890000000000001
 21
221.06899999999999
 31
0.0
  0
LINE
  5
129
  8
0
 62
     7
 10
89.890000000000001
 20
221.06899999999999
 30
0.0
 11
91.075100000000006
 21
221.06899999999999
 31
0.0
  0
LINE
  5
12A
  8
0
 62
     7
 10
90.490099999999998
 20
216.78
 30
0.0
 11
90.490099999999998
 21
223.28
 31
0.0
  0
LINE
  5
12B
  8
0
 62
     7
 10
89.904499999999999
 20
225.49299999999991
 30
0.0
 11
90.497000000000014
 21
223.28099999999989
 31
0.0
  0
LINE
  5
12C
  8
0
 62
     7
 10
90.497000000000014
 20
223.28099999999989
 30
0.0
 11
91.089600000000004
 21
225.49299999999991
 31
0.0
  0
LINE
  5
12D
  8
0
 62
     7
 10
91.089600000000004
 20
225.49299999999991
 30
0.0
 11
89.904499999999999
 21
225.49299999999991
 31
0.0
  0
LINE
  5
12E
  8
0
 62
     7
 10
91.075100000000006
 20
227.571
 30
0.0
 11
90.482600000000005
 21
229.7829999999999
 31
0.0
  0
LINE
  5
12F
  8
0
 62
     7
 10
90.482600000000005
 20
229.7829999999999
 30
0.0
 11
89.890000000000001
 21
227.571
 31
0.0
  0
LINE
  5
130
  8
0
 62
     7
 10
89.890000000000001
 20
227.571
 30
0.0
 11
91.075100000000006
 21
227.571
 31
0.0
  0
LINE
  5
131
  8
0
 62
     7
 10
90.490099999999998
 20
223.28200000000001
 30
0.0
 11
90.490099999999998
 21
229.78200000000001
 31
0.0
  0
LINE
  5
132
  8
0
 62
     7
 10
91.190200000000004
 20
223.28200000000001
 30
0.0
 11
83.666700000000006
 21
223.28200000000001
 31
0.0
  0
LINE
  5
133
  8
0
 62
     7
 10
70.640100000000004
 20
240.71599999999989
 30
0.0
 11
70.640100000000004
 21
232.886
 31
0.0
  0
LINE
  5
134
  8
0
 62
     7
 10
68.428600000000003
 20
239.42299999999989
 30
0.0
 11
70.640100000000004
 21
240.01499999999999
 31
0.0
  0
LINE
  5
135
  8
0
 62
     7
 10
70.640100000000004
 20
240.01499999999999
 30
0.0
 11
68.428600000000003
 21
240.608
 31
0.0
  0
LINE
  5
136
  8
0
 62
     7
 10
68.428600000000003
 20
240.608
 30
0.0
 11
68.428600000000003
 21
239.42299999999989
 31
0.0
  0
LINE
  5
137
  8
0
 62
     7
 10
72.851799999999997
 20
240.608
 30
0.0
 11
70.640100000000004
 21
240.01499999999999
 31
0.0
  0
LINE
  5
138
  8
0
 62
     7
 10
70.640100000000004
 20
240.01499999999999
 30
0.0
 11
72.851799999999997
 21
239.42299999999989
 31
0.0
  0
LINE
  5
139
  8
0
 62
     7
 10
72.851799999999997
 20
239.42299999999989
 30
0.0
 11
72.851799999999997
 21
240.608
 31
0.0
  0
LINE
  5
13A
  8
0
 62
     7
 10
78.429500000000004
 20
239.43000000000001
 30
0.0
 11
80.641199999999998
 21
240.023
 31
0.0
  0
LINE
  5
13B
  8
0
 62
     7
 10
80.641199999999998
 20
240.023
 30
0.0
 11
78.429500000000004
 21
240.61500000000001
 31
0.0
  0
LINE
  5
13C
  8
0
 62
     7
 10
78.429500000000004
 20
240.61500000000001
 30
0.0
 11
78.429500000000004
 21
239.43000000000001
 31
0.0
  0
LINE
  5
13D
  8
0
 62
     7
 10
62.85070000000001
 20
240.601
 30
0.0
 11
60.639200000000002
 21
240.0079999999999
 31
0.0
  0
LINE
  5
13E
  8
0
 62
     7
 10
60.639200000000002
 20
240.0079999999999
 30
0.0
 11
62.85070000000001
 21
239.41599999999991
 31
0.0
  0
LINE
  5
13F
  8
0
 62
     7
 10
62.85070000000001
 20
239.41599999999991
 30
0.0
 11
62.85070000000001
 21
240.601
 31
0.0
  0
LINE
  5
140
  8
0
 62
     7
 10
80.640499999999989
 20
240.01499999999999
 30
0.0
 11
60.640300000000003
 21
240.01499999999999
 31
0.0
  0
LINE
  5
141
  8
0
 62
     7
 10
80.640499999999989
 20
240.71599999999989
 30
0.0
 11
80.640499999999989
 21
226.92599999999999
 31
0.0
  0
LINE
  5
142
  8
0
 62
     7
 10
60.640300000000003
 20
240.71599999999989
 30
0.0
 11
60.640300000000003
 21
226.9009999999999
 31
0.0
  0
LINE
  5
143
  8
0
 62
     7
 10
83.811400000000006
 20
202.75599999999989
 30
0.0
 11
77.666700000000006
 21
202.75599999999989
 31
0.0
  0
LINE
  5
144
  8
0
 62
     7
 10
74.249200000000002
 20
207.011
 30
0.0
 11
72.266499999999994
 21
208.15599999999989
 31
0.0
  0
LINE
  5
145
  8
0
 62
     7
 10
72.266499999999994
 20
208.15599999999989
 30
0.0
 11
73.411299999999983
 21
206.17299999999989
 31
0.0
  0
LINE
  5
146
  8
0
 62
     7
 10
73.411299999999983
 20
206.17299999999989
 30
0.0
 11
74.249200000000002
 21
207.011
 31
0.0
  0
LINE
  5
147
  8
0
 62
     7
 10
67.031300000000002
 20
212.55299999999991
 30
0.0
 11
69.013999999999996
 21
211.4079999999999
 31
0.0
  0
LINE
  5
148
  8
0
 62
     7
 10
69.013999999999996
 20
211.4079999999999
 30
0.0
 11
67.869500000000002
 21
213.39099999999991
 31
0.0
  0
LINE
  5
149
  8
0
 62
     7
 10
67.869500000000002
 20
213.39099999999991
 30
0.0
 11
67.031300000000002
 21
212.55299999999991
 31
0.0
  0
LINE
  5
14A
  8
0
 62
     7
 10
65.135499999999993
 20
215.28700000000001
 30
0.0
 11
77.666700000000006
 21
202.75599999999989
 31
0.0
  0
LINE
  5
14B
  8
0
 62
     7
 10
139.43499999999989
 20
119.47499999999989
 30
0.0
 11
174.87599999999989
 21
114.501
 31
0.0
  0
LINE
  5
14C
  8
0
 62
     7
 10
132.721
 20
122.9759999999999
 30
0.0
 11
175.43599999999989
 21
122.9759999999999
 31
0.0
  0
LINE
  5
14D
  8
0
 62
     7
 10
131.84
 20
129.97499999999991
 30
0.0
 11
174.93700000000001
 21
129.97499999999991
 31
0.0
  0
LINE
  5
14E
  8
0
 62
     7
 10
43.710799999999999
 20
129.97499999999991
 30
0.0
 11
97.569999999999993
 21
129.97499999999991
 31
0.0
  0
LINE
  5
14F
  8
0
  6
AIGENLINE003
 62
     7
 10
70.640100000000004
 20
132.75999999999991
 30
0.0
 11
70.640100000000004
 21
111.27500000000001
 31
0.0
  0
LINE
  5
150
  8
0
  6
AIGENLINE003
 62
     7
 10
77.6922
 20
209.78200000000001
 30
0.0
 11
63.809100000000001
 21
209.78200000000001
 31
0.0
  0
LINE
  5
151
  8
0
  6
AIGENLINE003
 62
     7
 10
70.640100000000004
 20
232.18600000000001
 30
0.0
 11
70.640100000000004
 21
182.40199999999999
 31
0.0
  0
ARC
  5
152
  8
0
 62
     7
 10
-1065.4580000000001
 20
-28.889915999999989
 30
0.0
 40
1141.8309999999999
 50
7.3197549999999998
 51
7.375985
  0
LINE
  5
153
  8
0
 62
     7
 10
67.067499999999995
 20
116.5869999999999
 30
0.0
 11
67.210099999999997
 21
115.476
 31
0.0
  0
ARC
  5
154
  8
0
 62
     7
 10
56.726340999999998
 20
1091.855
 30
0.0
 40
976.32313599999998
 50
269.76121299999988
 51
269.79234899999989
  0
ARC
  5
155
  8
0
 62
     7
 10
53.408969999999997
 20
165.55872099999999
 30
0.0
 40
50.021000999999991
 50
269.74665899999991
 51
270.83503899999999
  0
ARC
  5
156
  8
0
 62
     7
 10
53.196959
 20
174.67182500000001
 30
0.0
 40
59.136279999999999
 50
270.91175399999997
 51
271.831951
  0
ARC
  5
157
  8
0
 62
     7
 10
56.034750000000003
 20
86.034377000000006
 30
0.0
 40
29.546582999999998
 50
89.915655000000001
 51
91.837328000000014
  0
ARC
  5
158
  8
0
 62
     7
 10
56.082251999999997
 20
138.18398400000001
 30
0.0
 40
22.603055999999999
 50
269.98984200000001
 51
272.60887300000002
  0
ARC
  5
159
  8
0
 62
     7
 10
56.125755000000012
 20
138.08960599999989
 30
0.0
 40
22.50682999999999
 50
272.50917799999991
 51
275.13932599999993
  0
ARC
  5
15A
  8
0
 62
     7
 10
62.817042000000001
 20
62.94595300000001
 30
0.0
 40
52.934165999999998
 50
94.368789000000007
 51
95.066987000000012
  0
ARC
  5
15B
  8
0
 62
     7
 10
58.726970999999992
 20
116.72484799999999
 30
0.0
 40
1.000205
 50
273.31023199999993
 51
288.30084399999993
  0
ARC
  5
15C
  8
0
 62
     7
 10
58.717537
 20
116.764707
 30
0.0
 40
1.0410159999999991
 50
288.10496000000001
 51
302.44286599999998
  0
ARC
  5
15D
  8
0
 62
     7
 10
38.350338999999991
 20
148.74130299999999
 30
0.0
 40
38.953091000000001
 50
302.49334199999993
 51
302.68339300000002
  0
ARC
  5
15E
  8
0
 62
     7
 10
-422.43281699999989
 20
864.856763
 30
0.0
 40
890.50603299999989
 50
302.75587000000002
 51
302.82152500000001
  0
LINE
  5
15F
  8
0
 62
     7
 10
60.242699999999999
 20
116.5079999999999
 30
0.0
 11
61.101199999999999
 21
117.06
 31
0.0
  0
ARC
  5
160
  8
0
 62
     7
 10
26.224229000000001
 20
156.47960699999999
 30
0.0
 40
52.633538999999999
 50
311.50139299999989
 51
311.73516299999989
  0
ARC
  5
161
  8
0
 62
     7
 10
62.105791000000004
 20
116.2484649999999
 30
0.0
 40
1.2740910000000001
 50
111.7751249999999
 51
131.48728799999989
  0
ARC
  5
162
  8
0
 62
     7
 10
62.136451000000001
 20
116.199108
 30
0.0
 40
1.331337999999999
 50
93.396011999999999
 51
112.2124969999999
  0
ARC
  5
163
  8
0
 62
     7
 10
61.893641000000002
 20
121.0065629999999
 30
0.0
 40
3.482316
 50
272.69846200000001
 51
275.41909700000002
  0
ARC
  5
164
  8
0
 62
     7
 10
59.534930000000003
 20
148.11762599999989
 30
0.0
 40
30.695698
 50
275.023008
 51
276.56480099999999
  0
ARC
  5
165
  8
0
 62
     7
 10
65.297201000000001
 20
97.154262000000017
 30
0.0
 40
20.59254399999999
 50
91.955336000000003
 51
96.281023000000005
  0
ARC
  5
166
  8
0
 62
     7
 10
65.307863999999995
 20
97.250271999999995
 30
0.0
 40
20.496959
 50
87.649981999999994
 51
91.994282999999996
  0
LINE
  5
167
  8
0
 62
     7
 10
66.148300000000006
 20
117.73
 30
0.0
 11
66.924199999999999
 21
117.69799999999989
 31
0.0
  0
ARC
  5
168
  8
0
 62
     7
 10
52.477531999999997
 20
-4029.1519999999991
 30
0.0
 40
4146.875
 50
89.774710999999996
 51
89.800386000000003
  0
LINE
  5
169
  8
0
 62
     7
 10
68.782499999999999
 20
117.691
 30
0.0
 11
70.640100000000004
 21
117.6849999999999
 31
0.0
  0
ARC
  5
16A
  8
0
 62
     7
 10
35.029309999999988
 20
120.527505
 30
0.0
 40
13.662489000000001
 50
6.7401339999999994
 51
8.0386820000000014
  0
ARC
  5
16B
  8
0
 62
     7
 10
-63.687001000000002
 20
108.24851
 30
0.0
 40
113.13931599999999
 50
6.4797289999999998
 51
7.0481149999999992
  0
ARC
  5
16C
  8
0
 62
     7
 10
-243.24418799999989
 20
87.673733999999996
 30
0.0
 40
293.87141700000001
 50
6.259911999999999
 51
6.5148250000000001
  0
LINE
  5
16D
  8
0
 62
     7
 10
48.875
 20
119.717
 30
0.0
 11
49.229199999999999
 21
116.4889999999999
 31
0.0
  0
ARC
  5
16E
  8
0
 62
     7
 10
-4.8606600000000002
 20
110.4286279999999
 30
0.0
 40
54.428293999999987
 50
6.099654000000001
 51
6.392976
  0
ARC
  5
16F
  8
0
 62
     7
 10
-1.5974349999999991
 20
-1160.421
 30
0.0
 40
1276.048
 50
87.591665000000006
 51
87.642261000000005
  0
LINE
  5
170
  8
0
 62
     7
 10
52.023200000000003
 20
114.5
 30
0.0
 11
52.0886
 21
114.497
 31
0.0
  0
ARC
  5
171
  8
0
 62
     7
 10
52.098953000000002
 20
114.8354349999999
 30
0.0
 40
0.338498
 50
268.25119100000001
 51
290.86901999999998
  0
ARC
  5
172
  8
0
 62
     7
 10
52.102627000000012
 20
114.845173
 30
0.0
 40
0.346357
 50
289.72714500000001
 51
311.89534700000002
  0
ARC
  5
173
  8
0
 62
     7
 10
43.122684999999997
 20
124.6618129999999
 30
0.0
 40
13.650694
 50
312.43715899999989
 51
312.944726
  0
ARC
  5
174
  8
0
 62
     7
 10
52.193576
 20
114.917117
 30
0.0
 40
0.337538
 50
312.77370200000001
 51
331.78688399999999
  0
ARC
  5
175
  8
0
 62
     7
 10
52.186425999999997
 20
114.9220909999999
 30
0.0
 40
0.346191
 50
331.62089800000001
 51
350.16640000000001
  0
ARC
  5
176
  8
0
 62
     7
 10
59.816552999999999
 20
113.5833719999999
 30
0.0
 40
7.400485999999999
 50
168.2533139999999
 51
170.0431199999999
  0
ARC
  5
177
  8
0
 62
     7
 10
-691.26152499999989
 20
257.69981300000001
 30
0.0
 40
757.379998
 50
349.14678300000003
 51
349.181465
  0
ARC
  5
178
  8
0
 62
     7
 10
97.504711999999984
 20
128.5961199999999
 30
0.0
 40
1.3807430000000001
 50
83.18718100000001
 51
87.288628000000017
  0
ARC
  5
179
  8
0
 62
     7
 10
97.611362999999997
 20
129.46178299999991
 30
0.0
 40
0.508551
 50
67.788798999999983
 51
83.548599999999993
  0
ARC
  5
17A
  8
0
 62
     7
 10
97.624596999999994
 20
129.55312299999991
 30
0.0
 40
0.4195770000000001
 50
42.800040000000003
 51
64.745423000000002
  0
ARC
  5
17B
  8
0
 62
     7
 10
90.337137999999996
 20
122.78288499999999
 30
0.0
 40
10.366595999999999
 50
42.037348999999992
 51
42.889119000000001
  0
ARC
  5
17C
  8
0
 62
     7
 10
97.741596000000001
 20
129.456053
 30
0.0
 40
0.398794
 50
19.965071999999989
 51
42.312865999999993
  0
ARC
  5
17D
  8
0
 62
     7
 10
97.724425999999994
 20
129.444536
 30
0.0
 40
0.418894
 50
359.37215800000001
 51
20.643799999999992
  0
ARC
  5
17E
  8
0
 62
     7
 10
57.347971999999999
 20
129.94860299999991
 30
0.0
 40
40.798493000000001
 50
358.48337400000003
 51
359.28564299999988
  0
ARC
  5
17F
  8
0
 62
     7
 10
-397.66658899999987
 20
138.82300199999989
 30
0.0
 40
495.8986789999999
 50
358.79232500000001
 51
358.84982000000002
  0
ARC
  5
180
  8
0
 62
     7
 10
72.532650000000004
 20
128.87898399999989
 30
0.0
 40
25.594321000000001
 50
354.41539799999998
 51
358.86335200000002
  0
ARC
  5
181
  8
0
 62
     7
 10
72.552218999999994
 20
128.85864100000001
 30
0.0
 40
25.572872
 50
350.00244300000003
 51
354.45649199999991
  0
ARC
  5
182
  8
0
 62
     7
 10
-1.2981320000000001
 20
141.79313200000001
 30
0.0
 40
100.547359
 50
349.45591400000001
 51
350.04962399999988
  0
ARC
  5
183
  8
0
 62
     7
 10
97.169103000000021
 20
123.46077199999991
 30
0.0
 40
0.388148
 50
326.338097
 51
350.05908899999997
  0
ARC
  5
184
  8
0
 62
     7
 10
97.130659999999992
 20
123.475983
 30
0.0
 40
0.4286640000000001
 50
305.99846200000002
 51
327.49411099999992
  0
ARC
  5
185
  8
0
 62
     7
 10
85.096118000000004
 20
140.439854
 30
0.0
 40
21.22775
 50
304.98807900000003
 51
305.36577199999988
  0
ARC
  5
186
  8
0
 62
     7
 10
97.049670999999989
 20
123.35834199999989
 30
0.0
 40
0.3791199999999999
 50
286.49289800000003
 51
305.20489900000001
  0
ARC
  5
187
  8
0
 62
     7
 10
97.033513999999997
 20
123.38221899999991
 30
0.0
 40
0.406695
 50
270.25793299999992
 51
287.72058199999998
  0
LINE
  5
188
  8
0
 62
     7
 10
97.035300000000007
 20
122.9759999999999
 30
0.0
 11
96.974000000000004
 21
122.9759999999999
 31
0.0
  0
ARC
  5
189
  8
0
 62
     7
 10
44.267518000000003
 20
-16.020134999999989
 30
0.0
 40
138.99566799999999
 50
89.983801
 51
90.016179000000008
  0
ARC
  5
18A
  8
0
 62
     7
 10
44.229044999999999
 20
123.3766539999999
 30
0.0
 40
0.401127
 50
246.81889599999991
 51
269.88549799999993
  0
ARC
  5
18B
  8
0
 62
     7
 10
44.23463499999999
 20
123.401162
 30
0.0
 40
0.4258810000000001
 50
225.8822319999999
 51
247.42547599999989
  0
ARC
  5
18C
  8
0
 62
     7
 10
34.266328000000001
 20
113.4551679999999
 30
0.0
 40
13.655725
 50
44.906283000000002
 51
45.492978999999998
  0
ARC
  5
18D
  8
0
 62
     7
 10
44.118966
 20
123.4728709999999
 30
0.0
 40
0.395233
 50
206.93202899999989
 51
224.88744800000001
  0
ARC
  5
18E
  8
0
 62
     7
 10
44.132362000000001
 20
123.48642
 30
0.0
 40
0.413357
 50
190.514229
 51
207.7653709999999
  0
ARC
  5
18F
  8
0
 62
     7
 10
12.343579999999999
 20
117.9233399999999
 30
0.0
 40
31.858549
 50
9.9186920000000001
 51
10.840234000000001
  0
ARC
  5
190
  8
0
 62
     7
 10
138.31686999999991
 20
141.00382899999991
 30
0.0
 40
96.213015000000013
 50
189.92600200000001
 51
190.23085499999991
  0
ARC
  5
191
  8
0
 62
     7
 10
68.598717000000008
 20
128.8409179999999
 30
0.0
 40
25.441890000000001
 50
185.5320569999999
 51
190.00904799999989
  0
ARC
  5
192
  8
0
 62
     7
 10
69.249881999999999
 20
128.908445
 30
0.0
 40
26.096532
 50
181.17948799999991
 51
185.5418019999999
  0
ARC
  5
193
  8
0
 62
     7
 10
1733.8829999999989
 20
163.70025000000001
 30
0.0
 40
1691.0930000000001
 50
181.160776
 51
181.19708499999999
  0
ARC
  5
194
  8
0
 62
     7
 10
43.526220000000002
 20
129.45218600000001
 30
0.0
 40
0.389506
 50
157.72975699999989
 51
181.395295
  0
ARC
  5
195
  8
0
 62
     7
 10
43.561928000000002
 20
129.4437189999999
 30
0.0
 40
0.4257970000000001
 50
136.8643919999999
 51
158.496342
  0
ARC
  5
196
  8
0
 62
     7
 10
54.330277000000002
 20
119.241407
 30
0.0
 40
15.259688000000001
 50
135.974963
 51
136.55500900000001
  0
ARC
  5
197
  8
0
 62
     7
 10
43.644237999999987
 20
129.57023199999989
 30
0.0
 40
0.397789
 50
113.63099799999991
 51
136.01795200000001
  0
ARC
  5
198
  8
0
 62
     7
 10
43.607053000000001
 20
129.66650100000001
 30
0.0
 40
0.294721
 50
104.911123
 51
114.51008299999999
  0
ARC
  5
199
  8
0
 62
     7
 10
43.685251000000001
 20
129.38235
 30
0.0
 40
0.589432
 50
96.978247999999994
 51
105.1489729999999
  0
ARC
  5
19A
  8
0
 62
     7
 10
43.753301
 20
128.85156599999991
 30
0.0
 40
1.1245549999999991
 50
92.166613999999996
 51
97.134127000000007
  0
ARC
  5
19B
  8
0
 62
     7
 10
70.640233999999992
 20
209.7819749999999
 30
0.0
 40
4.000299
 50
0.002477
 51
90.002447000000004
  0
ARC
  5
19C
  8
0
 62
     7
 10
70.640235000000004
 20
209.782319
 30
0.0
 40
3.9999539999999998
 50
90.00246700000001
 51
180.002477
  0
ARC
  5
19D
  8
0
 62
     7
 10
70.640233999999992
 20
209.7819749999999
 30
0.0
 40
3.9999530000000001
 50
179.99750299999991
 51
269.99755199999993
  0
ARC
  5
19E
  8
0
 62
     7
 10
70.640233999999992
 20
209.78232
 30
0.0
 40
4.000299
 50
269.99755299999993
 51
359.997523
  0
ARC
  5
19F
  8
0
 62
     7
 10
70.551918999999998
 20
209.69400400000001
 30
0.0
 40
2.3897300000000001
 50
2.113801
 51
87.886189000000016
  0
ARC
  5
1A0
  8
0
 62
     7
 10
70.728613999999993
 20
209.6935959999999
 30
0.0
 40
2.3901520000000001
 50
92.123187000000001
 51
177.87678299999999
  0
ARC
  5
1A1
  8
0
 62
     7
 10
70.728205000000003
 20
209.87029100000001
 30
0.0
 40
2.3897289999999991
 50
182.11380299999999
 51
267.88622700000002
  0
ARC
  5
1A2
  8
0
 62
     7
 10
70.551526999999993
 20
209.87068300000001
 30
0.0
 40
2.390136
 50
272.12285400000002
 51
357.8771549999999
  0
LINE
  5
1A3
  8
0
  6
AIGENLINE003
 62
     7
 10
80.640499999999989
 20
220.91300000000001
 30
0.0
 11
80.640499999999989
 21
226.22599999999991
 31
0.0
  0
LINE
  5
1A4
  8
0
  6
AIGENLINE003
 62
     7
 10
77.994699999999995
 20
223.28200000000001
 30
0.0
 11
82.966700000000003
 21
223.28200000000001
 31
0.0
  0
LINE
  5
1A5
  8
0
  6
AIGENLINE003
 62
     7
 10
73.404399999999995
 20
223.28200000000001
 30
0.0
 11
67.748199999999997
 21
223.28200000000001
 31
0.0
  0
ARC
  5
1A6
  8
0
  6
AIGENLINE001
 62
     7
 10
80.582981000000004
 20
223.22427200000001
 30
0.0
 40
1.5586349999999991
 50
2.1166839999999998
 51
87.883306000000005
  0
ARC
  5
1A7
  8
0
  6
AIGENLINE001
 62
     7
 10
80.698487999999998
 20
223.2238999999999
 30
0.0
 40
1.5590209999999991
 50
92.129823000000002
 51
177.870147
  0
ARC
  5
1A8
  8
0
  6
AIGENLINE001
 62
     7
 10
80.698095999999993
 20
223.33938699999999
 30
0.0
 40
1.5586139999999991
 50
182.11597299999991
 51
267.88405599999987
  0
ARC
  5
1A9
  8
0
  6
AIGENLINE001
 62
     7
 10
80.582594
 20
223.33979500000001
 30
0.0
 40
1.559037
 50
272.13038899999998
 51
357.86962099999988
  0
LINE
  5
1AA
  8
0
  6
AIGENLINE003
 62
     7
 10
60.640300000000003
 20
220.30699999999999
 30
0.0
 11
60.640300000000003
 21
226.20099999999999
 31
0.0
  0
LINE
  5
1AB
  8
0
  6
AIGENLINE003
 62
     7
 10
57.667099999999991
 20
223.28200000000001
 30
0.0
 11
63.671300000000002
 21
223.28200000000001
 31
0.0
  0
ARC
  5
1AC
  8
0
  6
AIGENLINE001
 62
     7
 10
60.582697000000003
 20
223.22427200000001
 30
0.0
 40
1.5586349999999991
 50
2.1166839999999998
 51
87.883306000000005
  0
ARC
  5
1AD
  8
0
  6
AIGENLINE001
 62
     7
 10
60.698219999999992
 20
223.22388499999991
 30
0.0
 40
1.559037
 50
92.130370000000013
 51
177.86960099999999
  0
ARC
  5
1AE
  8
0
  6
AIGENLINE001
 62
     7
 10
60.697811999999999
 20
223.33938699999999
 30
0.0
 40
1.5586139999999991
 50
182.11597299999991
 51
267.88405599999987
  0
ARC
  5
1AF
  8
0
  6
AIGENLINE001
 62
     7
 10
60.58231
 20
223.33979500000001
 30
0.0
 40
1.559037
 50
272.13038899999998
 51
357.86962099999988
  0
LINE
  5
1B0
  8
0
  6
AIGENLINE003
 62
     7
 10
172.452
 20
123.97499999999989
 30
0.0
 11
177.90599999999989
 21
123.97499999999989
 31
0.0
  0
LINE
  5
1B1
  8
0
  6
AIGENLINE003
 62
     7
 10
82.1006
 20
123.97499999999989
 30
0.0
 11
87.554199999999994
 21
123.97499999999989
 31
0.0
  0
LINE
  5
1B2
  8
0
  6
AIGENLINE001
 62
     7
 10
85.140600000000006
 20
124.97499999999989
 30
0.0
 11
84.140100000000004
 21
124.97499999999989
 31
0.0
  0
LINE
  5
1B3
  8
0
  6
AIGENLINE001
 62
     7
 10
85.140600000000006
 20
122.97499999999989
 30
0.0
 11
84.140100000000004
 21
122.97499999999989
 31
0.0
  0
ARC
  5
1B4
  8
0
  6
AIGENLINE001
 62
     7
 10
85.101926000000006
 20
124.01359100000001
 30
0.0
 40
1.0391259999999991
 50
272.13077099999998
 51
357.86923899999999
  0
ARC
  5
1B5
  8
0
  6
AIGENLINE001
 62
     7
 10
85.101635999999999
 20
123.9367469999999
 30
0.0
 40
1.039401
 50
2.1067269999999998
 51
87.853789000000035
  0
ARC
  5
1B6
  8
0
  6
AIGENLINE001
 62
     7
 10
84.178781999999998
 20
123.9369879999999
 30
0.0
 40
1.03915
 50
92.133369999999999
 51
177.90607299999991
  0
ARC
  5
1B7
  8
0
  6
AIGENLINE001
 62
     7
 10
84.178335999999987
 20
124.0131939999999
 30
0.0
 40
1.038713999999999
 50
182.10967400000001
 51
267.890356
  0
LINE
  5
1B8
  8
0
  6
AIGENLINE003
 62
     7
 10
84.640299999999996
 20
233.274
 30
0.0
 11
84.640299999999996
 21
226.97399999999999
 31
0.0
  0
LINE
  5
1B9
  8
0
  6
AIGENLINE003
 62
     7
 10
56.639800000000001
 20
233.274
 30
0.0
 11
56.639800000000001
 21
227.084
 31
0.0
  0
LINE
  5
1BA
  8
0
  6
AIGENLINE003
 62
     7
 10
84.640299999999996
 20
125.93600000000001
 30
0.0
 11
84.640299999999996
 21
122.0239999999999
 31
0.0
  0
LINE
  5
1BB
  8
0
  6
AIGENLINE003
 62
     7
 10
54.39009999999999
 20
123.97499999999989
 30
0.0
 11
58.6111
 21
123.97499999999989
 31
0.0
  0
LINE
  5
1BC
  8
0
  6
AIGENLINE001
 62
     7
 10
56.140300000000003
 20
124.97499999999989
 30
0.0
 11
57.140000000000001
 21
124.97499999999989
 31
0.0
  0
ARC
  5
1BD
  8
0
  6
AIGENLINE001
 62
     7
 10
57.101424000000002
 20
124.014274
 30
0.0
 40
1.039806999999999
 50
272.12753900000001
 51
357.83299799999992
  0
ARC
  5
1BE
  8
0
  6
AIGENLINE001
 62
     7
 10
57.140025999999999
 20
123.97495600000001
 30
0.0
 40
1.000462
 50
0.00001
 51
89.999980000000008
  0
LINE
  5
1BF
  8
0
  6
AIGENLINE001
 62
     7
 10
57.140000000000001
 20
122.97499999999989
 30
0.0
 11
56.140300000000003
 21
122.97499999999989
 31
0.0
  0
LINE
  5
1C0
  8
0
  6
AIGENLINE003
 62
     7
 10
56.639800000000001
 20
125.93600000000001
 30
0.0
 11
56.639800000000001
 21
122.13500000000001
 31
0.0
  0
ARC
  5
1C1
  8
0
  6
AIGENLINE001
 62
     7
 10
56.140253000000001
 20
123.97495600000001
 30
0.0
 40
1.000462
 50
90.0
 51
179.99996999999991
  0
ARC
  5
1C2
  8
0
  6
AIGENLINE001
 62
     7
 10
56.177824000000001
 20
124.01324199999991
 30
0.0
 40
1.038738999999999
 50
182.112313
 51
267.92718999999988
  0
LINE
  5
1C3
  8
0
 62
     7
 10
90.479099999999988
 20
132.18700000000001
 30
0.0
 11
91.071700000000007
 21
129.97499999999991
 31
0.0
  0
LINE
  5
1C4
  8
0
 62
     7
 10
91.071700000000007
 20
129.97499999999991
 30
0.0
 11
91.664199999999994
 21
132.18700000000001
 31
0.0
  0
LINE
  5
1C5
  8
0
 62
     7
 10
91.664199999999994
 20
132.18700000000001
 30
0.0
 11
90.479099999999988
 21
132.18700000000001
 31
0.0
  0
LINE
  5
1C6
  8
0
 62
     7
 10
155.001
 20
127.7639999999999
 30
0.0
 11
154.4079999999999
 21
129.97499999999991
 31
0.0
  0
LINE
  5
1C7
  8
0
 62
     7
 10
154.4079999999999
 20
129.97499999999991
 30
0.0
 11
153.81599999999989
 21
127.7639999999999
 31
0.0
  0
LINE
  5
1C8
  8
0
 62
     7
 10
153.81599999999989
 20
127.7639999999999
 30
0.0
 11
155.001
 21
127.7639999999999
 31
0.0
  0
LINE
  5
1C9
  8
0
 62
     7
 10
154.4079999999999
 20
119.47499999999989
 30
0.0
 11
154.4079999999999
 21
129.97499999999991
 31
0.0
  0
LINE
  5
1CA
  8
0
 62
     7
 10
91.664199999999994
 20
121.764
 30
0.0
 11
91.071700000000007
 21
123.9759999999999
 31
0.0
  0
LINE
  5
1CB
  8
0
 62
     7
 10
91.071700000000007
 20
123.9759999999999
 30
0.0
 11
90.479099999999988
 21
121.764
 31
0.0
  0
LINE
  5
1CC
  8
0
 62
     7
 10
90.479099999999988
 20
121.764
 30
0.0
 11
91.664199999999994
 21
121.764
 31
0.0
  0
LINE
  5
1CD
  8
0
 62
     7
 10
91.071700000000007
 20
120.7359999999999
 30
0.0
 11
91.071700000000007
 21
136.30999999999989
 31
0.0
  0
LINE
  5
1CE
  8
0
 62
     7
 10
91.771699999999996
 20
123.9759999999999
 30
0.0
 11
88.254300000000001
 21
123.9759999999999
 31
0.0
  0
LINE
  5
1CF
  8
0
 62
     7
 10
104.7429999999999
 20
125.18600000000001
 30
0.0
 11
105.336
 21
122.9739999999999
 31
0.0
  0
LINE
  5
1D0
  8
0
 62
     7
 10
105.336
 20
122.9739999999999
 30
0.0
 11
105.9279999999999
 21
125.18600000000001
 31
0.0
  0
LINE
  5
1D1
  8
0
 62
     7
 10
105.9279999999999
 20
125.18600000000001
 30
0.0
 11
104.7429999999999
 21
125.18600000000001
 31
0.0
  0
LINE
  5
1D2
  8
0
 62
     7
 10
105.92099999999991
 20
127.7639999999999
 30
0.0
 11
105.32899999999999
 21
129.97499999999991
 31
0.0
  0
LINE
  5
1D3
  8
0
 62
     7
 10
105.32899999999999
 20
129.97499999999991
 30
0.0
 11
104.736
 21
127.7639999999999
 31
0.0
  0
LINE
  5
1D4
  8
0
 62
     7
 10
104.736
 20
127.7639999999999
 30
0.0
 11
105.92099999999991
 21
127.7639999999999
 31
0.0
  0
LINE
  5
1D5
  8
0
 62
     7
 10
105.32899999999999
 20
122.9759999999999
 30
0.0
 11
105.32899999999999
 21
129.97499999999991
 31
0.0
  0
LINE
  5
1D6
  8
0
 62
     7
 10
96.974000000000004
 20
122.9759999999999
 30
0.0
 11
44.306800000000003
 21
122.9759999999999
 31
0.0
  0
LINE
  5
1D7
  8
0
 62
     7
 10
106.0289999999999
 20
122.9759999999999
 30
0.0
 11
98.431700000000006
 21
122.9759999999999
 31
0.0
  0
TEXT
  5
1D8
  8
_________2
 62
     7
 10
29.525700000000001
 20
22.2272
 30
0.0
 40
4.6583899999999989
  1
実容量：3.0L、重量17.0kg、オーバーフロー付
 41
0.5
  0
LINE
  5
1D9
  8
_________2
 62
     7
 10
105.2389999999999
 20
17.428499999999989
 30
0.0
 11
105.2389999999999
 21
0.4485540000000001
 31
0.0
  0
LINE
  5
1DA
  8
_________2
 62
     7
 10
81.679900000000004
 20
51.324300000000001
 30
0.0
 11
79.493700000000004
 21
51.324300000000001
 31
0.0
  0
LINE
  5
1DB
  8
_________2
 62
     7
 10
82.172600000000017
 20
51.324300000000001
 30
0.0
 11
81.920400000000001
 21
51.324300000000001
 31
0.0
  0
LINE
  5
1DC
  8
_________2
 62
     7
 10
82.665199999999984
 20
51.324300000000001
 30
0.0
 11
85.590100000000007
 21
51.324300000000001
 31
0.0
  0
LINE
  5
1DD
  8
_________2
 62
     7
 10
82.172600000000017
 20
51.324300000000001
 30
0.0
 11
82.424800000000005
 21
51.324300000000001
 31
0.0
  0
LINE
  5
1DE
  8
_________2
 62
     7
 10
75.776399999999995
 20
51.324300000000001
 30
0.0
 11
73.589399999999998
 21
51.324300000000001
 31
0.0
  0
LINE
  5
1DF
  8
_________2
 62
     7
 10
76.2684
 20
51.324300000000001
 30
0.0
 11
76.016900000000007
 21
51.324300000000001
 31
0.0
  0
LINE
  5
1E0
  8
_________2
 62
     7
 10
76.2684
 20
51.817
 30
0.0
 11
76.2684
 21
54.003900000000002
 31
0.0
  0
LINE
  5
1E1
  8
_________2
 62
     7
 10
76.2684
 20
51.324300000000001
 30
0.0
 11
76.2684
 21
51.576900000000002
 31
0.0
  0
LINE
  5
1E2
  8
_________2
 62
     7
 10
76.76100000000001
 20
51.324300000000001
 30
0.0
 11
78.947999999999993
 21
51.324300000000001
 31
0.0
  0
LINE
  5
1E3
  8
_________2
 62
     7
 10
76.2684
 20
51.324300000000001
 30
0.0
 11
76.520499999999998
 21
51.324300000000001
 31
0.0
  0
LINE
  5
1E4
  8
_________2
 62
     7
 10
76.2684
 20
50.832399999999993
 30
0.0
 11
76.2684
 21
48.645699999999998
 31
0.0
  0
LINE
  5
1E5
  8
_________2
 62
     7
 10
76.2684
 20
51.324300000000001
 30
0.0
 11
76.2684
 21
51.072800000000001
 31
0.0
  0
LINE
  5
1E6
  8
_________2
 62
     7
 10
79.979399999999984
 20
50.104799999999997
 30
0.0
 11
85.157399999999996
 21
49.240000000000002
 31
0.0
  0
LINE
  5
1E7
  8
_________2
 62
     7
 10
79.979399999999984
 20
52.544199999999989
 30
0.0
 11
85.157399999999996
 21
53.409700000000001
 31
0.0
  0
LINE
  5
1E8
  8
_________2
 62
     7
 10
85.157399999999996
 20
49.240000000000002
 30
0.0
 11
85.157399999999996
 21
53.409700000000001
 31
0.0
  0
LINE
  5
1E9
  8
_________2
 62
     7
 10
79.979399999999984
 20
50.104799999999997
 30
0.0
 11
79.979399999999984
 21
52.544199999999989
 31
0.0
  0
ARC
  5
1EA
  8
_________2
 62
     7
 10
76.221766000000002
 20
51.277380999999998
 30
0.0
 40
1.267714
 50
2.1220840000000001
 51
87.894083999999992
  0
ARC
  5
1EB
  8
_________2
 62
     7
 10
76.315297000000001
 20
51.277734999999993
 30
0.0
 40
1.267374999999999
 50
92.122849999999985
 51
177.893304
  0
ARC
  5
1EC
  8
_________2
 62
     7
 10
76.315273000000005
 20
51.371245999999992
 30
0.0
 40
1.267363
 50
182.12181499999991
 51
267.87821400000001
  0
ARC
  5
1ED
  8
_________2
 62
     7
 10
76.221461000000005
 20
51.371928999999987
 30
0.0
 40
1.2680439999999991
 50
272.11916400000001
 51
357.84848499999993
  0
ARC
  5
1EE
  8
_________2
 62
     7
 10
76.187981999999991
 20
51.244312999999998
 30
0.0
 40
2.1668310000000002
 50
2.1161439999999989
 51
87.874379000000005
  0
ARC
  5
1EF
  8
_________2
 62
     7
 10
76.348411999999996
 20
51.245334999999997
 30
0.0
 40
2.1657980000000001
 50
92.118487999999999
 51
177.90988599999989
  0
ARC
  5
1F0
  8
_________2
 62
     7
 10
76.348354
 20
51.404327000000002
 30
0.0
 40
2.1657779999999991
 50
182.11700400000001
 51
267.88302499999992
  0
ARC
  5
1F1
  8
_________2
 62
     7
 10
76.188378999999983
 20
51.405009999999997
 30
0.0
 40
2.1664590000000001
 50
272.11546800000002
 51
357.86560400000002
  0
TEXT
  5
1F2
  8
_________2
 62
     7
 10
109.5439999999999
 20
23.199100000000001
 30
0.0
 40
3.660169999999999
  1
図番
 41
0.5
  0
LINE
  5
1F3
  8
_________2
 62
     7
 10
108.4889999999999
 20
27.4283
 30
0.0
 11
188.49000000000001
 21
27.4283
 31
0.0
  0
TEXT
  5
1F4
  8
_________2
 62
     7
 10
109.5439999999999
 20
33.198900000000002
 30
0.0
 40
3.660169999999999
  1
品番
 41
0.5
  0
TEXT
  5
1F5
  8
_________2
 62
     7
 10
109.5439999999999
 20
53.338000000000001
 30
0.0
 40
3.660169999999999
  1
名称
 41
0.5
  0
TEXT
  5
1F6
  8
_________2
 62
     7
 10
96.504445833333335
 20
48.341900000000003
 30
0.0
 40
4.3256500000000004
  1
mm
 41
0.5
 72
     1
 11
98.306799999999996
 21
48.341900000000003
 31
0.0
  0
TEXT
  5
1F7
  8
_________2
 62
     7
 10
90.582099999999997
 20
53.338000000000001
 30
0.0
 40
3.660169999999999
  1
単位
 41
0.5
  0
TEXT
  5
1F8
  8
_________2
 62
     7
 10
90.582099999999997
 20
40.930399999999999
 30
0.0
 40
3.660169999999999
  1
尺度
 41
0.5
  0
TEXT
  5
1F9
  8
_________2
 62
     7
 10
94.320620416666657
 20
34.7378
 30
0.0
 40
4.3256500000000004
  1
1 ： 10
 41
0.5
 72
     1
 11
98.898600000000002
 21
34.7378
 31
0.0
  0
TEXT
  5
1FA
  8
_________2
 62
     7
 10
139.94861833333329
 20
30.627800000000001
 30
0.0
 40
4.6583899999999989
  1
VB711355
 41
0.5
 72
     1
 11
148.489
 21
30.627800000000001
 31
0.0
  0
TEXT
  5
1FB
  8
_________2
 62
     7
 10
139.94861833333329
 20
20.626999999999988
 30
0.0
 40
4.6583899999999989
  1
VB711355
 41
0.5
 72
     1
 11
148.489
 21
20.626999999999988
 31
0.0
  0
TEXT
  5
1FC
  8
_________2
 62
     7
 10
114.11799999999999
 20
45.745600000000003
 30
0.0
 40
4.6583899999999989
  1
サブウェイ2 洗面器
 41
0.5
  0
TEXT
  5
1FD
  8
_________2
 62
     7
 10
44.01748083333333
 20
35.122999999999998
 30
0.0
 40
4.3256500000000004
  1
早川
 41
0.5
 72
     1
 11
46.252400000000002
 21
35.122999999999998
 31
0.0
  0
TEXT
  5
1FE
  8
_________2
 62
     7
 10
25.443480833333329
 20
35.122999999999998
 30
0.0
 40
4.3256500000000004
  1
福田
 41
0.5
 72
     1
 11
27.6784
 21
35.122999999999998
 31
0.0
  0
TEXT
  5
1FF
  8
_________2
 62
     7
 10
72.724699999999999
 20
34.7378
 30
0.0
 40
4.3256500000000004
  1
14.05.07
 41
0.5
  0
TEXT
  5
200
  8
_________2
 62
     7
 10
71.531999999999996
 20
40.930399999999999
 30
0.0
 40
3.660169999999999
  1
日付
 41
0.5
  0
TEXT
  5
201
  8
_________2
 62
     7
 10
34.578299999999992
 20
40.930399999999999
 30
0.0
 40
3.660169999999999
  1
検図
 41
0.5
  0
TEXT
  5
202
  8
_________2
 62
     7
 10
22.96019999999999
 20
26.730999999999991
 30
0.0
 40
3.660169999999999
  1
備考
 41
0.5
  0
TEXT
  5
203
  8
_________2
 62
     7
 10
22.96019999999999
 20
40.930399999999999
 30
0.0
 40
3.660169999999999
  1
製図
 41
0.5
  0
TEXT
  5
204
  8
_________2
 62
     7
 10
25.533730666666681
 20
49.456400000000002
 30
0.0
 40
5.3238799999999991
  1
セラトレーディング株式会社
 41
0.5
 72
     1
 11
46.119399999999992
 21
49.456400000000002
 31
0.0
  0
LINE
  5
205
  8
_________2
 62
     7
 10
188.49000000000001
 20
17.428499999999989
 30
0.0
 11
21.988499999999991
 21
17.428499999999989
 31
0.0
  0
LINE
  5
206
  8
_________2
 62
     7
 10
21.988499999999991
 20
17.428499999999989
 30
0.0
 11
21.988499999999991
 21
280.42999999999989
 31
0.0
  0
LINE
  5
207
  8
_________2
 62
     7
 10
21.988499999999991
 20
280.42999999999989
 30
0.0
 11
188.49000000000001
 21
280.42999999999989
 31
0.0
  0
LINE
  5
208
  8
_________2
 62
     7
 10
188.49000000000001
 20
280.42999999999989
 30
0.0
 11
188.49000000000001
 21
17.428499999999989
 31
0.0
  0
LINE
  5
209
  8
_________2
 62
     7
 10
70.488799999999998
 20
30.928899999999999
 30
0.0
 11
70.488799999999998
 21
57.428699999999992
 31
0.0
  0
LINE
  5
20A
  8
_________2
 62
     7
 10
89.488600000000005
 20
30.928899999999999
 30
0.0
 11
89.488600000000005
 21
57.428699999999992
 31
0.0
  0
LINE
  5
20B
  8
_________2
 62
     7
 10
108.4889999999999
 20
17.428499999999989
 30
0.0
 11
108.4889999999999
 21
57.428699999999992
 31
0.0
  0
LINE
  5
20C
  8
_________2
 62
     7
 10
33.488300000000002
 20
30.928899999999999
 30
0.0
 11
33.488300000000002
 21
44.928800000000003
 31
0.0
  0
LINE
  5
20D
  8
_________2
 62
     7
 10
21.988499999999991
 20
30.928899999999999
 30
0.0
 11
108.4889999999999
 21
30.928899999999999
 31
0.0
  0
LINE
  5
20E
  8
_________2
 62
     7
 10
21.988499999999991
 20
44.928800000000003
 30
0.0
 11
108.4889999999999
 21
44.928800000000003
 31
0.0
  0
LINE
  5
20F
  8
_________2
 62
     7
 10
108.4889999999999
 20
37.428100000000001
 30
0.0
 11
188.49000000000001
 21
37.428100000000001
 31
0.0
  0
LINE
  5
210
  8
_________2
 62
     7
 10
21.988499999999991
 20
57.428699999999992
 30
0.0
 11
188.49000000000001
 21
57.428699999999992
 31
0.0
  0
LINE
  5
211
  8
_________2
 62
     7
 10
210.24000000000001
 20
148.93100000000001
 30
0.0
 11
188.489
 21
148.93100000000001
 31
0.0
  0
LINE
  5
212
  8
_________2
 62
     7
 10
105.2389999999999
 20
297.45099999999991
 30
0.0
 11
105.2389999999999
 21
280.42999999999989
 31
0.0
  0
LINE
  5
213
  8
_________2
 62
     7
 10
21.988499999999991
 20
148.93100000000001
 30
0.0
 11
0.238402
 21
148.93100000000001
 31
0.0
  0
ENDSEC
  0
EOF
