  0
SECTION
  2
HEADER
  9
$ACADVER
  1
AC1009
  9
$INSBASE
 10
0.0
 20
0.0
 30
0.0
  9
$EXTMIN
 10
0.238402
 20
0.4485540000000001
 30
0.0
  9
$EXTMAX
 10
210.24000000000001
 20
297.45099999999991
 30
0.0
  9
$LIMMIN
 10
0.0
 20
0.0
  9
$LIMMAX
 10
12.0
 20
9.0
  9
$ORTHOMODE
 70
     0
  9
$REGENMODE
 70
     1
  9
$FILLMODE
 70
     1
  9
$QTEXTMODE
 70
     0
  9
$MIRRTEXT
 70
     1
  9
$DRAGMODE
 70
     2
  9
$LTSCALE
 40
1.0
  9
$OSMODE
 70
    37
  9
$ATTMODE
 70
     1
  9
$TEXTSIZE
 40
0.0
  9
$TRACEWID
 40
0.05
  9
$TEXTSTYLE
  7
STANDARD
  9
$CLAYER
  8
0
  9
$CELTYPE
  6
CONTINUOUS
  9
$CECOLOR
 62
   256
  9
$DIMSCALE
 40
1.0
  9
$DIMASZ
 40
0.18
  9
$DIMEXO
 40
0.0625
  9
$DIMDLI
 40
0.38
  9
$DIMRND
 40
0.0
  9
$DIMDLE
 40
0.0
  9
$DIMEXE
 40
0.18
  9
$DIMTP
 40
0.0
  9
$DIMTM
 40
0.0
  9
$DIMTXT
 40
0.18
  9
$DIMCEN
 40
0.09
  9
$DIMTSZ
 40
0.0
  9
$DIMTOL
 70
     0
  9
$DIMLIM
 70
     0
  9
$DIMTIH
 70
     1
  9
$DIMTOH
 70
     1
  9
$DIMSE1
 70
     0
  9
$DIMSE2
 70
     0
  9
$DIMTAD
 70
     0
  9
$DIMZIN
 70
     0
  9
$DIMBLK
  1

  9
$DIMASO
 70
     1
  9
$DIMSHO
 70
     1
  9
$DIMPOST
  1

  9
$DIMAPOST
  1

  9
$DIMALT
 70
     0
  9
$DIMALTD
 70
     2
  9
$DIMALTF
 40
25.399999999999999
  9
$DIMLFAC
 40
1.0
  9
$DIMTOFL
 70
     0
  9
$DIMTVP
 40
0.0
  9
$DIMTIX
 70
     0
  9
$DIMSOXD
 70
     0
  9
$DIMSAH
 70
     0
  9
$DIMBLK1
  1

  9
$DIMBLK2
  1

  9
$DIMSTYLE
  2
STANDARD
  9
$DIMCLRD
 70
     0
  9
$DIMCLRE
 70
     0
  9
$DIMCLRT
 70
     0
  9
$DIMTFAC
 40
1.0
  9
$DIMGAP
 40
0.09
  9
$LUNITS
 70
     2
  9
$LUPREC
 70
     4
  9
$SKETCHINC
 40
0.1
  9
$FILLETRAD
 40
0.0
  9
$AUNITS
 70
     0
  9
$AUPREC
 70
     0
  9
$MENU
  1
.
  9
$ELEVATION
 40
0.0
  9
$PELEVATION
 40
0.0
  9
$THICKNESS
 40
0.0
  9
$LIMCHECK
 70
     0
  9
$BLIPMODE
 70
     0
  9
$CHAMFERA
 40
0.0
  9
$CHAMFERB
 40
0.0
  9
$SKPOLY
 70
     0
  9
$TDCREATE
 40
2444972.375
  9
$TDUPDATE
 40
2456787.2486865511
  9
$TDINDWG
 40
0.0000063194
  9
$TDUSRTIMER
 40
0.0000063194
  9
$USRTIMER
 70
     1
  9
$ANGBASE
 50
0.0
  9
$ANGDIR
 70
     0
  9
$PDMODE
 70
     0
  9
$PDSIZE
 40
0.0
  9
$PLINEWID
 40
0.0
  9
$COORDS
 70
     1
  9
$SPLFRAME
 70
     0
  9
$SPLINETYPE
 70
     6
  9
$SPLINESEGS
 70
     8
  9
$ATTDIA
 70
     0
  9
$ATTREQ
 70
     1
  9
$HANDLING
 70
     1
  9
$HANDSEED
  5
236
  9
$SURFTAB1
 70
     6
  9
$SURFTAB2
 70
     6
  9
$SURFTYPE
 70
     6
  9
$SURFU
 70
     6
  9
$SURFV
 70
     6
  9
$UCSNAME
  2

  9
$UCSORG
 10
0.0
 20
0.0
 30
0.0
  9
$UCSXDIR
 10
1.0
 20
0.0
 30
0.0
  9
$UCSYDIR
 10
0.0
 20
1.0
 30
0.0
  9
$PUCSNAME
  2

  9
$PUCSORG
 10
0.0
 20
0.0
 30
0.0
  9
$PUCSXDIR
 10
1.0
 20
0.0
 30
0.0
  9
$PUCSYDIR
 10
0.0
 20
1.0
 30
0.0
  9
$USERI1
 70
     0
  9
$USERI2
 70
     0
  9
$USERI3
 70
     0
  9
$USERI4
 70
     0
  9
$USERI5
 70
     0
  9
$USERR1
 40
0.0
  9
$USERR2
 40
0.0
  9
$USERR3
 40
0.0
  9
$USERR4
 40
0.0
  9
$USERR5
 40
0.0
  9
$WORLDVIEW
 70
     1
  9
$SHADEDGE
 70
     3
  9
$SHADEDIF
 70
    70
  9
$TILEMODE
 70
     1
  9
$MAXACTVP
 70
    48
  9
$PLIMCHECK
 70
     0
  9
$PEXTMIN
 10
1.0000000000000000E+020
 20
1.0000000000000000E+020
 30
1.0000000000000000E+020
  9
$PEXTMAX
 10
-1.0000000000000000E+020
 20
-1.0000000000000000E+020
 30
-1.0000000000000000E+020
  9
$PLIMMIN
 10
0.0
 20
0.0
  9
$PLIMMAX
 10
12.0
 20
9.0
  9
$UNITMODE
 70
     0
  9
$VISRETAIN
 70
     1
  9
$PLINEGEN
 70
     0
  9
$PSLTSCALE
 70
     1
  0
ENDSEC
  0
SECTION
  2
TABLES
  0
TABLE
  2
VPORT
 70
     2
  0
VPORT
  2
*ACTIVE
 70
     0
 10
0.0
 20
0.0
 11
1.0
 21
1.0
 12
206.98016390466589
 22
148.7254999999999
 13
0.0
 23
0.0
 14
1.0
 24
1.0
 15
0.0
 25
0.0
 16
0.0
 26
0.0
 36
1.0
 17
0.0
 27
0.0
 37
0.0
 40
299.90589133425021
 41
2.2894736842105261
 42
50.0
 43
0.0
 44
0.0
 50
0.0
 51
0.0
 71
     0
 72
   100
 73
     1
 74
     1
 75
     0
 76
     0
 77
     0
 78
     0
  0
ENDTAB
  0
TABLE
  2
LTYPE
 70
     4
  0
LTYPE
  2
CONTINUOUS
 70
     0
  3
Solid line
 72
    65
 73
     0
 40
0.0
  0
LTYPE
  2
AIGENLINE001
 70
     0
  3
generate AI->DXF Converter
 72
    65
 73
     2
 40
1.5522299999999991
 49
0.776115
 49
-0.776115
  0
LTYPE
  2
AIGENLINE002
 70
     0
  3
generate AI->DXF Converter
 72
    65
 73
     0
 40
0.0
  0
LTYPE
  2
AIGENLINE003
 70
     0
  3
generate AI->DXF Converter
 72
    65
 73
     4
 40
5.8561449999999988
 49
3.5278
 49
-0.776115
 49
0.776115
 49
-0.776115
  0
ENDTAB
  0
TABLE
  2
LAYER
 70
     2
  0
LAYER
  2
0
 70
     0
 62
     7
  6
CONTINUOUS
  0
LAYER
  2
_________2
 70
     0
 62
     7
  6
CONTINUOUS
  0
ENDTAB
  0
TABLE
  2
STYLE
 70
     1
  0
STYLE
  2
STANDARD
 70
     0
 40
0.0
 41
0.0
 50
0.0
 71
     0
 42
0.0
  3
TXT
  4
EXTFONT.SHX
  0
ENDTAB
  0
TABLE
  2
VIEW
 70
     0
  0
ENDTAB
  0
TABLE
  2
UCS
 70
     0
  0
ENDTAB
  0
TABLE
  2
APPID
 70
     1
  0
APPID
  2
ACAD
 70
     0
  0
ENDTAB
  0
TABLE
  2
DIMSTYLE
 70
     1
  0
DIMSTYLE
  2
STANDARD
 70
     0
  3

  4

  5

  6

  7

 40
1.0
 41
0.18
 42
0.0625
 43
0.38
 44
0.18
 45
0.0
 46
0.0
 47
0.0
 48
0.0
140
0.18
141
0.09
142
0.0
143
25.399999999999999
144
1.0
145
0.0
146
1.0
147
0.09
 71
     0
 72
     0
 73
     1
 74
     1
 75
     0
 76
     0
 77
     0
 78
     0
170
     0
171
     2
172
     0
173
     0
174
     0
175
     0
176
     0
177
     0
178
     0
  0
ENDTAB
  0
ENDSEC
  0
SECTION
  2
BLOCKS
  0
BLOCK
  8
0
  2
$MODEL_SPACE
 70
     0
 10
0.0
 20
0.0
 30
0.0
  3
$MODEL_SPACE
  1

  0
ENDBLK
  5
1A
  8
0
  0
BLOCK
 67
     1
  8
0
  2
$PAPER_SPACE
 70
     0
 10
0.0
 20
0.0
 30
0.0
  3
$PAPER_SPACE
  1

  0
ENDBLK
  5
17
 67
     1
  8
0
  0
ENDSEC
  0
SECTION
  2
ENTITIES
  0
TEXT
  5
24
  8
0
 62
     7
 10
29.700199999999992
 20
67.050899999999999
 30
0.0
 40
4.9911399999999997
  1
※排水栓を閉めた状態で毎分10L以上吐水させないでください。
 41
0.5
  0
TEXT
  5
25
  8
0
 62
     7
 10
29.700199999999992
 20
60.811999999999991
 30
0.0
 40
4.9911399999999997
  1
※壁取付部には厚さ30mm以上の補強材を入れてください。
 41
0.5
  0
TEXT
  5
26
  8
0
 62
     7
 10
78.931173333333334
 20
201.9559999999999
 30
0.0
 40
3.660169999999999
  1
%%c46
 41
0.5
 72
     2
 11
83.811400000000006
 21
201.9559999999999
 31
0.0
  0
TEXT
  5
27
  8
0
 62
     7
 10
52.791899999999991
 20
235.95699999999999
 30
0.0
 40
3.660169999999999
  1
%%c35
 41
0.5
  0
TEXT
  5
28
  8
0
 62
     7
 10
68.352493749999994
 20
134.4729999999999
 30
0.0
 40
3.660169999999999
  1
280
 41
0.5
 72
     1
 11
70.640100000000004
 21
134.4729999999999
 31
0.0
  0
TEXT
  5
29
  8
0
 62
     7
 10
68.352493749999994
 20
165.08799999999991
 30
0.0
 40
3.660169999999999
  1
650
 41
0.5
 72
     1
 11
70.640100000000004
 21
165.08799999999991
 31
0.0
  0
TEXT
  5
2A
  8
0
 62
     7
 10
63.810114999999989
 20
240.71599999999989
 30
0.0
 40
3.660169999999999
  1
100
 41
0.5
 72
     1
 11
65.640199999999993
 21
240.71599999999989
 31
0.0
  0
TEXT
  5
2B
  8
0
 62
     7
 10
73.810214999999999
 20
240.71599999999989
 30
0.0
 40
3.660169999999999
  1
100
 41
0.5
 72
     1
 11
75.640299999999996
 21
240.71599999999989
 31
0.0
  0
TEXT
  5
2C
  8
0
 62
     7
 10
40.365129166666669
 20
172.93700000000001
 30
0.0
 40
3.660169999999999
  1
75
 41
0.5
 72
     1
 11
41.8902
 21
172.93700000000001
 31
0.0
  0
TEXT
  5
2D
  8
0
 62
     7
 10
97.865229166666666
 20
172.93700000000001
 30
0.0
 40
3.660169999999999
  1
75
 41
0.5
 72
     1
 11
99.390299999999996
 21
172.93700000000001
 31
0.0
  0
TEXT
  5
2E
  8
0
 62
     7
 10
68.505000833333341
 20
172.93700000000001
 30
0.0
 40
3.660169999999999
  1
500
 41
0.5
 72
     1
 11
70.640100000000004
 21
172.93700000000001
 31
0.0
  0
TEXT
  5
2F
  8
0
 62
     7
 10
89.440100000000001
 20
218.50492916666661
 30
0.0
 40
3.660169999999999
  1
65
 50
90.0
 41
0.5
 72
     1
 11
89.440100000000001
 21
220.02999999999989
 31
0.0
  0
TEXT
  5
30
  8
0
 62
     7
 10
89.440100000000001
 20
225.00692916666659
 30
0.0
 40
3.660169999999999
  1
65
 50
90.0
 41
0.5
 72
     1
 11
89.440100000000001
 21
226.53200000000001
 31
0.0
  0
TEXT
  5
31
  8
0
 62
     7
 10
91.952200000000005
 20
130.08987250000001
 30
0.0
 40
3.660169999999999
  1
60
 50
90.0
 41
0.5
 72
     2
 11
91.952200000000005
 21
132.83500000000001
 31
0.0
  0
TEXT
  5
32
  8
0
 62
     7
 10
109.41
 20
121.62843624999999
 30
0.0
 40
3.660169999999999
  1
70
 50
90.0
 41
0.5
 72
     1
 11
109.41
 21
123.001
 31
0.0
  0
TEXT
  5
33
  8
0
 62
     7
 10
156.17599999999999
 20
120.1724079166666
 30
0.0
 40
3.660169999999999
  1
105
 50
90.0
 41
0.5
 72
     1
 11
156.17599999999999
 21
122.155
 31
0.0
  0
TEXT
  5
34
  8
0
 62
     7
 10
116.464
 20
117.1159008333333
 30
0.0
 40
3.660169999999999
  1
145
 50
90.0
 41
0.5
 72
     1
 11
116.464
 21
119.251
 31
0.0
  0
TEXT
  5
35
  8
0
 62
     7
 10
121.50700000000001
 20
203.99439374999989
 30
0.0
 40
3.660169999999999
  1
470
 50
90.0
 41
0.5
 72
     1
 11
121.50700000000001
 21
206.28200000000001
 31
0.0
  0
TEXT
  5
36
  8
0
 62
     7
 10
166.5599008333333
 20
102.651
 30
0.0
 40
3.660169999999999
  1
215
 41
0.5
 72
     1
 11
168.69499999999991
 21
102.651
 31
0.0
  0
TEXT
  5
37
  8
0
 62
     7
 10
30.243300000000001
 20
216.89690083333329
 30
0.0
 40
3.660169999999999
  1
215
 50
90.0
 41
0.5
 72
     1
 11
30.243300000000001
 21
219.03200000000001
 31
0.0
  0
TEXT
  5
38
  8
0
 62
     7
 10
112.96599999999999
 20
176.29699999999991
 30
0.0
 40
3.660169999999999
  1
40
 50
90.0
 41
0.5
  0
TEXT
  5
39
  8
0
 62
     7
 10
112.96599999999999
 20
221.29940791666661
 30
0.0
 40
3.660169999999999
  1
130
 50
90.0
 41
0.5
 72
     1
 11
112.96599999999999
 21
223.28200000000001
 31
0.0
  0
TEXT
  5
3A
  8
0
 62
     7
 10
112.96599999999999
 20
199.64590083333329
 30
0.0
 40
3.660169999999999
  1
300
 50
90.0
 41
0.5
 72
     1
 11
112.96599999999999
 21
201.78099999999989
 31
0.0
  0
LINE
  5
3B
  8
0
 62
     7
 10
101.9739999999999
 20
119.501
 30
0.0
 11
39.306699999999999
 21
119.501
 31
0.0
  0
ARC
  5
3C
  8
0
 62
     7
 10
178.9259429999999
 20
125.9817249999999
 30
0.0
 40
0.51955
 50
2.1293950000000001
 51
87.870594999999994
  0
ARC
  5
3D
  8
0
 62
     7
 10
133.742186
 20
119.91490399999989
 30
0.0
 40
0.413952
 50
189.82593199999999
 51
268.33394099999998
  0
ARC
  5
3E
  8
0
 62
     7
 10
178.9259429999999
 20
111.54188499999999
 30
0.0
 40
0.51955
 50
272.12940499999991
 51
357.8706049999999
  0
ARC
  5
3F
  8
0
 62
     7
 10
178.94515399999989
 20
111.508169
 30
0.0
 40
0.4854760000000001
 50
262.83633900000001
 51
270.01101299999999
  0
ARC
  5
40
  8
0
  6
AIGENLINE001
 62
     7
 10
163.2263639999999
 20
120.086061
 30
0.0
 40
3.8845499999999991
 50
282.39117700000003
 51
291.57768499999997
  0
ARC
  5
41
  8
0
  6
AIGENLINE001
 62
     7
 10
163.730007
 20
118.75495099999991
 30
0.0
 40
2.4615949999999991
 50
292.07078299999989
 51
312.57662099999999
  0
ARC
  5
42
  8
0
  6
AIGENLINE001
 62
     7
 10
164.016009
 20
118.37179399999989
 30
0.0
 40
1.986540999999999
 50
313.97933699999999
 51
340.91755499999999
  0
ARC
  5
43
  8
0
  6
AIGENLINE001
 62
     7
 10
163.3283209999999
 20
118.637911
 30
0.0
 40
2.7235719999999999
 50
340.35652499999992
 51
355.88325900000001
  0
ARC
  5
44
  8
0
  6
AIGENLINE001
 62
     7
 10
162.0941939999999
 20
118.786562
 30
0.0
 40
3.9656349999999989
 50
355.02110099999987
 51
0.125133
  0
LINE
  5
45
  8
0
  6
AIGENLINE001
 62
     7
 10
161.9439999999999
 20
116.00099999999991
 30
0.0
 11
164.06
 21
116.2919999999999
 31
0.0
  0
LINE
  5
46
  8
0
  6
AIGENLINE001
 62
     7
 10
160.244
 20
114.501
 30
0.0
 11
161.9439999999999
 21
116.00099999999991
 31
0.0
  0
LINE
  5
47
  8
0
  6
AIGENLINE001
 62
     7
 10
155.64400000000001
 20
114.501
 30
0.0
 11
153.94499999999991
 21
116.00099999999991
 31
0.0
  0
LINE
  5
48
  8
0
  6
AIGENLINE002
 62
     7
 10
166.06
 20
118.795
 30
0.0
 11
166.44499999999991
 21
126.50099999999991
 31
0.0
  0
LINE
  5
49
  8
0
  6
AIGENLINE001
 62
     7
 10
160.244
 20
112.001
 30
0.0
 11
160.244
 21
114.501
 31
0.0
  0
LINE
  5
4A
  8
0
  6
AIGENLINE001
 62
     7
 10
155.64400000000001
 20
114.501
 30
0.0
 11
155.64400000000001
 21
112.001
 31
0.0
  0
LINE
  5
4B
  8
0
 62
     7
 10
161.37399999999991
 20
112.001
 30
0.0
 11
161.52299999999991
 21
113.187
 31
0.0
  0
LINE
  5
4C
  8
0
 62
     7
 10
161.52299999999991
 20
113.187
 30
0.0
 11
161.55699999999999
 21
113.4589999999999
 31
0.0
  0
LINE
  5
4D
  8
0
 62
     7
 10
161.37399999999991
 20
112.001
 30
0.0
 11
154.5149999999999
 21
112.001
 31
0.0
  0
LINE
  5
4E
  8
0
  6
AIGENLINE003
 62
     7
 10
157.94499999999999
 20
117.182
 30
0.0
 11
157.94499999999999
 21
107.8
 31
0.0
  0
LINE
  5
4F
  8
0
 62
     7
 10
154.19499999999991
 20
114.492
 30
0.0
 11
154.2289999999999
 21
114.226
 31
0.0
  0
LINE
  5
50
  8
0
 62
     7
 10
154.2289999999999
 20
114.226
 30
0.0
 11
154.5149999999999
 21
112.001
 31
0.0
  0
ARC
  5
51
  8
0
 62
     7
 10
132.836005
 20
126.097374
 30
0.0
 40
0.391227
 50
180.03299799999999
 51
188.33687299999991
  0
ARC
  5
52
  8
0
 62
     7
 10
132.86396099999999
 20
126.081732
 30
0.0
 40
0.4194670000000001
 50
92.106180000000009
 51
177.89379099999991
  0
ARC
  5
53
  8
0
 62
     7
 10
171.17323999999991
 20
124.8247429999999
 30
0.0
 40
32.171847
 50
189.52481
 51
190.41902300000001
  0
ARC
  5
54
  8
0
 62
     7
 10
146.32122899999999
 20
120.28106699999989
 30
0.0
 40
6.9079519999999999
 50
190.631472
 51
195.506361
  0
ARC
  5
55
  8
0
 62
     7
 10
142.990576
 20
119.38332
 30
0.0
 40
3.4586169999999989
 50
195.92654599999989
 51
206.45512899999991
  0
ARC
  5
56
  8
0
 62
     7
 10
142.1306439999999
 20
118.99502699999999
 30
0.0
 40
2.5160009999999988
 50
207.26275499999991
 51
238.70790400000001
  0
ARC
  5
57
  8
0
 62
     7
 10
142.88258099999999
 20
120.089727
 30
0.0
 40
3.8427239999999991
 50
237.60501400000001
 51
247.01222899999991
  0
ARC
  5
58
  8
0
 62
     7
 10
143.7609149999999
 20
122.0557909999999
 30
0.0
 40
5.995817999999999
 50
246.62266099999999
 51
255.06046499999991
  0
ARC
  5
59
  8
0
 62
     7
 10
145.01790800000001
 20
126.4048379999999
 30
0.0
 40
10.522325999999991
 50
254.5523069999999
 51
261.39755999999988
  0
ARC
  5
5A
  8
0
  6
AIGENLINE001
 62
     7
 10
145.95975799999999
 20
130.439415
 30
0.0
 40
10.297779
 50
202.486223
 51
214.0165749999999
  0
ARC
  5
5B
  8
0
  6
AIGENLINE001
 62
     7
 10
148.60600500000001
 20
132.0961889999999
 30
0.0
 40
13.418469999999999
 50
213.55910800000001
 51
223.547944
  0
ARC
  5
5C
  8
0
  6
AIGENLINE001
 62
     7
 10
151.1994259999999
 20
134.42730299999991
 30
0.0
 40
16.904502999999998
 50
223.21856600000001
 51
233.68502100000001
  0
ARC
  5
5D
  8
0
  6
AIGENLINE001
 62
     7
 10
153.71881499999989
 20
137.64226699999989
 30
0.0
 40
20.987456999999988
 50
233.34082799999999
 51
242.90279899999999
  0
ARC
  5
5E
  8
0
  6
AIGENLINE001
 62
     7
 10
155.877883
 20
141.591488
 30
0.0
 40
25.486948000000002
 50
242.62583599999991
 51
251.52253399999989
  0
ARC
  5
5F
  8
0
  6
AIGENLINE001
 62
     7
 10
157.69198899999989
 20
146.605727
 30
0.0
 40
30.817923
 50
251.27821299999991
 51
259.58237300000002
  0
ARC
  5
60
  8
0
  6
AIGENLINE001
 62
     7
 10
158.7580899999999
 20
151.586761
 30
0.0
 40
35.909927000000003
 50
259.34647499999988
 51
262.29689400000001
  0
ARC
  5
61
  8
0
  6
AIGENLINE001
 62
     7
 10
85.960973999999993
 20
128.15524600000001
 30
0.0
 40
9.8179300000000005
 50
312.987619
 51
350.29933299999988
  0
ARC
  5
62
  8
0
  6
AIGENLINE001
 62
     7
 10
84.171230000000008
 20
129.9382469999999
 30
0.0
 40
12.342871000000001
 50
301.07702499999999
 51
313.42155000000002
  0
ARC
  5
63
  8
0
  6
AIGENLINE001
 62
     7
 10
82.046693999999974
 20
133.21453299999999
 30
0.0
 40
16.246096999999988
 50
292.29381799999999
 51
301.52995099999993
  0
ARC
  5
64
  8
0
  6
AIGENLINE001
 62
     7
 10
79.818657999999999
 20
138.28562099999991
 30
0.0
 40
21.783778999999999
 50
284.86225400000001
 51
292.65611200000001
  0
ARC
  5
65
  8
0
  6
AIGENLINE001
 62
     7
 10
77.627870000000001
 20
145.87409799999989
 30
0.0
 40
29.680807000000001
 50
278.69209000000001
 51
285.19251299999991
  0
ARC
  5
66
  8
0
  6
AIGENLINE001
 62
     7
 10
75.947506000000004
 20
155.57674600000001
 30
0.0
 40
39.526441999999989
 50
274.67813100000001
 51
278.97440599999999
  0
ARC
  5
67
  8
0
  6
AIGENLINE001
 62
     7
 10
74.919859000000002
 20
166.81363799999991
 30
0.0
 40
50.809826000000001
 50
270.76021800000001
 51
274.79965399999992
  0
ARC
  5
68
  8
0
  6
AIGENLINE001
 62
     7
 10
74.640484999999998
 20
177.46610999999999
 30
0.0
 40
61.46522199999999
 50
269.99812700000001
 51
270.88887
  0
LINE
  5
69
  8
0
  6
AIGENLINE001
 62
     7
 10
72.939300000000003
 20
114.501
 30
0.0
 11
74.638499999999993
 21
116.00099999999991
 31
0.0
  0
ARC
  5
6A
  8
0
  6
AIGENLINE001
 62
     7
 10
55.317790000000002
 20
128.15524899999991
 30
0.0
 40
9.8179479999999995
 50
189.70068599999991
 51
227.01231499999989
  0
ARC
  5
6B
  8
0
  6
AIGENLINE001
 62
     7
 10
57.107424999999999
 20
129.93815499999991
 30
0.0
 40
12.342744
 50
226.57846599999999
 51
238.9231399999999
  0
ARC
  5
6C
  8
0
  6
AIGENLINE001
 62
     7
 10
59.233581000000008
 20
133.2175419999999
 30
0.0
 40
16.249459999999999
 50
238.47102699999991
 51
247.70524399999999
  0
ARC
  5
6D
  8
0
  6
AIGENLINE001
 62
     7
 10
61.460089000000004
 20
138.28562099999991
 30
0.0
 40
21.783778999999999
 50
247.343908
 51
255.137766
  0
ARC
  5
6E
  8
0
  6
AIGENLINE001
 62
     7
 10
63.650877000000001
 20
145.87409799999989
 30
0.0
 40
29.680807000000001
 50
254.8075069999999
 51
261.30792999999989
  0
ARC
  5
6F
  8
0
  6
AIGENLINE001
 62
     7
 10
65.331241000000006
 20
155.57674600000001
 30
0.0
 40
39.526441999999989
 50
261.02561400000002
 51
265.321889
  0
ARC
  5
70
  8
0
  6
AIGENLINE001
 62
     7
 10
66.358887999999993
 20
166.81363799999991
 30
0.0
 40
50.809826000000001
 50
265.20036599999997
 51
269.239802
  0
ARC
  5
71
  8
0
  6
AIGENLINE001
 62
     7
 10
66.638261999999983
 20
177.46610999999999
 30
0.0
 40
61.46522199999999
 50
269.11115000000001
 51
270.001893
  0
LINE
  5
72
  8
0
 62
     7
 10
156.28399999999999
 20
118.21299999999989
 30
0.0
 11
156.87700000000001
 21
116.00099999999991
 31
0.0
  0
LINE
  5
73
  8
0
 62
     7
 10
156.87700000000001
 20
116.00099999999991
 30
0.0
 11
157.46899999999991
 21
118.21299999999989
 31
0.0
  0
LINE
  5
74
  8
0
 62
     7
 10
157.46899999999991
 20
118.21299999999989
 30
0.0
 11
156.28399999999999
 21
118.21299999999989
 31
0.0
  0
LINE
  5
75
  8
0
 62
     7
 10
116.5779999999999
 20
114.2109999999999
 30
0.0
 11
117.17100000000001
 21
112.0
 31
0.0
  0
LINE
  5
76
  8
0
 62
     7
 10
117.17100000000001
 20
112.0
 30
0.0
 11
117.76299999999991
 21
114.2109999999999
 31
0.0
  0
LINE
  5
77
  8
0
 62
     7
 10
117.76299999999991
 20
114.2109999999999
 30
0.0
 11
116.5779999999999
 21
114.2109999999999
 31
0.0
  0
LINE
  5
78
  8
0
 62
     7
 10
117.7489999999999
 20
124.2909999999999
 30
0.0
 11
117.15600000000001
 21
126.502
 31
0.0
  0
LINE
  5
79
  8
0
 62
     7
 10
117.15600000000001
 20
126.502
 30
0.0
 11
116.56399999999999
 21
124.2909999999999
 31
0.0
  0
LINE
  5
7A
  8
0
 62
     7
 10
116.56399999999999
 20
124.2909999999999
 30
0.0
 11
117.7489999999999
 21
124.2909999999999
 31
0.0
  0
LINE
  5
7B
  8
0
 62
     7
 10
117.164
 20
112.001
 30
0.0
 11
117.164
 21
126.50099999999991
 31
0.0
  0
LINE
  5
7C
  8
0
 62
     7
 10
117.8639999999999
 20
112.001
 30
0.0
 11
74.769400000000005
 21
112.001
 31
0.0
  0
LINE
  5
7D
  8
0
 62
     7
 10
58.850900000000003
 20
134.35799999999989
 30
0.0
 11
56.639499999999991
 21
133.76599999999991
 31
0.0
  0
LINE
  5
7E
  8
0
 62
     7
 10
56.639499999999991
 20
133.76599999999991
 30
0.0
 11
58.850900000000003
 21
133.173
 31
0.0
  0
LINE
  5
7F
  8
0
 62
     7
 10
58.850900000000003
 20
133.173
 30
0.0
 11
58.850900000000003
 21
134.35799999999989
 31
0.0
  0
LINE
  5
80
  8
0
 62
     7
 10
82.429299999999984
 20
133.1879999999999
 30
0.0
 11
84.641000000000005
 21
133.78
 31
0.0
  0
LINE
  5
81
  8
0
 62
     7
 10
84.641000000000005
 20
133.78
 30
0.0
 11
82.429299999999984
 21
134.37299999999991
 31
0.0
  0
LINE
  5
82
  8
0
 62
     7
 10
82.429299999999984
 20
134.37299999999991
 30
0.0
 11
82.429299999999984
 21
133.1879999999999
 31
0.0
  0
LINE
  5
83
  8
0
 62
     7
 10
56.640500000000003
 20
133.773
 30
0.0
 11
84.640299999999996
 21
133.773
 31
0.0
  0
LINE
  5
84
  8
0
 62
     7
 10
84.640299999999996
 20
123.13199999999991
 30
0.0
 11
84.640299999999996
 21
134.4729999999999
 31
0.0
  0
LINE
  5
85
  8
0
 62
     7
 10
56.639800000000001
 20
123.13199999999991
 30
0.0
 11
56.639800000000001
 21
134.4729999999999
 31
0.0
  0
LINE
  5
86
  8
0
  6
AIGENLINE001
 62
     7
 10
160.244
 20
114.501
 30
0.0
 11
155.64500000000001
 21
114.501
 31
0.0
  0
LINE
  5
87
  8
0
  6
AIGENLINE001
 62
     7
 10
161.9439999999999
 20
116.00099999999991
 30
0.0
 11
153.94499999999991
 21
116.00099999999991
 31
0.0
  0
LINE
  5
88
  8
0
  6
AIGENLINE001
 62
     7
 10
72.939300000000003
 20
114.501
 30
0.0
 11
68.339399999999998
 21
114.501
 31
0.0
  0
LINE
  5
89
  8
0
  6
AIGENLINE001
 62
     7
 10
74.638499999999993
 20
116.00099999999991
 30
0.0
 11
66.640299999999996
 21
116.00099999999991
 31
0.0
  0
LINE
  5
8A
  8
0
  6
AIGENLINE001
 62
     7
 10
68.339399999999998
 20
114.501
 30
0.0
 11
66.640299999999996
 21
116.00099999999991
 31
0.0
  0
LINE
  5
8B
  8
0
  6
AIGENLINE001
 62
     7
 10
72.939300000000003
 20
112.001
 30
0.0
 11
72.939300000000003
 21
114.501
 31
0.0
  0
LINE
  5
8C
  8
0
  6
AIGENLINE001
 62
     7
 10
68.339399999999998
 20
114.501
 30
0.0
 11
68.339399999999998
 21
112.001
 31
0.0
  0
ARC
  5
8D
  8
0
 62
     7
 10
957.685475
 20
1.908072999999999
 30
0.0
 40
890.44818100000009
 50
172.82581399999989
 51
172.897885
  0
ARC
  5
8E
  8
0
 62
     7
 10
1516.5940000000001
 20
-67.850754000000009
 30
0.0
 40
1453.693
 50
172.80480399999999
 51
172.84895399999991
  0
LINE
  5
8F
  8
0
 62
     7
 10
74.069299999999998
 20
112.001
 30
0.0
 11
67.210099999999997
 21
112.001
 31
0.0
  0
LINE
  5
90
  8
0
 62
     7
 10
117.8639999999999
 20
126.50099999999991
 30
0.0
 11
103.62
 21
126.50099999999991
 31
0.0
  0
LINE
  5
91
  8
0
  6
AIGENLINE003
 62
     7
 10
163.58500000000001
 20
122.501
 30
0.0
 11
169.05000000000001
 21
122.501
 31
0.0
  0
LINE
  5
92
  8
0
  6
AIGENLINE003
 62
     7
 10
67.788899999999998
 20
122.501
 30
0.0
 11
73.253500000000003
 21
122.501
 31
0.0
  0
ARC
  5
93
  8
0
  6
AIGENLINE001
 62
     7
 10
70.640062
 20
122.501135
 30
0.0
 40
1.249889
 50
0.00001
 51
89.999980000000008
  0
ARC
  5
94
  8
0
  6
AIGENLINE001
 62
     7
 10
70.640062999999984
 20
122.501135
 30
0.0
 40
1.249889
 50
90.0
 51
179.99996999999991
  0
ARC
  5
95
  8
0
  6
AIGENLINE001
 62
     7
 10
70.640062
 20
122.501135
 30
0.0
 40
1.249887999999999
 50
179.99996999999991
 51
270.00002000000001
  0
ARC
  5
96
  8
0
  6
AIGENLINE001
 62
     7
 10
70.640062
 20
122.501135
 30
0.0
 40
1.249889
 50
270.00002000000001
 51
359.99998999999991
  0
LINE
  5
97
  8
0
 62
     7
 10
179.44499999999991
 20
110.27
 30
0.0
 11
179.44499999999991
 21
101.251
 31
0.0
  0
LINE
  5
98
  8
0
 62
     7
 10
157.94499999999999
 20
101.251
 30
0.0
 11
157.94499999999999
 21
107.09999999999989
 31
0.0
  0
LINE
  5
99
  8
0
 62
     7
 10
160.15600000000001
 20
102.536
 30
0.0
 11
157.9439999999999
 21
101.944
 31
0.0
  0
LINE
  5
9A
  8
0
 62
     7
 10
157.9439999999999
 20
101.944
 30
0.0
 11
160.15600000000001
 21
101.3509999999999
 31
0.0
  0
LINE
  5
9B
  8
0
 62
     7
 10
160.15600000000001
 20
101.3509999999999
 30
0.0
 11
160.15600000000001
 21
102.536
 31
0.0
  0
LINE
  5
9C
  8
0
 62
     7
 10
177.2339999999999
 20
101.366
 30
0.0
 11
179.44599999999991
 21
101.9579999999999
 31
0.0
  0
LINE
  5
9D
  8
0
 62
     7
 10
179.44599999999991
 20
101.9579999999999
 30
0.0
 11
177.2339999999999
 21
102.551
 31
0.0
  0
LINE
  5
9E
  8
0
 62
     7
 10
177.2339999999999
 20
102.551
 30
0.0
 11
177.2339999999999
 21
101.366
 31
0.0
  0
LINE
  5
9F
  8
0
 62
     7
 10
157.94499999999999
 20
101.95099999999999
 30
0.0
 11
179.44499999999991
 21
101.95099999999999
 31
0.0
  0
LINE
  5
A0
  8
0
 62
     7
 10
63.109000000000002
 20
208.28200000000001
 30
0.0
 11
30.243300000000001
 21
208.28200000000001
 31
0.0
  0
LINE
  5
A1
  8
0
 62
     7
 10
30.243300000000001
 20
229.78200000000001
 30
0.0
 11
37.44019999999999
 21
229.78200000000001
 31
0.0
  0
LINE
  5
A2
  8
0
 62
     7
 10
31.528300000000002
 20
227.571
 30
0.0
 11
30.9358
 21
229.7829999999999
 31
0.0
  0
LINE
  5
A3
  8
0
 62
     7
 10
30.9358
 20
229.7829999999999
 30
0.0
 11
30.3432
 21
227.571
 31
0.0
  0
LINE
  5
A4
  8
0
 62
     7
 10
30.3432
 20
227.571
 30
0.0
 11
31.528300000000002
 21
227.571
 31
0.0
  0
LINE
  5
A5
  8
0
 62
     7
 10
30.357700000000001
 20
210.49299999999991
 30
0.0
 11
30.950199999999992
 21
208.28099999999989
 31
0.0
  0
LINE
  5
A6
  8
0
 62
     7
 10
30.950199999999992
 20
208.28099999999989
 30
0.0
 11
31.542799999999989
 21
210.49299999999991
 31
0.0
  0
LINE
  5
A7
  8
0
 62
     7
 10
31.542799999999989
 20
210.49299999999991
 30
0.0
 11
30.357700000000001
 21
210.49299999999991
 31
0.0
  0
LINE
  5
A8
  8
0
 62
     7
 10
30.9434
 20
229.78200000000001
 30
0.0
 11
30.9434
 21
208.28200000000001
 31
0.0
  0
LINE
  5
A9
  8
0
 62
     7
 10
40.3506
 20
164.9729999999999
 30
0.0
 11
38.139200000000002
 21
164.37999999999991
 31
0.0
  0
LINE
  5
AA
  8
0
 62
     7
 10
38.139200000000002
 20
164.37999999999991
 30
0.0
 11
40.3506
 21
163.7879999999999
 31
0.0
  0
LINE
  5
AB
  8
0
 62
     7
 10
40.3506
 20
163.7879999999999
 30
0.0
 11
40.3506
 21
164.9729999999999
 31
0.0
  0
LINE
  5
AC
  8
0
 62
     7
 10
100.93000000000001
 20
163.80199999999999
 30
0.0
 11
103.14100000000001
 21
164.39500000000001
 31
0.0
  0
LINE
  5
AD
  8
0
 62
     7
 10
103.14100000000001
 20
164.39500000000001
 30
0.0
 11
100.93000000000001
 21
164.988
 31
0.0
  0
LINE
  5
AE
  8
0
 62
     7
 10
100.93000000000001
 20
164.988
 30
0.0
 11
100.93000000000001
 21
163.80199999999999
 31
0.0
  0
LINE
  5
AF
  8
0
 62
     7
 10
38.1402
 20
164.38800000000001
 30
0.0
 11
103.14
 21
164.38800000000001
 31
0.0
  0
LINE
  5
B0
  8
0
 62
     7
 10
38.1402
 20
163.6879999999999
 30
0.0
 11
38.1402
 21
182.08199999999991
 31
0.0
  0
LINE
  5
B1
  8
0
 62
     7
 10
103.14
 20
163.6879999999999
 30
0.0
 11
103.14
 21
182.08199999999991
 31
0.0
  0
LINE
  5
B2
  8
0
 62
     7
 10
97.852699999999999
 20
172.83799999999999
 30
0.0
 11
95.641300000000001
 21
172.245
 31
0.0
  0
LINE
  5
B3
  8
0
 62
     7
 10
95.641300000000001
 20
172.245
 30
0.0
 11
97.852699999999999
 21
171.65199999999999
 31
0.0
  0
LINE
  5
B4
  8
0
 62
     7
 10
97.852699999999999
 20
171.65199999999999
 30
0.0
 11
97.852699999999999
 21
172.83799999999999
 31
0.0
  0
LINE
  5
B5
  8
0
 62
     7
 10
40.351599999999998
 20
172.83000000000001
 30
0.0
 11
38.1402
 21
172.23699999999991
 31
0.0
  0
LINE
  5
B6
  8
0
 62
     7
 10
38.1402
 20
172.23699999999991
 30
0.0
 11
40.351599999999998
 21
171.64500000000001
 31
0.0
  0
LINE
  5
B7
  8
0
 62
     7
 10
40.351599999999998
 20
171.64500000000001
 30
0.0
 11
40.351599999999998
 21
172.83000000000001
 31
0.0
  0
LINE
  5
B8
  8
0
 62
     7
 10
47.8506
 20
172.82299999999989
 30
0.0
 11
45.639200000000002
 21
172.23099999999999
 31
0.0
  0
LINE
  5
B9
  8
0
 62
     7
 10
45.639200000000002
 20
172.23099999999999
 30
0.0
 11
47.8506
 21
171.63800000000001
 31
0.0
  0
LINE
  5
BA
  8
0
 62
     7
 10
47.8506
 20
171.63800000000001
 30
0.0
 11
47.8506
 21
172.82299999999989
 31
0.0
  0
LINE
  5
BB
  8
0
 62
     7
 10
100.9279999999999
 20
171.64500000000001
 30
0.0
 11
103.14
 21
172.23699999999991
 31
0.0
  0
LINE
  5
BC
  8
0
 62
     7
 10
103.14
 20
172.23699999999991
 30
0.0
 11
100.9279999999999
 21
172.83000000000001
 31
0.0
  0
LINE
  5
BD
  8
0
 62
     7
 10
100.9279999999999
 20
172.83000000000001
 30
0.0
 11
100.9279999999999
 21
171.64500000000001
 31
0.0
  0
LINE
  5
BE
  8
0
 62
     7
 10
43.427399999999999
 20
171.63800000000001
 30
0.0
 11
45.639200000000002
 21
172.23099999999999
 31
0.0
  0
LINE
  5
BF
  8
0
 62
     7
 10
45.639200000000002
 20
172.23099999999999
 30
0.0
 11
43.427399999999999
 21
172.82299999999989
 31
0.0
  0
LINE
  5
C0
  8
0
 62
     7
 10
43.427399999999999
 20
172.82299999999989
 30
0.0
 11
43.427399999999999
 21
171.63800000000001
 31
0.0
  0
LINE
  5
C1
  8
0
 62
     7
 10
93.429500000000004
 20
171.65199999999999
 30
0.0
 11
95.641300000000001
 21
172.245
 31
0.0
  0
LINE
  5
C2
  8
0
 62
     7
 10
95.641300000000001
 20
172.245
 30
0.0
 11
93.429500000000004
 21
172.83799999999999
 31
0.0
  0
LINE
  5
C3
  8
0
 62
     7
 10
93.429500000000004
 20
172.83799999999999
 30
0.0
 11
93.429500000000004
 21
171.65199999999999
 31
0.0
  0
LINE
  5
C4
  8
0
 62
     7
 10
38.1402
 20
172.23699999999991
 30
0.0
 11
103.14
 21
172.23699999999991
 31
0.0
  0
LINE
  5
C5
  8
0
 62
     7
 10
45.6402
 20
171.53700000000001
 30
0.0
 11
45.6402
 21
186.66
 31
0.0
  0
LINE
  5
C6
  8
0
 62
     7
 10
95.640600000000006
 20
171.53700000000001
 30
0.0
 11
95.640600000000006
 21
186.66
 31
0.0
  0
LINE
  5
C7
  8
0
 62
     7
 10
113.0659999999999
 20
218.994
 30
0.0
 11
113.65899999999991
 21
216.78200000000001
 31
0.0
  0
LINE
  5
C8
  8
0
 62
     7
 10
113.65899999999991
 20
216.78200000000001
 30
0.0
 11
114.251
 21
218.994
 31
0.0
  0
LINE
  5
C9
  8
0
 62
     7
 10
114.251
 20
218.994
 30
0.0
 11
113.0659999999999
 21
218.994
 31
0.0
  0
LINE
  5
CA
  8
0
 62
     7
 10
113.08
 20
188.99199999999999
 30
0.0
 11
113.6729999999999
 21
186.78099999999989
 31
0.0
  0
LINE
  5
CB
  8
0
 62
     7
 10
113.6729999999999
 20
186.78099999999989
 30
0.0
 11
114.26600000000001
 21
188.99199999999999
 31
0.0
  0
LINE
  5
CC
  8
0
 62
     7
 10
114.26600000000001
 20
188.99199999999999
 30
0.0
 11
113.08
 21
188.99199999999999
 31
0.0
  0
LINE
  5
CD
  8
0
 62
     7
 10
114.2589999999999
 20
180.56999999999991
 30
0.0
 11
113.666
 21
182.78200000000001
 31
0.0
  0
LINE
  5
CE
  8
0
 62
     7
 10
113.666
 20
182.78200000000001
 30
0.0
 11
113.074
 21
180.56999999999991
 31
0.0
  0
LINE
  5
CF
  8
0
 62
     7
 10
113.074
 20
180.56999999999991
 30
0.0
 11
114.2589999999999
 21
180.56999999999991
 31
0.0
  0
LINE
  5
D0
  8
0
 62
     7
 10
114.251
 20
214.571
 30
0.0
 11
113.65899999999991
 21
216.78200000000001
 31
0.0
  0
LINE
  5
D1
  8
0
 62
     7
 10
113.65899999999991
 20
216.78200000000001
 30
0.0
 11
113.0659999999999
 21
214.571
 31
0.0
  0
LINE
  5
D2
  8
0
 62
     7
 10
113.0659999999999
 20
214.571
 30
0.0
 11
114.251
 21
214.571
 31
0.0
  0
LINE
  5
D3
  8
0
 62
     7
 10
113.666
 20
176.29699999999991
 30
0.0
 11
113.666
 21
229.78200000000001
 31
0.0
  0
LINE
  5
D4
  8
0
 62
     7
 10
114.366
 20
186.78099999999989
 30
0.0
 11
96.088499999999996
 21
186.78099999999989
 31
0.0
  0
LINE
  5
D5
  8
0
 62
     7
 10
114.366
 20
216.78200000000001
 30
0.0
 11
96.088499999999996
 21
216.78200000000001
 31
0.0
  0
LINE
  5
D6
  8
0
 62
     7
 10
121.622
 20
184.99299999999999
 30
0.0
 11
122.214
 21
182.78099999999989
 31
0.0
  0
LINE
  5
D7
  8
0
 62
     7
 10
122.214
 20
182.78099999999989
 30
0.0
 11
122.8069999999999
 21
184.99299999999999
 31
0.0
  0
LINE
  5
D8
  8
0
 62
     7
 10
122.8069999999999
 20
184.99299999999999
 30
0.0
 11
121.622
 21
184.99299999999999
 31
0.0
  0
LINE
  5
D9
  8
0
 62
     7
 10
114.2589999999999
 20
227.56999999999999
 30
0.0
 11
113.666
 21
229.78200000000001
 31
0.0
  0
LINE
  5
DA
  8
0
 62
     7
 10
113.666
 20
229.78200000000001
 30
0.0
 11
113.074
 21
227.56999999999999
 31
0.0
  0
LINE
  5
DB
  8
0
 62
     7
 10
113.074
 20
227.56999999999999
 30
0.0
 11
114.2589999999999
 21
227.56999999999999
 31
0.0
  0
LINE
  5
DC
  8
0
 62
     7
 10
122.792
 20
227.571
 30
0.0
 11
122.1999999999999
 21
229.7829999999999
 31
0.0
  0
LINE
  5
DD
  8
0
 62
     7
 10
122.1999999999999
 20
229.7829999999999
 30
0.0
 11
121.607
 21
227.571
 31
0.0
  0
LINE
  5
DE
  8
0
 62
     7
 10
121.607
 20
227.571
 30
0.0
 11
122.792
 21
227.571
 31
0.0
  0
LINE
  5
DF
  8
0
 62
     7
 10
122.20699999999999
 20
182.78200000000001
 30
0.0
 11
122.20699999999999
 21
229.78200000000001
 31
0.0
  0
LINE
  5
E0
  8
0
 62
     7
 10
122.907
 20
182.78200000000001
 30
0.0
 11
103.84099999999999
 21
182.78200000000001
 31
0.0
  0
LINE
  5
E1
  8
0
 62
     7
 10
122.907
 20
229.78200000000001
 30
0.0
 11
103.84099999999999
 21
229.78200000000001
 31
0.0
  0
LINE
  5
E2
  8
0
 62
     7
 10
132.4489999999999
 20
126.041
 30
0.0
 11
133.33399999999989
 21
119.84399999999989
 31
0.0
  0
LINE
  5
E3
  8
0
  6
AIGENLINE003
 62
     7
 10
172.94499999999991
 20
129.881
 30
0.0
 11
172.94499999999991
 21
123.51600000000001
 31
0.0
  0
LINE
  5
E4
  8
0
 62
     7
 10
179.44499999999991
 20
126.001
 30
0.0
 11
179.44499999999991
 21
111.5229999999999
 31
0.0
  0
LINE
  5
E5
  8
0
 62
     7
 10
103.14
 20
229.78200000000001
 30
0.0
 11
103.14
 21
184.78200000000001
 31
0.0
  0
LINE
  5
E6
  8
0
 62
     7
 10
40.139800000000001
 20
182.78200000000001
 30
0.0
 11
101.14
 21
182.78200000000001
 31
0.0
  0
ARC
  5
E7
  8
0
 62
     7
 10
101.06307700000001
 20
184.85837499999991
 30
0.0
 40
2.0782560000000001
 50
272.13154300000002
 51
357.88820800000002
  0
LINE
  5
E8
  8
0
 62
     7
 10
38.1402
 20
229.78200000000001
 30
0.0
 11
38.1402
 21
184.78200000000001
 31
0.0
  0
ARC
  5
E9
  8
0
 62
     7
 10
40.217314999999999
 20
184.85864100000001
 30
0.0
 40
2.0785309999999999
 50
182.11887400000001
 51
267.86141499999991
  0
LINE
  5
EA
  8
0
 62
     7
 10
38.1402
 20
229.78200000000001
 30
0.0
 11
103.14100000000001
 21
229.78200000000001
 31
0.0
  0
LINE
  5
EB
  8
0
 62
     7
 10
95.640600000000006
 20
214.68199999999999
 30
0.0
 11
95.640600000000006
 21
188.88099999999989
 31
0.0
  0
LINE
  5
EC
  8
0
 62
     7
 10
47.740400000000001
 20
186.78099999999989
 30
0.0
 11
93.540400000000005
 21
186.78099999999989
 31
0.0
  0
ARC
  5
ED
  8
0
 62
     7
 10
93.459932999999992
 20
188.961995
 30
0.0
 40
2.1821419999999989
 50
272.11447799999991
 51
357.88553100000001
  0
LINE
  5
EE
  8
0
 62
     7
 10
47.740400000000001
 20
216.78200000000001
 30
0.0
 11
93.540400000000005
 21
216.78200000000001
 31
0.0
  0
ARC
  5
EF
  8
0
 62
     7
 10
93.460271999999989
 20
214.60126199999999
 30
0.0
 40
2.1818040000000001
 50
2.1152980000000001
 51
87.894091999999986
  0
LINE
  5
F0
  8
0
 62
     7
 10
45.6402
 20
214.68199999999999
 30
0.0
 11
45.6402
 21
188.88099999999989
 31
0.0
  0
ARC
  5
F1
  8
0
 62
     7
 10
47.820846000000003
 20
214.60095799999999
 30
0.0
 40
2.1821189999999988
 50
92.113577000000021
 51
177.876994
  0
ARC
  5
F2
  8
0
 62
     7
 10
47.820889999999999
 20
188.96200400000001
 30
0.0
 40
2.1821509999999988
 50
182.11472499999991
 51
267.8853049999999
  0
ARC
  5
F3
  8
0
 62
     7
 10
70.640233999999992
 20
223.281667
 30
0.0
 40
1.7499480000000001
 50
0.00565
 51
90.005619999999993
  0
ARC
  5
F4
  8
0
 62
     7
 10
70.707662999999997
 20
223.21388099999999
 30
0.0
 40
1.8189900000000001
 50
92.129819999999995
 51
177.85887099999999
  0
ARC
  5
F5
  8
0
 62
     7
 10
70.707273999999984
 20
223.349052
 30
0.0
 40
1.8185739999999999
 50
182.11807699999989
 51
267.8819529999999
  0
ARC
  5
F6
  8
0
 62
     7
 10
70.640062
 20
223.2818399999999
 30
0.0
 40
1.7501199999999999
 50
270.00002000000001
 51
359.99998999999991
  0
LINE
  5
F7
  8
0
 62
     7
 10
58.6648
 20
235.25700000000001
 30
0.0
 11
52.791899999999991
 21
235.25700000000001
 31
0.0
  0
LINE
  5
F8
  8
0
 62
     7
 10
73.860600000000005
 20
220.90000000000001
 30
0.0
 11
71.877499999999998
 21
222.0439999999999
 31
0.0
  0
LINE
  5
F9
  8
0
 62
     7
 10
71.877499999999998
 20
222.0439999999999
 30
0.0
 11
73.0227
 21
220.06200000000001
 31
0.0
  0
LINE
  5
FA
  8
0
 62
     7
 10
73.0227
 20
220.06200000000001
 30
0.0
 11
73.860600000000005
 21
220.90000000000001
 31
0.0
  0
LINE
  5
FB
  8
0
 62
     7
 10
67.419899999999998
 20
225.66399999999999
 30
0.0
 11
69.402600000000007
 21
224.51900000000001
 31
0.0
  0
LINE
  5
FC
  8
0
 62
     7
 10
69.402600000000007
 20
224.51900000000001
 30
0.0
 11
68.258099999999999
 21
226.50200000000001
 31
0.0
  0
LINE
  5
FD
  8
0
 62
     7
 10
68.258099999999999
 20
226.50200000000001
 30
0.0
 11
67.419899999999998
 21
225.66399999999999
 31
0.0
  0
LINE
  5
FE
  8
0
 62
     7
 10
58.6648
 20
235.25700000000001
 30
0.0
 11
75.142099999999999
 21
218.78
 31
0.0
  0
LINE
  5
FF
  8
0
 62
     7
 10
89.904499999999999
 20
218.9909999999999
 30
0.0
 11
90.497000000000014
 21
216.779
 31
0.0
  0
LINE
  5
100
  8
0
 62
     7
 10
90.497000000000014
 20
216.779
 30
0.0
 11
91.089600000000004
 21
218.9909999999999
 31
0.0
  0
LINE
  5
101
  8
0
 62
     7
 10
91.089600000000004
 20
218.9909999999999
 30
0.0
 11
89.904499999999999
 21
218.9909999999999
 31
0.0
  0
LINE
  5
102
  8
0
 62
     7
 10
91.075100000000006
 20
221.06899999999999
 30
0.0
 11
90.482600000000005
 21
223.28099999999989
 31
0.0
  0
LINE
  5
103
  8
0
 62
     7
 10
90.482600000000005
 20
223.28099999999989
 30
0.0
 11
89.890000000000001
 21
221.06899999999999
 31
0.0
  0
LINE
  5
104
  8
0
 62
     7
 10
89.890000000000001
 20
221.06899999999999
 30
0.0
 11
91.075100000000006
 21
221.06899999999999
 31
0.0
  0
LINE
  5
105
  8
0
 62
     7
 10
90.490099999999998
 20
216.78
 30
0.0
 11
90.490099999999998
 21
223.28
 31
0.0
  0
LINE
  5
106
  8
0
 62
     7
 10
89.904499999999999
 20
225.49299999999991
 30
0.0
 11
90.497000000000014
 21
223.28099999999989
 31
0.0
  0
LINE
  5
107
  8
0
 62
     7
 10
90.497000000000014
 20
223.28099999999989
 30
0.0
 11
91.089600000000004
 21
225.49299999999991
 31
0.0
  0
LINE
  5
108
  8
0
 62
     7
 10
91.089600000000004
 20
225.49299999999991
 30
0.0
 11
89.904499999999999
 21
225.49299999999991
 31
0.0
  0
LINE
  5
109
  8
0
 62
     7
 10
91.075100000000006
 20
227.571
 30
0.0
 11
90.482600000000005
 21
229.7829999999999
 31
0.0
  0
LINE
  5
10A
  8
0
 62
     7
 10
90.482600000000005
 20
229.7829999999999
 30
0.0
 11
89.890000000000001
 21
227.571
 31
0.0
  0
LINE
  5
10B
  8
0
 62
     7
 10
89.890000000000001
 20
227.571
 30
0.0
 11
91.075100000000006
 21
227.571
 31
0.0
  0
LINE
  5
10C
  8
0
 62
     7
 10
90.490099999999998
 20
223.28200000000001
 30
0.0
 11
90.490099999999998
 21
229.78200000000001
 31
0.0
  0
LINE
  5
10D
  8
0
 62
     7
 10
91.190200000000004
 20
223.28200000000001
 30
0.0
 11
83.666700000000006
 21
223.28200000000001
 31
0.0
  0
LINE
  5
10E
  8
0
 62
     7
 10
70.640100000000004
 20
240.71599999999989
 30
0.0
 11
70.640100000000004
 21
232.886
 31
0.0
  0
LINE
  5
10F
  8
0
 62
     7
 10
68.428600000000003
 20
239.42299999999989
 30
0.0
 11
70.640100000000004
 21
240.01499999999999
 31
0.0
  0
LINE
  5
110
  8
0
 62
     7
 10
70.640100000000004
 20
240.01499999999999
 30
0.0
 11
68.428600000000003
 21
240.608
 31
0.0
  0
LINE
  5
111
  8
0
 62
     7
 10
68.428600000000003
 20
240.608
 30
0.0
 11
68.428600000000003
 21
239.42299999999989
 31
0.0
  0
LINE
  5
112
  8
0
 62
     7
 10
72.851799999999997
 20
240.608
 30
0.0
 11
70.640100000000004
 21
240.01499999999999
 31
0.0
  0
LINE
  5
113
  8
0
 62
     7
 10
70.640100000000004
 20
240.01499999999999
 30
0.0
 11
72.851799999999997
 21
239.42299999999989
 31
0.0
  0
LINE
  5
114
  8
0
 62
     7
 10
72.851799999999997
 20
239.42299999999989
 30
0.0
 11
72.851799999999997
 21
240.608
 31
0.0
  0
LINE
  5
115
  8
0
 62
     7
 10
78.429500000000004
 20
239.43000000000001
 30
0.0
 11
80.641199999999998
 21
240.023
 31
0.0
  0
LINE
  5
116
  8
0
 62
     7
 10
80.641199999999998
 20
240.023
 30
0.0
 11
78.429500000000004
 21
240.61500000000001
 31
0.0
  0
LINE
  5
117
  8
0
 62
     7
 10
78.429500000000004
 20
240.61500000000001
 30
0.0
 11
78.429500000000004
 21
239.43000000000001
 31
0.0
  0
LINE
  5
118
  8
0
 62
     7
 10
62.85070000000001
 20
240.601
 30
0.0
 11
60.639200000000002
 21
240.0079999999999
 31
0.0
  0
LINE
  5
119
  8
0
 62
     7
 10
60.639200000000002
 20
240.0079999999999
 30
0.0
 11
62.85070000000001
 21
239.41599999999991
 31
0.0
  0
LINE
  5
11A
  8
0
 62
     7
 10
62.85070000000001
 20
239.41599999999991
 30
0.0
 11
62.85070000000001
 21
240.601
 31
0.0
  0
LINE
  5
11B
  8
0
 62
     7
 10
80.640499999999989
 20
240.01499999999999
 30
0.0
 11
60.640300000000003
 21
240.01499999999999
 31
0.0
  0
LINE
  5
11C
  8
0
 62
     7
 10
80.640499999999989
 20
240.71599999999989
 30
0.0
 11
80.640499999999989
 21
226.92599999999999
 31
0.0
  0
LINE
  5
11D
  8
0
 62
     7
 10
60.640300000000003
 20
240.71599999999989
 30
0.0
 11
60.640300000000003
 21
226.9009999999999
 31
0.0
  0
LINE
  5
11E
  8
0
 62
     7
 10
83.811400000000006
 20
201.25599999999989
 30
0.0
 11
77.666700000000006
 21
201.25599999999989
 31
0.0
  0
LINE
  5
11F
  8
0
 62
     7
 10
74.249200000000002
 20
205.51099999999991
 30
0.0
 11
72.266499999999994
 21
206.65599999999989
 31
0.0
  0
LINE
  5
120
  8
0
 62
     7
 10
72.266499999999994
 20
206.65599999999989
 30
0.0
 11
73.411299999999983
 21
204.673
 31
0.0
  0
LINE
  5
121
  8
0
 62
     7
 10
73.411299999999983
 20
204.673
 30
0.0
 11
74.249200000000002
 21
205.51099999999991
 31
0.0
  0
LINE
  5
122
  8
0
 62
     7
 10
67.031300000000002
 20
211.05299999999991
 30
0.0
 11
69.013999999999996
 21
209.9079999999999
 31
0.0
  0
LINE
  5
123
  8
0
 62
     7
 10
69.013999999999996
 20
209.9079999999999
 30
0.0
 11
67.869500000000002
 21
211.89099999999999
 31
0.0
  0
LINE
  5
124
  8
0
 62
     7
 10
67.869500000000002
 20
211.89099999999999
 30
0.0
 11
67.031300000000002
 21
211.05299999999991
 31
0.0
  0
LINE
  5
125
  8
0
 62
     7
 10
65.135499999999993
 20
213.78699999999989
 30
0.0
 11
77.666700000000006
 21
201.25599999999989
 31
0.0
  0
LINE
  5
126
  8
0
 62
     7
 10
143.4439999999999
 20
116.00099999999991
 30
0.0
 11
178.88499999999999
 21
111.026
 31
0.0
  0
LINE
  5
127
  8
0
 62
     7
 10
133.7299999999999
 20
119.501
 30
0.0
 11
179.44499999999991
 21
119.501
 31
0.0
  0
LINE
  5
128
  8
0
 62
     7
 10
132.8489999999999
 20
126.50099999999991
 30
0.0
 11
178.94499999999991
 21
126.50099999999991
 31
0.0
  0
LINE
  5
129
  8
0
 62
     7
 10
38.710700000000003
 20
126.50099999999991
 30
0.0
 11
102.56999999999999
 21
126.50099999999991
 31
0.0
  0
LINE
  5
12A
  8
0
  6
AIGENLINE003
 62
     7
 10
70.640100000000004
 20
129.285
 30
0.0
 11
70.640100000000004
 21
107.8
 31
0.0
  0
LINE
  5
12B
  8
0
  6
AIGENLINE003
 62
     7
 10
77.6922
 20
208.28200000000001
 30
0.0
 11
63.809100000000001
 21
208.28200000000001
 31
0.0
  0
LINE
  5
12C
  8
0
  6
AIGENLINE003
 62
     7
 10
70.640100000000004
 20
232.18600000000001
 30
0.0
 11
70.640100000000004
 21
180.40199999999999
 31
0.0
  0
ARC
  5
12D
  8
0
 62
     7
 10
-1065.4580000000001
 20
-32.364317
 30
0.0
 40
1141.8309999999999
 50
7.3197549999999998
 51
7.375985
  0
LINE
  5
12E
  8
0
 62
     7
 10
67.067499999999995
 20
113.1129999999999
 30
0.0
 11
67.210099999999997
 21
112.001
 31
0.0
  0
ARC
  5
12F
  8
0
 62
     7
 10
53.245292999999997
 20
100.0695649999999
 30
0.0
 40
12.031616
 50
94.916200999999987
 51
97.292306000000011
  0
ARC
  5
130
  8
0
 62
     7
 10
52.525329999999997
 20
107.06843000000001
 30
0.0
 40
4.9981809999999989
 50
89.751631000000003
 51
93.568914000000007
  0
ARC
  5
131
  8
0
 62
     7
 10
53.213700000000003
 20
192.581872
 30
0.0
 40
80.518068999999997
 50
269.52558499999998
 51
269.98157099999992
  0
ARC
  5
132
  8
0
 62
     7
 10
53.408969999999997
 20
162.08431999999991
 30
0.0
 40
50.021000999999991
 50
269.74665899999991
 51
270.83503899999999
  0
ARC
  5
133
  8
0
 62
     7
 10
53.196959
 20
171.19742400000001
 30
0.0
 40
59.136279999999999
 50
270.91175399999997
 51
271.831951
  0
ARC
  5
134
  8
0
 62
     7
 10
56.034750000000003
 20
82.559976000000006
 30
0.0
 40
29.546582999999998
 50
89.915655000000001
 51
91.837328000000014
  0
ARC
  5
135
  8
0
 62
     7
 10
56.082251999999997
 20
134.70958300000001
 30
0.0
 40
22.603055999999999
 50
269.98984200000001
 51
272.60887300000002
  0
ARC
  5
136
  8
0
 62
     7
 10
56.125755000000012
 20
134.615205
 30
0.0
 40
22.50682999999999
 50
272.50917799999991
 51
275.13932599999993
  0
ARC
  5
137
  8
0
 62
     7
 10
62.817042000000001
 20
59.471552000000003
 30
0.0
 40
52.934165999999998
 50
94.368789000000007
 51
95.066987000000012
  0
ARC
  5
138
  8
0
 62
     7
 10
58.726970999999992
 20
113.25044799999991
 30
0.0
 40
1.000205
 50
273.31023199999993
 51
288.30084399999993
  0
ARC
  5
139
  8
0
 62
     7
 10
58.717537
 20
113.290306
 30
0.0
 40
1.0410159999999991
 50
288.10496000000001
 51
302.44286599999998
  0
ARC
  5
13A
  8
0
 62
     7
 10
38.350338999999991
 20
145.26690300000001
 30
0.0
 40
38.953091000000001
 50
302.49334199999993
 51
302.68339300000002
  0
ARC
  5
13B
  8
0
 62
     7
 10
-422.43281699999989
 20
861.38236199999994
 30
0.0
 40
890.50603299999989
 50
302.75587000000002
 51
302.82152500000001
  0
LINE
  5
13C
  8
0
 62
     7
 10
60.242699999999999
 20
113.03399999999991
 30
0.0
 11
61.101199999999999
 21
113.586
 31
0.0
  0
ARC
  5
13D
  8
0
 62
     7
 10
26.224229000000001
 20
153.00520599999999
 30
0.0
 40
52.633538999999999
 50
311.50139299999989
 51
311.73516299999989
  0
ARC
  5
13E
  8
0
 62
     7
 10
62.105791000000004
 20
112.774064
 30
0.0
 40
1.2740910000000001
 50
111.7751249999999
 51
131.48728799999989
  0
ARC
  5
13F
  8
0
 62
     7
 10
62.136451000000001
 20
112.724707
 30
0.0
 40
1.331337999999999
 50
93.396011999999999
 51
112.2124969999999
  0
ARC
  5
140
  8
0
 62
     7
 10
61.893641000000002
 20
117.532162
 30
0.0
 40
3.482316
 50
272.69846200000001
 51
275.41909700000002
  0
ARC
  5
141
  8
0
 62
     7
 10
59.534930000000003
 20
144.64322499999989
 30
0.0
 40
30.695698
 50
275.023008
 51
276.56480099999999
  0
ARC
  5
142
  8
0
 62
     7
 10
65.297201000000001
 20
93.679861000000017
 30
0.0
 40
20.59254399999999
 50
91.955336000000003
 51
96.281023000000005
  0
ARC
  5
143
  8
0
 62
     7
 10
65.307863999999995
 20
93.775870999999995
 30
0.0
 40
20.496959
 50
87.649981999999994
 51
91.994282999999996
  0
LINE
  5
144
  8
0
 62
     7
 10
66.148300000000006
 20
114.256
 30
0.0
 11
66.924199999999999
 21
114.2239999999999
 31
0.0
  0
ARC
  5
145
  8
0
 62
     7
 10
52.477531999999997
 20
-4032.6259999999988
 30
0.0
 40
4146.875
 50
89.774710999999996
 51
89.800386000000003
  0
LINE
  5
146
  8
0
 62
     7
 10
68.782499999999999
 20
114.217
 30
0.0
 11
70.640100000000004
 21
114.2109999999999
 31
0.0
  0
ARC
  5
147
  8
0
 62
     7
 10
72.101126000000008
 20
-45.183341999999989
 30
0.0
 40
159.4008429999999
 50
89.857206999999988
 51
90.525169000000005
  0
LINE
  5
148
  8
0
 62
     7
 10
72.498400000000004
 20
114.217
 30
0.0
 11
74.355999999999995
 21
114.2239999999999
 31
0.0
  0
ARC
  5
149
  8
0
 62
     7
 10
52.069977999999999
 20
669.25757199999987
 30
0.0
 40
555.48091399999987
 50
272.29934300000002
 51
272.37943499999989
  0
ARC
  5
14A
  8
0
 62
     7
 10
75.97398299999999
 20
93.322831999999991
 30
0.0
 40
20.949694000000001
 50
88.051638999999994
 51
92.303899000000001
  0
ARC
  5
14B
  8
0
 62
     7
 10
75.979782
 20
93.626646999999991
 30
0.0
 40
20.645858
 50
83.724544999999992
 51
88.039056000000002
  0
ARC
  5
14C
  8
0
 62
     7
 10
84.364749999999987
 20
169.77054699999999
 30
0.0
 40
55.958326999999997
 50
263.71272699999997
 51
264.39514100000002
  0
ARC
  5
14D
  8
0
 62
     7
 10
79.655450000000002
 20
121.4532649999999
 30
0.0
 40
7.4121699999999988
 50
264.14590800000002
 51
266.65705400000002
  0
ARC
  5
14E
  8
0
 62
     7
 10
79.153919999999999
 20
112.766757
 30
0.0
 40
1.288815
 50
67.474106000000006
 51
86.917344999999997
  0
ARC
  5
14F
  8
0
 62
     7
 10
79.140768999999992
 20
112.7210969999999
 30
0.0
 40
1.336041
 50
48.939166999999991
 51
67.703318999999993
  0
ARC
  5
150
  8
0
 62
     7
 10
50.891603000000003
 20
80.781630000000007
 30
0.0
 40
43.975714000000004
 50
48.241824999999992
 51
48.521619000000001
  0
ARC
  5
151
  8
0
 62
     7
 10
-400.35289
 20
-634.85173399999985
 30
0.0
 40
889.42095600000005
 50
57.23189399999999
 51
57.297640999999999
  0
ARC
  5
152
  8
0
 62
     7
 10
635.24304900000004
 20
973.11344800000006
 30
0.0
 40
1023.172
 50
237.20367499999989
 51
237.26084900000001
  0
ARC
  5
153
  8
0
 62
     7
 10
87.340106999999975
 20
120.825182
 30
0.0
 40
9.9628449999999997
 50
236.87647799999991
 51
237.61621500000001
  0
ARC
  5
154
  8
0
 62
     7
 10
82.528610999999998
 20
113.2201389999999
 30
0.0
 40
0.963615
 50
237.02392599999999
 51
252.557717
  0
ARC
  5
155
  8
0
 62
     7
 10
82.560423
 20
113.2840129999999
 30
0.0
 40
1.0341480000000001
 50
251.936995
 51
266.39509500000003
  0
ARC
  5
156
  8
0
 62
     7
 10
82.141523000000007
 20
106.1379979999999
 30
0.0
 40
6.1241459999999988
 50
84.802942999999999
 51
86.687370999999985
  0
ARC
  5
157
  8
0
 62
     7
 10
75.235357999999991
 20
22.983442
 30
0.0
 40
89.564818999999986
 50
84.937376000000015
 51
85.221619999999987
  0
ARC
  5
158
  8
0
 62
     7
 10
85.242893000000009
 20
135.91846599999991
 30
0.0
 40
23.812736999999991
 50
264.93110200000001
 51
267.41533199999992
  0
ARC
  5
159
  8
0
 62
     7
 10
85.199081000000007
 20
134.7628179999999
 30
0.0
 40
22.656290999999989
 50
267.39422400000001
 51
270.00709999999992
  0
ARC
  5
15A
  8
0
 62
     7
 10
85.205905999999999
 20
79.935310000000001
 30
0.0
 40
32.171216999999992
 50
88.241043000000005
 51
90.007153000000017
  0
ARC
  5
15B
  8
0
 62
     7
 10
88.078238999999996
 20
170.96290999999999
 30
0.0
 40
58.901706000000011
 50
268.16623599999991
 51
269.09009800000001
  0
ARC
  5
15C
  8
0
 62
     7
 10
87.917226999999997
 20
171.024899
 30
0.0
 40
58.961353000000003
 50
269.247499
 51
270.17084299999999
  0
LINE
  5
15D
  8
0
 62
     7
 10
88.092999999999975
 20
112.06399999999989
 30
0.0
 11
88.733800000000002
 21
112.06699999999999
 31
0.0
  0
ARC
  5
15E
  8
0
 62
     7
 10
88.755758999999983
 20
107.077924
 30
0.0
 40
4.9886879999999989
 50
86.427432999999994
 51
90.251982999999996
  0
ARC
  5
15F
  8
0
 62
     7
 10
88.853343999999993
 20
108.609482
 30
0.0
 40
3.4540259999999998
 50
83.769238999999985
 51
86.459947999999997
  0
ARC
  5
160
  8
0
 62
     7
 10
87.901943000000017
 20
99.322040000000001
 30
0.0
 40
12.790015999999991
 50
82.542237999999998
 51
84.047933999999998
  0
ARC
  5
161
  8
0
 62
     7
 10
-597.09508099999994
 20
193.104467
 30
0.0
 40
696.24707999999998
 50
353.66195299999993
 51
353.93167299999988
  0
LINE
  5
162
  8
0
 62
     7
 10
94.896399999999986
 20
116.24299999999999
 30
0.0
 11
94.542299999999997
 21
113.0149999999999
 31
0.0
  0
ARC
  5
163
  8
0
 62
     7
 10
242.37464700000001
 20
96.693850999999995
 30
0.0
 40
148.730548
 50
173.699994
 51
173.80733599999999
  0
ARC
  5
164
  8
0
 62
     7
 10
93.097892000000002
 20
112.8982509999999
 30
0.0
 40
1.423165
 50
330.53314099999989
 51
353.52142599999991
  0
ARC
  5
165
  8
0
 62
     7
 10
93.025974000000005
 20
112.9137489999999
 30
0.0
 40
1.493563999999999
 50
309.46134199999989
 51
331.37271099999992
  0
ARC
  5
166
  8
0
 62
     7
 10
245.01549700000001
 20
-77.04311899999999
 30
0.0
 40
241.78507799999991
 50
128.659289
 51
128.78066799999991
  0
ARC
  5
167
  8
0
 62
     7
 10
92.696108999999993
 20
112.536531
 30
0.0
 40
1.4054649999999991
 50
289.30687799999993
 51
308.73767500000002
  0
ARC
  5
168
  8
0
 62
     7
 10
92.658344999999997
 20
112.60117199999991
 30
0.0
 40
1.479023999999999
 50
271.42066499999987
 51
289.859599
  0
LINE
  5
169
  8
0
 62
     7
 10
92.694999999999979
 20
111.12299999999991
 30
0.0
 11
92.461399999999998
 21
111.11799999999999
 31
0.0
  0
ARC
  5
16A
  8
0
 62
     7
 10
48.378905000000003
 20
1172.453999999999
 30
0.0
 40
1062.25055
 50
272.31764299999998
 51
272.378421
  0
ARC
  5
16B
  8
0
 62
     7
 10
138.309327
 20
-1031.23
 30
0.0
 40
1143.268
 50
92.354780999999988
 51
92.411253000000016
  0
ARC
  5
16C
  8
0
 62
     7
 10
90.360555000000005
 20
106.664109
 30
0.0
 40
4.3639479999999997
 50
91.980930000000015
 51
92.841110000000015
  0
ARC
  5
16D
  8
0
 62
     7
 10
90.133375000000001
 20
111.36156699999989
 30
0.0
 40
0.339047
 50
249.14013799999989
 51
271.837964
  0
ARC
  5
16E
  8
0
 62
     7
 10
90.129509999999996
 20
111.3683629999999
 30
0.0
 40
0.344075
 50
227.9278799999999
 51
250.144634
  0
ARC
  5
16F
  8
0
 62
     7
 10
99.312881000000004
 20
121.4071389999999
 30
0.0
 40
13.94962999999999
 50
227.060733
 51
227.557422
  0
ARC
  5
170
  8
0
 62
     7
 10
90.037012000000004
 20
111.440949
 30
0.0
 40
0.33469
 50
208.13146999999989
 51
227.30798399999989
  0
ARC
  5
171
  8
0
 62
     7
 10
90.046446000000003
 20
111.44768999999989
 30
0.0
 40
0.346191
 50
189.833619
 51
208.379122
  0
ARC
  5
172
  8
0
 62
     7
 10
89.244344999999996
 20
111.30031099999999
 30
0.0
 40
0.4693680000000001
 50
10.837681999999999
 51
18.250539
  0
ARC
  5
173
  8
0
 62
     7
 10
96.481218999999996
 20
113.3031209999999
 30
0.0
 40
7.0401229999999986
 50
190.63494299999991
 51
195.2841389999999
  0
ARC
  5
174
  8
0
 62
     7
 10
738.37589500000001
 20
193.104467
 30
0.0
 40
696.24707999999998
 50
186.06834699999999
 51
186.338067
  0
LINE
  5
175
  8
0
 62
     7
 10
46.384399999999999
 20
116.24299999999999
 30
0.0
 11
46.738500000000002
 21
113.0149999999999
 31
0.0
  0
ARC
  5
176
  8
0
 62
     7
 10
-7.3513070000000003
 20
106.954227
 30
0.0
 40
54.428293999999987
 50
6.099654000000001
 51
6.392976
  0
ARC
  5
177
  8
0
 62
     7
 10
48.157581999999998
 20
112.88848
 30
0.0
 40
1.3969009999999991
 50
186.19766899999991
 51
209.61533900000001
  0
ARC
  5
178
  8
0
 62
     7
 10
48.272680999999999
 20
112.9290689999999
 30
0.0
 40
1.5171760000000001
 50
208.79987799999989
 51
230.36610899999991
  0
ARC
  5
179
  8
0
 62
     7
 10
-709.99257699999987
 20
-834.86435800000004
 30
0.0
 40
1212.27
 50
51.316045000000003
 51
51.340279000000002
  0
ARC
  5
17A
  8
0
 62
     7
 10
48.576163000000001
 20
112.519769
 30
0.0
 40
1.387049999999999
 50
231.10428200000001
 51
250.7703479999999
  0
ARC
  5
17B
  8
0
 62
     7
 10
48.624211999999993
 20
112.614119
 30
0.0
 40
1.4920299999999991
 50
250.22147699999999
 51
268.49829799999998
  0
LINE
  5
17C
  8
0
 62
     7
 10
48.58509999999999
 20
111.12299999999991
 30
0.0
 11
48.819400000000002
 21
111.11799999999999
 31
0.0
  0
ARC
  5
17D
  8
0
 62
     7
 10
4.759885999999999
 20
-977.1589859999998
 30
0.0
 40
1089.168999999999
 50
87.622330000000005
 51
87.681605999999988
  0
ARC
  5
17E
  8
0
 62
     7
 10
-2.5494939999999988
 20
-1163.896
 30
0.0
 40
1276.048
 50
87.591665000000006
 51
87.642261000000005
  0
LINE
  5
17F
  8
0
 62
     7
 10
51.071100000000001
 20
111.02500000000001
 30
0.0
 11
51.136600000000001
 21
111.023
 31
0.0
  0
ARC
  5
180
  8
0
 62
     7
 10
51.146895000000001
 20
111.361034
 30
0.0
 40
0.338498
 50
268.25119100000001
 51
290.86901999999998
  0
ARC
  5
181
  8
0
 62
     7
 10
51.15056899999999
 20
111.370772
 30
0.0
 40
0.346357
 50
289.72714500000001
 51
311.89534700000002
  0
ARC
  5
182
  8
0
 62
     7
 10
42.170625999999999
 20
121.18741299999991
 30
0.0
 40
13.650694
 50
312.43715899999989
 51
312.944726
  0
ARC
  5
183
  8
0
 62
     7
 10
51.241517000000002
 20
111.4427159999999
 30
0.0
 40
0.337538
 50
312.77370200000001
 51
331.78688399999999
  0
ARC
  5
184
  8
0
 62
     7
 10
51.234368000000003
 20
111.44768999999989
 30
0.0
 40
0.346191
 50
331.62089800000001
 51
350.16640000000001
  0
ARC
  5
185
  8
0
 62
     7
 10
52.079861999999999
 20
111.29119900000001
 30
0.0
 40
0.5137010000000001
 50
161.92799799999989
 51
169.07420400000001
  0
ARC
  5
186
  8
0
 62
     7
 10
44.657175000000002
 20
113.3282729999999
 30
0.0
 40
7.1840609999999989
 50
344.84846900000002
 51
349.37652800000001
  0
ARC
  5
187
  8
0
 62
     7
 10
102.5047829999999
 20
125.1217199999999
 30
0.0
 40
1.3807430000000001
 50
83.18718100000001
 51
87.288628000000017
  0
ARC
  5
188
  8
0
 62
     7
 10
102.611434
 20
125.987382
 30
0.0
 40
0.508551
 50
67.788798999999983
 51
83.548599999999993
  0
ARC
  5
189
  8
0
 62
     7
 10
102.624668
 20
126.078722
 30
0.0
 40
0.4195770000000001
 50
42.800040000000003
 51
64.745423000000002
  0
ARC
  5
18A
  8
0
 62
     7
 10
95.337209000000001
 20
119.30848400000001
 30
0.0
 40
10.366595999999999
 50
42.037348999999992
 51
42.889119000000001
  0
ARC
  5
18B
  8
0
 62
     7
 10
102.74166700000001
 20
125.9816519999999
 30
0.0
 40
0.398794
 50
19.965071999999989
 51
42.312865999999993
  0
ARC
  5
18C
  8
0
 62
     7
 10
102.7244969999999
 20
125.970135
 30
0.0
 40
0.418894
 50
359.37215800000001
 51
20.643799999999992
  0
ARC
  5
18D
  8
0
 62
     7
 10
62.348042999999997
 20
126.474203
 30
0.0
 40
40.798493000000001
 50
358.48337400000003
 51
359.28564299999988
  0
ARC
  5
18E
  8
0
 62
     7
 10
-392.666518
 20
135.348601
 30
0.0
 40
495.8986789999999
 50
358.79232500000001
 51
358.84982000000002
  0
ARC
  5
18F
  8
0
 62
     7
 10
77.532720999999995
 20
125.404583
 30
0.0
 40
25.594321000000001
 50
354.41539799999998
 51
358.86335200000002
  0
ARC
  5
190
  8
0
 62
     7
 10
77.552289999999985
 20
125.3842409999999
 30
0.0
 40
25.572872
 50
350.00244300000003
 51
354.45649199999991
  0
ARC
  5
191
  8
0
 62
     7
 10
3.701938999999999
 20
138.31873100000001
 30
0.0
 40
100.547359
 50
349.45591400000001
 51
350.04962399999988
  0
ARC
  5
192
  8
0
 62
     7
 10
102.169174
 20
119.98637100000001
 30
0.0
 40
0.388148
 50
326.338097
 51
350.05908899999997
  0
ARC
  5
193
  8
0
 62
     7
 10
102.130731
 20
120.001582
 30
0.0
 40
0.4286640000000001
 50
305.99846200000002
 51
327.49411099999992
  0
ARC
  5
194
  8
0
 62
     7
 10
90.096188999999995
 20
136.965453
 30
0.0
 40
21.22775
 50
304.98807900000003
 51
305.36577199999988
  0
ARC
  5
195
  8
0
 62
     7
 10
102.04974199999999
 20
119.88394099999989
 30
0.0
 40
0.3791199999999999
 50
286.49289800000003
 51
305.20489900000001
  0
ARC
  5
196
  8
0
 62
     7
 10
102.0335849999999
 20
119.90781799999991
 30
0.0
 40
0.406695
 50
270.25793299999992
 51
287.72058199999998
  0
LINE
  5
197
  8
0
 62
     7
 10
102.035
 20
119.501
 30
0.0
 11
101.9739999999999
 21
119.501
 31
0.0
  0
ARC
  5
198
  8
0
 62
     7
 10
39.267446999999997
 20
-12.98043599999999
 30
0.0
 40
132.48156900000001
 50
89.98300500000002
 51
90.016975000000002
  0
ARC
  5
199
  8
0
 62
     7
 10
39.228974000000001
 20
119.902253
 30
0.0
 40
0.401127
 50
246.81889599999991
 51
269.88549799999993
  0
ARC
  5
19A
  8
0
 62
     7
 10
39.234563999999999
 20
119.926761
 30
0.0
 40
0.4258810000000001
 50
225.8822319999999
 51
247.42547599999989
  0
ARC
  5
19B
  8
0
 62
     7
 10
29.266257
 20
109.980768
 30
0.0
 40
13.655725
 50
44.906283000000002
 51
45.492978999999998
  0
ARC
  5
19C
  8
0
 62
     7
 10
39.118895000000002
 20
119.9984699999999
 30
0.0
 40
0.395233
 50
206.93202899999989
 51
224.88744800000001
  0
ARC
  5
19D
  8
0
 62
     7
 10
39.132290999999988
 20
120.012019
 30
0.0
 40
0.413357
 50
190.514229
 51
207.7653709999999
  0
ARC
  5
19E
  8
0
 62
     7
 10
7.3435090000000001
 20
114.4489389999999
 30
0.0
 40
31.858549
 50
9.9186920000000001
 51
10.840234000000001
  0
ARC
  5
19F
  8
0
 62
     7
 10
133.31679899999989
 20
137.529428
 30
0.0
 40
96.213015000000013
 50
189.92600200000001
 51
190.23085499999991
  0
ARC
  5
1A0
  8
0
 62
     7
 10
63.598645999999988
 20
125.366518
 30
0.0
 40
25.441890000000001
 50
185.5320569999999
 51
190.00904799999989
  0
ARC
  5
1A1
  8
0
 62
     7
 10
64.249810999999994
 20
125.4340449999999
 30
0.0
 40
26.096532
 50
181.17948799999991
 51
185.5418019999999
  0
ARC
  5
1A2
  8
0
 62
     7
 10
1728.8829499999999
 20
160.22584900000001
 30
0.0
 40
1691.0930000000001
 50
181.160776
 51
181.19708499999999
  0
ARC
  5
1A3
  8
0
 62
     7
 10
38.52614899999999
 20
125.97778599999999
 30
0.0
 40
0.389506
 50
157.72975699999989
 51
181.395295
  0
ARC
  5
1A4
  8
0
 62
     7
 10
38.561857000000003
 20
125.9693179999999
 30
0.0
 40
0.4257970000000001
 50
136.8643919999999
 51
158.496342
  0
ARC
  5
1A5
  8
0
 62
     7
 10
49.33020599999999
 20
115.76700599999999
 30
0.0
 40
15.259688000000001
 50
135.974963
 51
136.55500900000001
  0
ARC
  5
1A6
  8
0
 62
     7
 10
38.644168000000001
 20
126.095831
 30
0.0
 40
0.397789
 50
113.63099799999991
 51
136.01795200000001
  0
ARC
  5
1A7
  8
0
 62
     7
 10
38.606982000000002
 20
126.1921
 30
0.0
 40
0.294721
 50
104.911123
 51
114.51008299999999
  0
ARC
  5
1A8
  8
0
 62
     7
 10
38.685179999999988
 20
125.9079489999999
 30
0.0
 40
0.589432
 50
96.978247999999994
 51
105.1489729999999
  0
ARC
  5
1A9
  8
0
 62
     7
 10
38.753230000000002
 20
125.37716500000001
 30
0.0
 40
1.1245549999999991
 50
92.166613999999996
 51
97.134127000000007
  0
ARC
  5
1AA
  8
0
 62
     7
 10
70.640233999999992
 20
208.28197099999991
 30
0.0
 40
4.000299
 50
0.002477
 51
90.002447000000004
  0
ARC
  5
1AB
  8
0
 62
     7
 10
70.640235000000004
 20
208.2823149999999
 30
0.0
 40
3.9999539999999998
 50
90.00246700000001
 51
180.002477
  0
ARC
  5
1AC
  8
0
 62
     7
 10
70.640233999999992
 20
208.28197099999991
 30
0.0
 40
3.9999530000000001
 50
179.99750299999991
 51
269.99755199999993
  0
ARC
  5
1AD
  8
0
 62
     7
 10
70.640233999999992
 20
208.28231599999989
 30
0.0
 40
4.000299
 50
269.99755299999993
 51
359.997523
  0
ARC
  5
1AE
  8
0
 62
     7
 10
70.551918999999998
 20
208.19399999999999
 30
0.0
 40
2.3897300000000001
 50
2.113801
 51
87.886189000000016
  0
ARC
  5
1AF
  8
0
 62
     7
 10
70.728613999999993
 20
208.19359199999991
 30
0.0
 40
2.3901520000000001
 50
92.123187000000001
 51
177.87678299999999
  0
ARC
  5
1B0
  8
0
 62
     7
 10
70.728205000000003
 20
208.37028699999999
 30
0.0
 40
2.3897289999999991
 50
182.11380299999999
 51
267.88622700000002
  0
ARC
  5
1B1
  8
0
 62
     7
 10
70.551526999999993
 20
208.37067899999991
 30
0.0
 40
2.390136
 50
272.12285400000002
 51
357.8771549999999
  0
LINE
  5
1B2
  8
0
  6
AIGENLINE003
 62
     7
 10
80.640499999999989
 20
220.91300000000001
 30
0.0
 11
80.640499999999989
 21
226.22599999999991
 31
0.0
  0
LINE
  5
1B3
  8
0
  6
AIGENLINE003
 62
     7
 10
77.994699999999995
 20
223.28200000000001
 30
0.0
 11
82.966700000000003
 21
223.28200000000001
 31
0.0
  0
LINE
  5
1B4
  8
0
  6
AIGENLINE003
 62
     7
 10
73.404399999999995
 20
223.28200000000001
 30
0.0
 11
67.748199999999997
 21
223.28200000000001
 31
0.0
  0
ARC
  5
1B5
  8
0
  6
AIGENLINE001
 62
     7
 10
80.582981000000004
 20
223.22427200000001
 30
0.0
 40
1.5586349999999991
 50
2.1166839999999998
 51
87.883306000000005
  0
ARC
  5
1B6
  8
0
  6
AIGENLINE001
 62
     7
 10
80.698487999999998
 20
223.2238999999999
 30
0.0
 40
1.5590209999999991
 50
92.129823000000002
 51
177.870147
  0
ARC
  5
1B7
  8
0
  6
AIGENLINE001
 62
     7
 10
80.698095999999993
 20
223.33938699999999
 30
0.0
 40
1.5586139999999991
 50
182.11597299999991
 51
267.88405599999987
  0
ARC
  5
1B8
  8
0
  6
AIGENLINE001
 62
     7
 10
80.582594
 20
223.33979500000001
 30
0.0
 40
1.559037
 50
272.13038899999998
 51
357.86962099999988
  0
LINE
  5
1B9
  8
0
  6
AIGENLINE003
 62
     7
 10
60.640300000000003
 20
220.30699999999999
 30
0.0
 11
60.640300000000003
 21
226.20099999999999
 31
0.0
  0
LINE
  5
1BA
  8
0
  6
AIGENLINE003
 62
     7
 10
57.667099999999991
 20
223.28200000000001
 30
0.0
 11
63.671300000000002
 21
223.28200000000001
 31
0.0
  0
ARC
  5
1BB
  8
0
  6
AIGENLINE001
 62
     7
 10
60.582697000000003
 20
223.22427200000001
 30
0.0
 40
1.5586349999999991
 50
2.1166839999999998
 51
87.883306000000005
  0
ARC
  5
1BC
  8
0
  6
AIGENLINE001
 62
     7
 10
60.698219999999992
 20
223.22388499999991
 30
0.0
 40
1.559037
 50
92.130370000000013
 51
177.86960099999999
  0
ARC
  5
1BD
  8
0
  6
AIGENLINE001
 62
     7
 10
60.697811999999999
 20
223.33938699999999
 30
0.0
 40
1.5586139999999991
 50
182.11597299999991
 51
267.88405599999987
  0
ARC
  5
1BE
  8
0
  6
AIGENLINE001
 62
     7
 10
60.58231
 20
223.33979500000001
 30
0.0
 40
1.559037
 50
272.13038899999998
 51
357.86962099999988
  0
LINE
  5
1BF
  8
0
  6
AIGENLINE003
 62
     7
 10
176.4609999999999
 20
120.501
 30
0.0
 11
181.91399999999999
 21
120.501
 31
0.0
  0
LINE
  5
1C0
  8
0
  6
AIGENLINE003
 62
     7
 10
82.1006
 20
120.501
 30
0.0
 11
87.554199999999994
 21
120.501
 31
0.0
  0
LINE
  5
1C1
  8
0
  6
AIGENLINE001
 62
     7
 10
85.140600000000006
 20
121.501
 30
0.0
 11
84.140100000000004
 21
121.501
 31
0.0
  0
LINE
  5
1C2
  8
0
  6
AIGENLINE001
 62
     7
 10
85.140600000000006
 20
119.501
 30
0.0
 11
84.140100000000004
 21
119.501
 31
0.0
  0
ARC
  5
1C3
  8
0
  6
AIGENLINE001
 62
     7
 10
85.101926000000006
 20
120.5391909999999
 30
0.0
 40
1.0391259999999991
 50
272.13077099999998
 51
357.86923899999999
  0
ARC
  5
1C4
  8
0
  6
AIGENLINE001
 62
     7
 10
85.101635999999999
 20
120.462346
 30
0.0
 40
1.039401
 50
2.1067269999999998
 51
87.853789000000035
  0
ARC
  5
1C5
  8
0
  6
AIGENLINE001
 62
     7
 10
84.178781999999998
 20
120.4625879999999
 30
0.0
 40
1.03915
 50
92.133369999999999
 51
177.90607299999991
  0
ARC
  5
1C6
  8
0
  6
AIGENLINE001
 62
     7
 10
84.178335999999987
 20
120.538793
 30
0.0
 40
1.038713999999999
 50
182.10967400000001
 51
267.890356
  0
LINE
  5
1C7
  8
0
  6
AIGENLINE003
 62
     7
 10
84.640299999999996
 20
233.274
 30
0.0
 11
84.640299999999996
 21
226.97399999999999
 31
0.0
  0
LINE
  5
1C8
  8
0
  6
AIGENLINE003
 62
     7
 10
56.639800000000001
 20
233.274
 30
0.0
 11
56.639800000000001
 21
227.084
 31
0.0
  0
LINE
  5
1C9
  8
0
  6
AIGENLINE003
 62
     7
 10
84.640299999999996
 20
122.462
 30
0.0
 11
84.640299999999996
 21
118.55
 31
0.0
  0
LINE
  5
1CA
  8
0
  6
AIGENLINE003
 62
     7
 10
54.39009999999999
 20
120.501
 30
0.0
 11
58.6111
 21
120.501
 31
0.0
  0
LINE
  5
1CB
  8
0
  6
AIGENLINE001
 62
     7
 10
56.140300000000003
 20
121.501
 30
0.0
 11
57.140000000000001
 21
121.501
 31
0.0
  0
ARC
  5
1CC
  8
0
  6
AIGENLINE001
 62
     7
 10
57.101424000000002
 20
120.5398729999999
 30
0.0
 40
1.039806999999999
 50
272.12753900000001
 51
357.83299799999992
  0
ARC
  5
1CD
  8
0
  6
AIGENLINE001
 62
     7
 10
57.140025999999999
 20
120.50055500000001
 30
0.0
 40
1.000462
 50
0.00001
 51
89.999980000000008
  0
LINE
  5
1CE
  8
0
  6
AIGENLINE001
 62
     7
 10
57.140000000000001
 20
119.501
 30
0.0
 11
56.140300000000003
 21
119.501
 31
0.0
  0
LINE
  5
1CF
  8
0
  6
AIGENLINE003
 62
     7
 10
56.639800000000001
 20
122.462
 30
0.0
 11
56.639800000000001
 21
118.66
 31
0.0
  0
ARC
  5
1D0
  8
0
  6
AIGENLINE001
 62
     7
 10
56.140253000000001
 20
120.50055500000001
 30
0.0
 40
1.000462
 50
90.0
 51
179.99996999999991
  0
ARC
  5
1D1
  8
0
  6
AIGENLINE001
 62
     7
 10
56.177824000000001
 20
120.538842
 30
0.0
 40
1.038738999999999
 50
182.112313
 51
267.92718999999988
  0
LINE
  5
1D2
  8
0
 62
     7
 10
92.059700000000007
 20
128.71299999999991
 30
0.0
 11
92.652299999999997
 21
126.50099999999991
 31
0.0
  0
LINE
  5
1D3
  8
0
 62
     7
 10
92.652299999999997
 20
126.50099999999991
 30
0.0
 11
93.244900000000001
 21
128.71299999999991
 31
0.0
  0
LINE
  5
1D4
  8
0
 62
     7
 10
93.244900000000001
 20
128.71299999999991
 30
0.0
 11
92.059700000000007
 21
128.71299999999991
 31
0.0
  0
LINE
  5
1D5
  8
0
 62
     7
 10
157.46899999999991
 20
124.289
 30
0.0
 11
156.87700000000001
 21
126.50099999999991
 31
0.0
  0
LINE
  5
1D6
  8
0
 62
     7
 10
156.87700000000001
 20
126.50099999999991
 30
0.0
 11
156.28399999999999
 21
124.289
 31
0.0
  0
LINE
  5
1D7
  8
0
 62
     7
 10
156.28399999999999
 20
124.289
 30
0.0
 11
157.46899999999991
 21
124.289
 31
0.0
  0
LINE
  5
1D8
  8
0
 62
     7
 10
156.87700000000001
 20
116.00099999999991
 30
0.0
 11
156.87700000000001
 21
126.50099999999991
 31
0.0
  0
LINE
  5
1D9
  8
0
 62
     7
 10
93.244900000000001
 20
118.2889999999999
 30
0.0
 11
92.652299999999997
 21
120.501
 31
0.0
  0
LINE
  5
1DA
  8
0
 62
     7
 10
92.652299999999997
 20
120.501
 30
0.0
 11
92.059700000000007
 21
118.2889999999999
 31
0.0
  0
LINE
  5
1DB
  8
0
 62
     7
 10
92.059700000000007
 20
118.2889999999999
 30
0.0
 11
93.244900000000001
 21
118.2889999999999
 31
0.0
  0
LINE
  5
1DC
  8
0
 62
     7
 10
92.652299999999997
 20
117.2619999999999
 30
0.0
 11
92.652299999999997
 21
132.83500000000001
 31
0.0
  0
LINE
  5
1DD
  8
0
 62
     7
 10
93.352300000000014
 20
120.501
 30
0.0
 11
88.254300000000001
 21
120.501
 31
0.0
  0
LINE
  5
1DE
  8
0
 62
     7
 10
109.7429999999999
 20
121.7119999999999
 30
0.0
 11
110.336
 21
119.5
 31
0.0
  0
LINE
  5
1DF
  8
0
 62
     7
 10
110.336
 20
119.5
 30
0.0
 11
110.928
 21
121.7119999999999
 31
0.0
  0
LINE
  5
1E0
  8
0
 62
     7
 10
110.928
 20
121.7119999999999
 30
0.0
 11
109.7429999999999
 21
121.7119999999999
 31
0.0
  0
LINE
  5
1E1
  8
0
 62
     7
 10
110.92100000000001
 20
124.289
 30
0.0
 11
110.32899999999989
 21
126.50099999999991
 31
0.0
  0
LINE
  5
1E2
  8
0
 62
     7
 10
110.32899999999989
 20
126.50099999999991
 30
0.0
 11
109.736
 21
124.289
 31
0.0
  0
LINE
  5
1E3
  8
0
 62
     7
 10
109.736
 20
124.289
 30
0.0
 11
110.92100000000001
 21
124.289
 31
0.0
  0
LINE
  5
1E4
  8
0
 62
     7
 10
110.32899999999989
 20
119.501
 30
0.0
 11
110.32899999999989
 21
126.50099999999991
 31
0.0
  0
LINE
  5
1E5
  8
0
 62
     7
 10
111.0289999999999
 20
119.501
 30
0.0
 11
103.432
 21
119.501
 31
0.0
  0
TEXT
  5
1E6
  8
_________2
 62
     7
 10
29.525700000000001
 20
22.2272
 30
0.0
 40
4.6583899999999989
  1
実容量：3.8L、重量20.0kg、オーバーフロー付
 41
0.5
  0
LINE
  5
1E7
  8
_________2
 62
     7
 10
105.2389999999999
 20
17.428499999999989
 30
0.0
 11
105.2389999999999
 21
0.4485540000000001
 31
0.0
  0
LINE
  5
1E8
  8
_________2
 62
     7
 10
81.679900000000004
 20
51.324300000000001
 30
0.0
 11
79.493700000000004
 21
51.324300000000001
 31
0.0
  0
LINE
  5
1E9
  8
_________2
 62
     7
 10
82.172600000000017
 20
51.324300000000001
 30
0.0
 11
81.920400000000001
 21
51.324300000000001
 31
0.0
  0
LINE
  5
1EA
  8
_________2
 62
     7
 10
82.665199999999984
 20
51.324300000000001
 30
0.0
 11
85.590100000000007
 21
51.324300000000001
 31
0.0
  0
LINE
  5
1EB
  8
_________2
 62
     7
 10
82.172600000000017
 20
51.324300000000001
 30
0.0
 11
82.424800000000005
 21
51.324300000000001
 31
0.0
  0
LINE
  5
1EC
  8
_________2
 62
     7
 10
75.776399999999995
 20
51.324300000000001
 30
0.0
 11
73.589399999999998
 21
51.324300000000001
 31
0.0
  0
LINE
  5
1ED
  8
_________2
 62
     7
 10
76.2684
 20
51.324300000000001
 30
0.0
 11
76.016900000000007
 21
51.324300000000001
 31
0.0
  0
LINE
  5
1EE
  8
_________2
 62
     7
 10
76.2684
 20
51.817
 30
0.0
 11
76.2684
 21
54.003900000000002
 31
0.0
  0
LINE
  5
1EF
  8
_________2
 62
     7
 10
76.2684
 20
51.324300000000001
 30
0.0
 11
76.2684
 21
51.576900000000002
 31
0.0
  0
LINE
  5
1F0
  8
_________2
 62
     7
 10
76.76100000000001
 20
51.324300000000001
 30
0.0
 11
78.947999999999993
 21
51.324300000000001
 31
0.0
  0
LINE
  5
1F1
  8
_________2
 62
     7
 10
76.2684
 20
51.324300000000001
 30
0.0
 11
76.520499999999998
 21
51.324300000000001
 31
0.0
  0
LINE
  5
1F2
  8
_________2
 62
     7
 10
76.2684
 20
50.832399999999993
 30
0.0
 11
76.2684
 21
48.645699999999998
 31
0.0
  0
LINE
  5
1F3
  8
_________2
 62
     7
 10
76.2684
 20
51.324300000000001
 30
0.0
 11
76.2684
 21
51.072800000000001
 31
0.0
  0
LINE
  5
1F4
  8
_________2
 62
     7
 10
79.979399999999984
 20
50.104799999999997
 30
0.0
 11
85.157399999999996
 21
49.240000000000002
 31
0.0
  0
LINE
  5
1F5
  8
_________2
 62
     7
 10
79.979399999999984
 20
52.544199999999989
 30
0.0
 11
85.157399999999996
 21
53.409700000000001
 31
0.0
  0
LINE
  5
1F6
  8
_________2
 62
     7
 10
85.157399999999996
 20
49.240000000000002
 30
0.0
 11
85.157399999999996
 21
53.409700000000001
 31
0.0
  0
LINE
  5
1F7
  8
_________2
 62
     7
 10
79.979399999999984
 20
50.104799999999997
 30
0.0
 11
79.979399999999984
 21
52.544199999999989
 31
0.0
  0
ARC
  5
1F8
  8
_________2
 62
     7
 10
76.221766000000002
 20
51.277380999999998
 30
0.0
 40
1.267714
 50
2.1220840000000001
 51
87.894083999999992
  0
ARC
  5
1F9
  8
_________2
 62
     7
 10
76.315297000000001
 20
51.277734999999993
 30
0.0
 40
1.267374999999999
 50
92.122849999999985
 51
177.893304
  0
ARC
  5
1FA
  8
_________2
 62
     7
 10
76.315273000000005
 20
51.371245999999992
 30
0.0
 40
1.267363
 50
182.12181499999991
 51
267.87821400000001
  0
ARC
  5
1FB
  8
_________2
 62
     7
 10
76.221461000000005
 20
51.371928999999987
 30
0.0
 40
1.2680439999999991
 50
272.11916400000001
 51
357.84848499999993
  0
ARC
  5
1FC
  8
_________2
 62
     7
 10
76.187981999999991
 20
51.244312999999998
 30
0.0
 40
2.1668310000000002
 50
2.1161439999999989
 51
87.874379000000005
  0
ARC
  5
1FD
  8
_________2
 62
     7
 10
76.348411999999996
 20
51.245334999999997
 30
0.0
 40
2.1657980000000001
 50
92.118487999999999
 51
177.90988599999989
  0
ARC
  5
1FE
  8
_________2
 62
     7
 10
76.348354
 20
51.404327000000002
 30
0.0
 40
2.1657779999999991
 50
182.11700400000001
 51
267.88302499999992
  0
ARC
  5
1FF
  8
_________2
 62
     7
 10
76.188378999999983
 20
51.405009999999997
 30
0.0
 40
2.1664590000000001
 50
272.11546800000002
 51
357.86560400000002
  0
TEXT
  5
200
  8
_________2
 62
     7
 10
109.5439999999999
 20
23.199100000000001
 30
0.0
 40
3.660169999999999
  1
図番
 41
0.5
  0
LINE
  5
201
  8
_________2
 62
     7
 10
108.4889999999999
 20
27.4283
 30
0.0
 11
188.49000000000001
 21
27.4283
 31
0.0
  0
TEXT
  5
202
  8
_________2
 62
     7
 10
109.5439999999999
 20
33.198900000000002
 30
0.0
 40
3.660169999999999
  1
品番
 41
0.5
  0
TEXT
  5
203
  8
_________2
 62
     7
 10
109.5439999999999
 20
53.338000000000001
 30
0.0
 40
3.660169999999999
  1
名称
 41
0.5
  0
TEXT
  5
204
  8
_________2
 62
     7
 10
96.504445833333335
 20
48.341900000000003
 30
0.0
 40
4.3256500000000004
  1
mm
 41
0.5
 72
     1
 11
98.306799999999996
 21
48.341900000000003
 31
0.0
  0
TEXT
  5
205
  8
_________2
 62
     7
 10
90.582099999999997
 20
53.338000000000001
 30
0.0
 40
3.660169999999999
  1
単位
 41
0.5
  0
TEXT
  5
206
  8
_________2
 62
     7
 10
90.582099999999997
 20
40.930399999999999
 30
0.0
 40
3.660169999999999
  1
尺度
 41
0.5
  0
TEXT
  5
207
  8
_________2
 62
     7
 10
94.320620416666657
 20
34.7378
 30
0.0
 40
4.3256500000000004
  1
1 ： 10
 41
0.5
 72
     1
 11
98.898600000000002
 21
34.7378
 31
0.0
  0
TEXT
  5
208
  8
_________2
 62
     7
 10
139.94861833333329
 20
30.627800000000001
 30
0.0
 40
4.6583899999999989
  1
VB711365
 41
0.5
 72
     1
 11
148.489
 21
30.627800000000001
 31
0.0
  0
TEXT
  5
209
  8
_________2
 62
     7
 10
139.94861833333329
 20
20.626999999999988
 30
0.0
 40
4.6583899999999989
  1
VB711365
 41
0.5
 72
     1
 11
148.489
 21
20.626999999999988
 31
0.0
  0
TEXT
  5
20A
  8
_________2
 62
     7
 10
114.11799999999999
 20
45.745600000000003
 30
0.0
 40
4.6583899999999989
  1
サブウェイ2 洗面器
 41
0.5
  0
TEXT
  5
20B
  8
_________2
 62
     7
 10
44.01748083333333
 20
35.122999999999998
 30
0.0
 40
4.3256500000000004
  1
早川
 41
0.5
 72
     1
 11
46.252400000000002
 21
35.122999999999998
 31
0.0
  0
TEXT
  5
20C
  8
_________2
 62
     7
 10
25.443480833333329
 20
35.122999999999998
 30
0.0
 40
4.3256500000000004
  1
西田
 41
0.5
 72
     1
 11
27.6784
 21
35.122999999999998
 31
0.0
  0
TEXT
  5
20D
  8
_________2
 62
     7
 10
72.724699999999999
 20
34.7378
 30
0.0
 40
4.3256500000000004
  1
14.05.07
 41
0.5
  0
TEXT
  5
20E
  8
_________2
 62
     7
 10
71.531999999999996
 20
40.930399999999999
 30
0.0
 40
3.660169999999999
  1
日付
 41
0.5
  0
TEXT
  5
20F
  8
_________2
 62
     7
 10
34.578299999999992
 20
40.930399999999999
 30
0.0
 40
3.660169999999999
  1
検図
 41
0.5
  0
TEXT
  5
210
  8
_________2
 62
     7
 10
22.96019999999999
 20
26.730999999999991
 30
0.0
 40
3.660169999999999
  1
備考
 41
0.5
  0
TEXT
  5
211
  8
_________2
 62
     7
 10
22.96019999999999
 20
40.930399999999999
 30
0.0
 40
3.660169999999999
  1
製図
 41
0.5
  0
TEXT
  5
212
  8
_________2
 62
     7
 10
25.533730666666681
 20
49.456400000000002
 30
0.0
 40
5.3238799999999991
  1
セラトレーディング株式会社
 41
0.5
 72
     1
 11
46.119399999999992
 21
49.456400000000002
 31
0.0
  0
LINE
  5
213
  8
_________2
 62
     7
 10
188.49000000000001
 20
17.428499999999989
 30
0.0
 11
21.988499999999991
 21
17.428499999999989
 31
0.0
  0
LINE
  5
214
  8
_________2
 62
     7
 10
21.988499999999991
 20
17.428499999999989
 30
0.0
 11
21.988499999999991
 21
280.42999999999989
 31
0.0
  0
LINE
  5
215
  8
_________2
 62
     7
 10
21.988499999999991
 20
280.42999999999989
 30
0.0
 11
188.49000000000001
 21
280.42999999999989
 31
0.0
  0
LINE
  5
216
  8
_________2
 62
     7
 10
188.49000000000001
 20
280.42999999999989
 30
0.0
 11
188.49000000000001
 21
17.428499999999989
 31
0.0
  0
LINE
  5
217
  8
_________2
 62
     7
 10
70.488799999999998
 20
30.928899999999999
 30
0.0
 11
70.488799999999998
 21
57.428699999999992
 31
0.0
  0
LINE
  5
218
  8
_________2
 62
     7
 10
89.488600000000005
 20
30.928899999999999
 30
0.0
 11
89.488600000000005
 21
57.428699999999992
 31
0.0
  0
LINE
  5
219
  8
_________2
 62
     7
 10
108.4889999999999
 20
17.428499999999989
 30
0.0
 11
108.4889999999999
 21
57.428699999999992
 31
0.0
  0
LINE
  5
21A
  8
_________2
 62
     7
 10
33.488300000000002
 20
30.928899999999999
 30
0.0
 11
33.488300000000002
 21
44.928800000000003
 31
0.0
  0
LINE
  5
21B
  8
_________2
 62
     7
 10
21.988499999999991
 20
30.928899999999999
 30
0.0
 11
108.4889999999999
 21
30.928899999999999
 31
0.0
  0
LINE
  5
21C
  8
_________2
 62
     7
 10
21.988499999999991
 20
44.928800000000003
 30
0.0
 11
108.4889999999999
 21
44.928800000000003
 31
0.0
  0
LINE
  5
21D
  8
_________2
 62
     7
 10
108.4889999999999
 20
37.428100000000001
 30
0.0
 11
188.49000000000001
 21
37.428100000000001
 31
0.0
  0
LINE
  5
21E
  8
_________2
 62
     7
 10
21.988499999999991
 20
57.428699999999992
 30
0.0
 11
188.49000000000001
 21
57.428699999999992
 31
0.0
  0
LINE
  5
21F
  8
_________2
 62
     7
 10
210.24000000000001
 20
148.93100000000001
 30
0.0
 11
188.489
 21
148.93100000000001
 31
0.0
  0
LINE
  5
220
  8
_________2
 62
     7
 10
105.2389999999999
 20
297.45099999999991
 30
0.0
 11
105.2389999999999
 21
280.42999999999989
 31
0.0
  0
LINE
  5
221
  8
_________2
 62
     7
 10
21.988499999999991
 20
148.93100000000001
 30
0.0
 11
0.238402
 21
148.93100000000001
 31
0.0
  0
ENDSEC
  0
EOF
