  0
SECTION
  2
HEADER
  9
$ACADVER
  1
AC1009
  9
$INSBASE
 10
0.0
 20
0.0
 30
0.0
  9
$EXTMIN
 10
0.238402
 20
0.4485540000000001
 30
0.0
  9
$EXTMAX
 10
210.24000000000001
 20
297.45099999999991
 30
0.0
  9
$LIMMIN
 10
0.0
 20
0.0
  9
$LIMMAX
 10
12.0
 20
9.0
  9
$ORTHOMODE
 70
     0
  9
$REGENMODE
 70
     1
  9
$FILLMODE
 70
     1
  9
$QTEXTMODE
 70
     0
  9
$MIRRTEXT
 70
     1
  9
$DRAGMODE
 70
     2
  9
$LTSCALE
 40
1.0
  9
$OSMODE
 70
    37
  9
$ATTMODE
 70
     1
  9
$TEXTSIZE
 40
0.0
  9
$TRACEWID
 40
0.05
  9
$TEXTSTYLE
  7
STANDARD
  9
$CLAYER
  8
0
  9
$CELTYPE
  6
CONTINUOUS
  9
$CECOLOR
 62
   256
  9
$DIMSCALE
 40
1.0
  9
$DIMASZ
 40
0.18
  9
$DIMEXO
 40
0.0625
  9
$DIMDLI
 40
0.38
  9
$DIMRND
 40
0.0
  9
$DIMDLE
 40
0.0
  9
$DIMEXE
 40
0.18
  9
$DIMTP
 40
0.0
  9
$DIMTM
 40
0.0
  9
$DIMTXT
 40
0.18
  9
$DIMCEN
 40
0.09
  9
$DIMTSZ
 40
0.0
  9
$DIMTOL
 70
     0
  9
$DIMLIM
 70
     0
  9
$DIMTIH
 70
     1
  9
$DIMTOH
 70
     1
  9
$DIMSE1
 70
     0
  9
$DIMSE2
 70
     0
  9
$DIMTAD
 70
     0
  9
$DIMZIN
 70
     0
  9
$DIMBLK
  1

  9
$DIMASO
 70
     1
  9
$DIMSHO
 70
     1
  9
$DIMPOST
  1

  9
$DIMAPOST
  1

  9
$DIMALT
 70
     0
  9
$DIMALTD
 70
     2
  9
$DIMALTF
 40
25.399999999999999
  9
$DIMLFAC
 40
1.0
  9
$DIMTOFL
 70
     0
  9
$DIMTVP
 40
0.0
  9
$DIMTIX
 70
     0
  9
$DIMSOXD
 70
     0
  9
$DIMSAH
 70
     0
  9
$DIMBLK1
  1

  9
$DIMBLK2
  1

  9
$DIMSTYLE
  2
STANDARD
  9
$DIMCLRD
 70
     0
  9
$DIMCLRE
 70
     0
  9
$DIMCLRT
 70
     0
  9
$DIMTFAC
 40
1.0
  9
$DIMGAP
 40
0.09
  9
$LUNITS
 70
     2
  9
$LUPREC
 70
     4
  9
$SKETCHINC
 40
0.1
  9
$FILLETRAD
 40
0.0
  9
$AUNITS
 70
     0
  9
$AUPREC
 70
     0
  9
$MENU
  1
.
  9
$ELEVATION
 40
0.0
  9
$PELEVATION
 40
0.0
  9
$THICKNESS
 40
0.0
  9
$LIMCHECK
 70
     0
  9
$BLIPMODE
 70
     0
  9
$CHAMFERA
 40
0.0
  9
$CHAMFERB
 40
0.0
  9
$SKPOLY
 70
     0
  9
$TDCREATE
 40
2444972.375
  9
$TDUPDATE
 40
2456571.2495741202
  9
$TDINDWG
 40
0.0000056019
  9
$TDUSRTIMER
 40
0.0000056019
  9
$USRTIMER
 70
     1
  9
$ANGBASE
 50
0.0
  9
$ANGDIR
 70
     0
  9
$PDMODE
 70
     0
  9
$PDSIZE
 40
0.0
  9
$PLINEWID
 40
0.0
  9
$COORDS
 70
     1
  9
$SPLFRAME
 70
     0
  9
$SPLINETYPE
 70
     6
  9
$SPLINESEGS
 70
     8
  9
$ATTDIA
 70
     0
  9
$ATTREQ
 70
     1
  9
$HANDLING
 70
     1
  9
$HANDSEED
  5
1C2
  9
$SURFTAB1
 70
     6
  9
$SURFTAB2
 70
     6
  9
$SURFTYPE
 70
     6
  9
$SURFU
 70
     6
  9
$SURFV
 70
     6
  9
$UCSNAME
  2

  9
$UCSORG
 10
0.0
 20
0.0
 30
0.0
  9
$UCSXDIR
 10
1.0
 20
0.0
 30
0.0
  9
$UCSYDIR
 10
0.0
 20
1.0
 30
0.0
  9
$PUCSNAME
  2

  9
$PUCSORG
 10
0.0
 20
0.0
 30
0.0
  9
$PUCSXDIR
 10
1.0
 20
0.0
 30
0.0
  9
$PUCSYDIR
 10
0.0
 20
1.0
 30
0.0
  9
$USERI1
 70
     0
  9
$USERI2
 70
     0
  9
$USERI3
 70
     0
  9
$USERI4
 70
     0
  9
$USERI5
 70
     0
  9
$USERR1
 40
0.0
  9
$USERR2
 40
0.0
  9
$USERR3
 40
0.0
  9
$USERR4
 40
0.0
  9
$USERR5
 40
0.0
  9
$WORLDVIEW
 70
     1
  9
$SHADEDGE
 70
     3
  9
$SHADEDIF
 70
    70
  9
$TILEMODE
 70
     1
  9
$MAXACTVP
 70
    48
  9
$PLIMCHECK
 70
     0
  9
$PEXTMIN
 10
1.0000000000000000E+020
 20
1.0000000000000000E+020
 30
1.0000000000000000E+020
  9
$PEXTMAX
 10
-1.0000000000000000E+020
 20
-1.0000000000000000E+020
 30
-1.0000000000000000E+020
  9
$PLIMMIN
 10
0.0
 20
0.0
  9
$PLIMMAX
 10
12.0
 20
9.0
  9
$UNITMODE
 70
     0
  9
$VISRETAIN
 70
     1
  9
$PLINEGEN
 70
     0
  9
$PSLTSCALE
 70
     1
  0
ENDSEC
  0
SECTION
  2
TABLES
  0
TABLE
  2
VPORT
 70
     2
  0
VPORT
  2
*ACTIVE
 70
     0
 10
0.0
 20
0.0
 11
1.0
 21
1.0
 12
214.6779983880206
 22
148.72550000000001
 13
0.0
 23
0.0
 14
1.0
 24
1.0
 15
0.0
 25
0.0
 16
0.0
 26
0.0
 36
1.0
 17
0.0
 27
0.0
 37
0.0
 40
299.82743941411439
 41
2.2894736842105261
 42
50.0
 43
0.0
 44
0.0
 50
0.0
 51
0.0
 71
     0
 72
   100
 73
     1
 74
     1
 75
     0
 76
     0
 77
     0
 78
     0
  0
ENDTAB
  0
TABLE
  2
LTYPE
 70
     4
  0
LTYPE
  2
CONTINUOUS
 70
     0
  3
Solid line
 72
    65
 73
     0
 40
0.0
  0
LTYPE
  2
AIGENLINE001
 70
     0
  3
generate AI->DXF Converter
 72
    65
 73
     4
 40
5.8561449999999988
 49
3.5278
 49
-0.776115
 49
0.776115
 49
-0.776115
  0
LTYPE
  2
AIGENLINE002
 70
     0
  3
generate AI->DXF Converter
 72
    65
 73
     6
 40
4.6566900000000002
 49
0.776115
 49
-0.776115
 49
0.776115
 49
-0.776115
 49
0.776115
 49
-0.776115
  0
LTYPE
  2
AIGENLINE003
 70
     0
  3
generate AI->DXF Converter
 72
    65
 73
     2
 40
1.5522299999999991
 49
0.776115
 49
-0.776115
  0
ENDTAB
  0
TABLE
  2
LAYER
 70
     2
  0
LAYER
  2
0
 70
     0
 62
     7
  6
CONTINUOUS
  0
LAYER
  2
_________2
 70
     0
 62
     7
  6
CONTINUOUS
  0
ENDTAB
  0
TABLE
  2
STYLE
 70
     1
  0
STYLE
  2
STANDARD
 70
     0
 40
0.0
 41
0.0
 50
0.0
 71
     0
 42
0.0
  3
TXT
  4
EXTFONT.SHX
  0
ENDTAB
  0
TABLE
  2
VIEW
 70
     0
  0
ENDTAB
  0
TABLE
  2
UCS
 70
     0
  0
ENDTAB
  0
TABLE
  2
APPID
 70
     1
  0
APPID
  2
ACAD
 70
     0
  0
ENDTAB
  0
TABLE
  2
DIMSTYLE
 70
     1
  0
DIMSTYLE
  2
STANDARD
 70
     0
  3

  4

  5

  6

  7

 40
1.0
 41
0.18
 42
0.0625
 43
0.38
 44
0.18
 45
0.0
 46
0.0
 47
0.0
 48
0.0
140
0.18
141
0.09
142
0.0
143
25.399999999999999
144
1.0
145
0.0
146
1.0
147
0.09
 71
     0
 72
     0
 73
     1
 74
     1
 75
     0
 76
     0
 77
     0
 78
     0
170
     0
171
     2
172
     0
173
     0
174
     0
175
     0
176
     0
177
     0
178
     0
  0
ENDTAB
  0
ENDSEC
  0
SECTION
  2
BLOCKS
  0
BLOCK
  8
0
  2
$MODEL_SPACE
 70
     0
 10
0.0
 20
0.0
 30
0.0
  3
$MODEL_SPACE
  1

  0
ENDBLK
  5
1A
  8
0
  0
BLOCK
 67
     1
  8
0
  2
$PAPER_SPACE
 70
     0
 10
0.0
 20
0.0
 30
0.0
  3
$PAPER_SPACE
  1

  0
ENDBLK
  5
17
 67
     1
  8
0
  0
ENDSEC
  0
SECTION
  2
ENTITIES
  0
TEXT
  5
24
  8
0
 62
     7
 10
143.4261349999999
 20
120.21599999999999
 30
0.0
 40
3.0923400000000001
  1
165
 41
0.5
 72
     1
 11
145.2299999999999
 21
120.21599999999999
 31
0.0
  0
TEXT
  5
25
  8
0
 62
     7
 10
65.353182500000003
 20
120.21599999999999
 30
0.0
 40
3.0923400000000001
  1
140
 41
0.5
 72
     1
 11
67.028199999999998
 21
120.21599999999999
 31
0.0
  0
TEXT
  5
26
  8
0
 62
     7
 10
64.959882500000006
 20
141.91200000000001
 30
0.0
 40
3.0923400000000001
  1
170
 41
0.5
 72
     1
 11
66.634900000000002
 21
141.91200000000001
 31
0.0
  0
TEXT
  5
27
  8
0
 62
     7
 10
142.59213500000001
 20
141.91200000000001
 30
0.0
 40
3.0923400000000001
  1
175
 41
0.5
 72
     1
 11
144.39599999999999
 21
141.91200000000001
 31
0.0
  0
TEXT
  5
28
  8
0
 62
     7
 10
139.96328749999989
 20
72.202100000000002
 30
0.0
 40
3.0923400000000001
  1
205
 41
0.5
 72
     1
 11
141.89599999999999
 21
72.202100000000002
 31
0.0
  0
TEXT
  5
29
  8
0
 62
     7
 10
68.799687500000005
 20
72.202100000000002
 30
0.0
 40
3.0923400000000001
  1
240
 41
0.5
 72
     1
 11
70.732399999999998
 21
72.202100000000002
 31
0.0
  0
TEXT
  5
2A
  8
0
 62
     7
 10
140.50913499999999
 20
201.85400000000001
 30
0.0
 40
3.0923400000000001
  1
200
 41
0.5
 72
     1
 11
142.31299999999999
 21
201.85400000000001
 31
0.0
  0
TEXT
  5
2B
  8
0
 62
     7
 10
68.799687500000005
 20
201.85400000000001
 30
0.0
 40
3.0923400000000001
  1
220
 41
0.5
 72
     1
 11
70.732399999999998
 21
201.85400000000001
 31
0.0
  0
TEXT
  5
2C
  8
0
 62
     7
 10
68.799687500000005
 20
265.45099999999991
 30
0.0
 40
3.0923400000000001
  1
240
 41
0.5
 72
     1
 11
70.732399999999998
 21
265.45099999999991
 31
0.0
  0
TEXT
  5
2D
  8
0
 62
     7
 10
100.2489999999999
 20
238.46828749999989
 30
0.0
 40
3.0923400000000001
  1
205
 50
90.0
 41
0.5
 72
     1
 11
100.2489999999999
 21
240.4009999999999
 31
0.0
  0
TEXT
  5
2E
  8
0
 62
     7
 10
100.2489999999999
 20
135.51043999999999
 30
0.0
 40
3.0923400000000001
  1
685
 50
90.0
 41
0.5
 72
     1
 11
100.2489999999999
 21
137.572
 31
0.0
  0
ARC
  5
2F
  8
0
 62
     7
 10
54.299709
 20
229.06398299999989
 30
0.0
 40
2.873831
 50
180.4196299999999
 51
230.70647699999989
  0
ARC
  5
30
  8
0
 62
     7
 10
55.121720999999987
 20
229.922042
 30
0.0
 40
4.0595280000000002
 50
229.397132
 51
252.690057
  0
ARC
  5
31
  8
0
 62
     7
 10
58.031126
 20
230.78405299999989
 30
0.0
 40
2.7976290000000001
 50
179.94259099999999
 51
194.24019299999989
  0
ARC
  5
32
  8
0
 62
     7
 10
56.651041999999997
 20
230.48516499999991
 30
0.0
 40
1.3873219999999991
 50
196.29647
 51
234.825446
  0
ARC
  5
33
  8
0
 62
     7
 10
57.344349999999999
 20
231.42373199999989
 30
0.0
 40
2.5540340000000001
 50
234.24147699999989
 51
243.52363700000001
  0
ARC
  5
34
  8
0
 62
     7
 10
58.855496000000002
 20
234.45643399999989
 30
0.0
 40
5.9423719999999989
 50
243.517967
 51
248.82004599999991
  0
ARC
  5
35
  8
0
 62
     7
 10
55.193959999999997
 20
229.2975129999999
 30
0.0
 40
2.4410430000000001
 50
180.50903600000001
 51
235.86163999999991
  0
ARC
  5
36
  8
0
 62
     7
 10
56.388992000000002
 20
230.86603299999999
 30
0.0
 40
4.4112710000000002
 50
234.44748899999999
 51
247.1874169999999
  0
LINE
  5
37
  8
0
 62
     7
 10
55.233499999999999
 20
230.78700000000001
 30
0.0
 11
54.901899999999998
 21
257.31999999999988
 31
0.0
  0
ARC
  5
38
  8
0
 62
     7
 10
54.728091999999997
 20
257.31032900000002
 30
0.0
 40
0.174069
 50
3.1092610000000001
 51
87.842662000000004
  0
LINE
  5
39
  8
0
 62
     7
 10
52.753
 20
229.2759999999999
 30
0.0
 11
52.40079999999999
 21
257.31599999999992
 31
0.0
  0
LINE
  5
3A
  8
0
 62
     7
 10
52.40079999999999
 20
257.31799999999993
 30
0.0
 11
52.40079999999999
 21
257.31599999999992
 31
0.0
  0
ARC
  5
3B
  8
0
 62
     7
 10
52.574638
 20
257.31031300000001
 30
0.0
 40
0.174075
 50
92.068343999999996
 51
177.33973299999991
  0
ARC
  5
3C
  8
0
 62
     7
 10
70.738064000000008
 20
280.620158
 30
0.0
 40
57.302317000000002
 50
258.58919199999991
 51
269.99485499999992
  0
ARC
  5
3D
  8
0
 62
     7
 10
67.132085000000004
 20
261.26472299999989
 30
0.0
 40
37.617204000000001
 50
249.42776799999999
 51
258.1404379999999
  0
LINE
  5
3E
  8
0
 62
     7
 10
51.426000000000002
 20
229.04300000000001
 30
0.0
 11
50.7333
 21
257.48399999999998
 31
0.0
  0
ARC
  5
3F
  8
0
 62
     7
 10
70.721296999999993
 20
324.43086599999998
 30
0.0
 40
96.946500999999998
 50
266.04822200000001
 51
270.00687199999999
  0
ARC
  5
40
  8
0
 62
     7
 10
68.054334999999995
 20
281.720461
 30
0.0
 40
54.154584
 50
261.7444789999999
 51
265.74896000000001
  0
ARC
  5
41
  8
0
 62
     7
 10
64.451228
 20
256.35550999999992
 30
0.0
 40
28.535215000000001
 50
256.05909400000002
 51
261.5912009999999
  0
ARC
  5
42
  8
0
 62
     7
 10
60.934418999999991
 20
241.71228099999999
 30
0.0
 40
13.476521
 50
251.72523099999989
 51
255.57167899999999
  0
ARC
  5
43
  8
0
 62
     7
 10
70.732931999999991
 20
279.69824399999987
 30
0.0
 40
50.547131
 50
262.28695599999998
 51
269.99998299999987
  0
ARC
  5
44
  8
0
 62
     7
 10
67.327200000000005
 20
254.11400399999999
 30
0.0
 40
24.73734
 50
256.17743899999999
 51
262.15078299999999
  0
ARC
  5
45
  8
0
 62
     7
 10
63.998829999999998
 20
240.11049700000001
 30
0.0
 40
10.344794999999991
 50
251.679134
 51
255.54779099999999
  0
ARC
  5
46
  8
0
 62
     7
 10
61.450981999999989
 20
232.91948099999999
 30
0.0
 40
2.7220049999999989
 50
248.38056299999991
 51
255.012821
  0
ARC
  5
47
  8
0
 62
     7
 10
62.175833999999988
 20
234.97031000000001
 30
0.0
 40
4.8963080000000003
 50
222.81354499999989
 51
249.33721800000001
  0
ARC
  5
48
  8
0
 62
     7
 10
61.298037999999998
 20
234.01656
 30
0.0
 40
3.6056750000000002
 50
180.39818500000001
 51
221.17534000000001
  0
LINE
  5
49
  8
0
 62
     7
 10
57.692500000000003
 20
233.99199999999999
 30
0.0
 11
57.398400000000002
 21
257.48399999999998
 31
0.0
  0
ARC
  5
4A
  8
0
 62
     7
 10
70.741152
 20
278.16715899999991
 30
0.0
 40
54.016289
 50
258.61686600000002
 51
269.99126499999988
  0
ARC
  5
4B
  8
0
 62
     7
 10
67.118240999999998
 20
259.16524399999992
 30
0.0
 40
34.673675000000003
 50
248.97585799999999
 51
258.28845699999999
  0
ARC
  5
4C
  8
0
 62
     7
 10
68.545824999999994
 20
238.36040999999989
 30
0.0
 40
9.2382699999999982
 50
183.222622
 51
195.9111649999999
  0
ARC
  5
4D
  8
0
 62
     7
 10
65.452976000000007
 20
237.59396299999989
 30
0.0
 40
6.0548099999999989
 50
196.959802
 51
243.30937999999989
  0
ARC
  5
4E
  8
0
 62
     7
 10
66.872655000000009
 20
240.24659500000001
 30
0.0
 40
9.062799
 50
242.823117
 51
253.30070099999989
  0
ARC
  5
4F
  8
0
 62
     7
 10
68.282666000000006
 20
244.68919099999999
 30
0.0
 40
13.723395999999999
 50
252.99187199999989
 51
261.16190899999998
  0
ARC
  5
50
  8
0
 62
     7
 10
69.715496999999999
 20
253.12035800000001
 30
0.0
 40
22.274926000000001
 50
260.85213999999991
 51
267.18929199999991
  0
ARC
  5
51
  8
0
 62
     7
 10
70.641375999999994
 20
267.75731200000001
 30
0.0
 40
36.940253999999989
 50
266.86819600000001
 51
270.14197999999999
  0
LINE
  5
52
  8
0
 62
     7
 10
59.322200000000002
 20
237.84099999999989
 30
0.0
 11
59.065800000000003
 21
257.48500000000001
 31
0.0
  0
ARC
  5
53
  8
0
 62
     7
 10
87.166314
 20
229.063987
 30
0.0
 40
2.8736250000000001
 50
309.28840600000001
 51
359.580286
  0
ARC
  5
54
  8
0
 62
     7
 10
86.343789999999998
 20
229.92244500000001
 30
0.0
 40
4.059952
 50
287.31007
 51
310.60113999999987
  0
ARC
  5
55
  8
0
 62
     7
 10
83.434682999999993
 20
230.78405399999991
 30
0.0
 40
2.797636999999999
 50
345.75984599999992
 51
0.057369
  0
ARC
  5
56
  8
0
 62
     7
 10
84.814782999999991
 20
230.48520500000001
 30
0.0
 40
1.387324999999999
 50
305.17187899999988
 51
343.70185900000001
  0
ARC
  5
57
  8
0
 62
     7
 10
84.12133
 20
231.42414500000001
 30
0.0
 40
2.554424
 50
296.47315499999991
 51
305.75482899999997
  0
ARC
  5
58
  8
0
 62
     7
 10
82.610018999999994
 20
234.45769100000001
 30
0.0
 40
5.9435919999999989
 50
291.176762
 51
296.47846499999991
  0
ARC
  5
59
  8
0
 62
     7
 10
86.272030999999998
 20
229.29751899999991
 30
0.0
 40
2.4408689999999988
 50
304.13208800000001
 51
359.49080199999992
  0
ARC
  5
5A
  8
0
 62
     7
 10
85.076404000000011
 20
230.866623
 30
0.0
 40
4.411910999999999
 50
292.81261000000001
 51
305.55098700000002
  0
LINE
  5
5B
  8
0
 62
     7
 10
50.732799999999997
 20
257.48399999999998
 30
0.0
 11
59.065800000000003
 21
257.48399999999998
 31
0.0
  0
LINE
  5
5C
  8
0
 62
     7
 10
82.400000000000006
 20
257.48399999999998
 30
0.0
 11
90.732299999999995
 21
257.48399999999998
 31
0.0
  0
LINE
  5
5D
  8
0
 62
     7
 10
86.232299999999995
 20
230.78700000000001
 30
0.0
 11
86.563699999999997
 21
257.31999999999988
 31
0.0
  0
ARC
  5
5E
  8
0
 62
     7
 10
86.737870000000001
 20
257.30999800000001
 30
0.0
 40
0.174405
 50
92.201135000000008
 51
176.787935
  0
LINE
  5
5F
  8
0
 62
     7
 10
88.712800000000001
 20
229.2759999999999
 30
0.0
 11
89.064899999999994
 21
257.31599999999992
 31
0.0
  0
LINE
  5
60
  8
0
 62
     7
 10
89.064899999999994
 20
257.31799999999993
 30
0.0
 11
89.064899999999994
 21
257.31599999999992
 31
0.0
  0
ARC
  5
61
  8
0
 62
     7
 10
88.891334999999984
 20
257.31065099999989
 30
0.0
 40
0.173732
 50
2.5539979999999991
 51
87.978971999999985
  0
ARC
  5
62
  8
0
 62
     7
 10
70.727747999999991
 20
280.61928399999988
 30
0.0
 40
57.301443999999996
 50
270.00517000000002
 51
281.41091499999987
  0
ARC
  5
63
  8
0
 62
     7
 10
74.334496999999999
 20
261.26110799999998
 30
0.0
 40
37.613489999999999
 50
281.8594359999999
 51
290.57284900000002
  0
LINE
  5
64
  8
0
 62
     7
 10
90.039899999999989
 20
229.04300000000001
 30
0.0
 11
90.732299999999995
 21
257.48399999999998
 31
0.0
  0
ARC
  5
65
  8
0
 62
     7
 10
70.744517000000002
 20
324.42862200000002
 30
0.0
 40
96.944256999999993
 50
269.99314900000002
 51
273.95184299999988
  0
ARC
  5
66
  8
0
 62
     7
 10
73.411321000000001
 20
281.72108399999991
 30
0.0
 40
54.155211000000001
 50
274.25109500000002
 51
278.25552399999998
  0
ARC
  5
67
  8
0
 62
     7
 10
77.014925000000005
 20
256.35288199999991
 30
0.0
 40
28.532554000000001
 50
278.40875
 51
283.94129800000002
  0
ARC
  5
68
  8
0
 62
     7
 10
80.532244999999975
 20
241.708168
 30
0.0
 40
13.472295000000001
 50
284.42869999999988
 51
288.27615800000001
  0
ARC
  5
69
  8
0
 62
     7
 10
70.732884999999996
 20
279.69824399999987
 30
0.0
 40
50.547131
 50
270.00003700000002
 51
277.71306399999997
  0
ARC
  5
6A
  8
0
 62
     7
 10
74.138617000000011
 20
254.11400399999999
 30
0.0
 40
24.73734
 50
277.84923700000002
 51
283.82258100000001
  0
ARC
  5
6B
  8
0
 62
     7
 10
77.466987000000003
 20
240.11049700000001
 30
0.0
 40
10.344794999999991
 50
284.45222899999999
 51
288.32088599999992
  0
ARC
  5
6C
  8
0
 62
     7
 10
79.862091000000007
 20
233.396412
 30
0.0
 40
3.2223029999999988
 50
285.41771599999998
 51
291.88772499999988
  0
ARC
  5
6D
  8
0
 62
     7
 10
79.292276000000001
 20
234.96643999999989
 30
0.0
 40
4.8919050000000004
 50
291.22539399999988
 51
317.200492
  0
ARC
  5
6E
  8
0
 62
     7
 10
80.167642000000001
 20
234.01648999999989
 30
0.0
 40
3.605637999999999
 50
318.82564200000002
 51
359.60293899999988
  0
LINE
  5
6F
  8
0
 62
     7
 10
83.773200000000003
 20
233.99199999999999
 30
0.0
 11
84.067400000000006
 21
257.48399999999998
 31
0.0
  0
ARC
  5
70
  8
0
 62
     7
 10
70.724665999999999
 20
278.16600899999992
 30
0.0
 40
54.015139000000012
 50
270.0087529999999
 51
281.38327500000003
  0
ARC
  5
71
  8
0
 62
     7
 10
74.347273000000001
 20
259.16542500000003
 30
0.0
 40
34.673890999999998
 50
281.7118089999999
 51
291.02425599999998
  0
ARC
  5
72
  8
0
 62
     7
 10
72.920442000000008
 20
238.3603819999999
 30
0.0
 40
9.237819
 50
344.08823999999998
 51
356.77741600000002
  0
ARC
  5
73
  8
0
 62
     7
 10
76.012905000000003
 20
237.59394
 30
0.0
 40
6.0547319999999987
 50
296.68964999999992
 51
343.04021799999998
  0
ARC
  5
74
  8
0
 62
     7
 10
74.592945999999984
 20
240.24701699999989
 30
0.0
 40
9.0632429999999982
 50
286.69940600000001
 51
297.17653799999988
  0
ARC
  5
75
  8
0
 62
     7
 10
73.18304599999999
 20
244.68929399999999
 30
0.0
 40
13.72350299999999
 50
278.838189
 51
287.00813999999991
  0
ARC
  5
76
  8
0
 62
     7
 10
71.750218000000004
 20
253.120575
 30
0.0
 40
22.275144999999998
 50
272.81083899999999
 51
279.147873
  0
ARC
  5
77
  8
0
 62
     7
 10
70.824437000000003
 20
267.75568399999992
 30
0.0
 40
36.938625000000002
 50
269.85803900000002
 51
273.13189199999999
  0
LINE
  5
78
  8
0
 62
     7
 10
82.143699999999995
 20
237.84099999999989
 30
0.0
 11
82.400000000000006
 21
257.48500000000001
 31
0.0
  0
LINE
  5
79
  8
0
  6
AIGENLINE001
 62
     7
 10
70.732900000000001
 20
261.36799999999999
 30
0.0
 11
70.732900000000001
 21
219.49799999999999
 31
0.0
  0
LINE
  5
7A
  8
0
  6
AIGENLINE002
 62
     7
 10
131.4789999999999
 20
182.66
 30
0.0
 11
131.4789999999999
 21
88.260099999999994
 31
0.0
  0
ARC
  5
7B
  8
0
  6
AIGENLINE002
 62
     7
 10
130.984285
 20
88.239726000000005
 30
0.0
 40
0.49559
 50
327.099535
 51
2.3577900000000001
  0
ARC
  5
7C
  8
0
  6
AIGENLINE002
 62
     7
 10
131.2320399999999
 20
88.107763000000006
 30
0.0
 40
0.217197
 50
296.79068999999998
 51
320.81452100000001
  0
LINE
  5
7D
  8
0
  6
AIGENLINE002
 62
     7
 10
131.33000000000001
 20
87.913899999999984
 30
0.0
 11
130.09
 21
87.293800000000005
 31
0.0
  0
LINE
  5
7E
  8
0
  6
AIGENLINE002
 62
     7
 10
130.09
 20
87.293800000000005
 30
0.0
 11
129.81299999999999
 21
86.810799999999986
 31
0.0
  0
LINE
  5
7F
  8
0
  6
AIGENLINE002
 62
     7
 10
129.81299999999999
 20
86.810799999999986
 30
0.0
 11
129.81299999999999
 21
84.993099999999984
 31
0.0
  0
ARC
  5
80
  8
0
  6
AIGENLINE002
 62
     7
 10
128.84903499999999
 20
85.049768999999998
 30
0.0
 40
0.9653360000000001
 50
320.760696
 51
356.63516499999992
  0
LINE
  5
81
  8
0
  6
AIGENLINE002
 62
     7
 10
129.59700000000001
 20
84.439099999999996
 30
0.0
 11
129.13900000000001
 21
83.981999999999999
 31
0.0
  0
LINE
  5
82
  8
0
  6
AIGENLINE002
 62
     7
 10
129.13900000000001
 20
83.981999999999999
 30
0.0
 11
128.9789999999999
 21
83.544099999999986
 31
0.0
  0
LINE
  5
83
  8
0
  6
AIGENLINE002
 62
     7
 10
128.9789999999999
 20
83.544099999999986
 30
0.0
 11
128.9789999999999
 21
83.234700000000004
 31
0.0
  0
ARC
  5
84
  8
0
  6
AIGENLINE002
 62
     7
 10
128.366007
 20
83.241802000000007
 30
0.0
 40
0.613023
 50
312.94422900000001
 51
359.338301
  0
LINE
  5
85
  8
0
  6
AIGENLINE002
 62
     7
 10
128.78399999999991
 20
82.793099999999995
 30
0.0
 11
128.333
 21
82.341399999999993
 31
0.0
  0
LINE
  5
86
  8
0
  6
AIGENLINE002
 62
     7
 10
128.333
 20
82.341399999999993
 30
0.0
 11
128.14599999999999
 21
81.809500000000014
 31
0.0
  0
LINE
  5
87
  8
0
  6
AIGENLINE002
 62
     7
 10
128.14599999999999
 20
81.809500000000014
 30
0.0
 11
128.14599999999999
 21
80.488600000000005
 31
0.0
  0
ARC
  5
88
  8
0
  6
AIGENLINE003
 62
     7
 10
129.75715600000001
 20
187.55881599999989
 30
0.0
 40
0.778179
 50
180.323442
 51
231.479793
  0
LINE
  5
89
  8
0
  6
AIGENLINE003
 62
     7
 10
129.27299999999991
 20
186.94999999999999
 30
0.0
 11
130.32099999999991
 21
186.21700000000001
 31
0.0
  0
LINE
  5
8A
  8
0
  6
AIGENLINE003
 62
     7
 10
130.32099999999991
 20
186.21700000000001
 30
0.0
 11
130.64599999999999
 21
185.6279999999999
 31
0.0
  0
LINE
  5
8B
  8
0
  6
AIGENLINE003
 62
     7
 10
130.64599999999999
 20
185.6279999999999
 30
0.0
 11
130.64599999999999
 21
184.17400000000001
 31
0.0
  0
ARC
  5
8C
  8
0
  6
AIGENLINE003
 62
     7
 10
131.59548699999999
 20
184.209576
 30
0.0
 40
0.950413
 50
182.14075399999999
 51
218.971372
  0
LINE
  5
8D
  8
0
  6
AIGENLINE003
 62
     7
 10
130.857
 20
183.61199999999999
 30
0.0
 11
131.227
 21
183.24199999999999
 31
0.0
  0
LINE
  5
8E
  8
0
  6
AIGENLINE003
 62
     7
 10
131.227
 20
183.24199999999999
 30
0.0
 11
131.4789999999999
 21
182.66
 31
0.0
  0
LINE
  5
8F
  8
0
 62
     7
 10
129.46899999999991
 20
183.16099999999989
 30
0.0
 11
129.81299999999999
 21
182.52500000000001
 31
0.0
  0
ARC
  5
90
  8
0
 62
     7
 10
128.79584199999999
 20
184.22385600000001
 30
0.0
 40
0.6499590000000001
 50
179.119248
 51
245.666044
  0
LINE
  5
91
  8
0
 62
     7
 10
127.7579999999999
 20
186.1699999999999
 30
0.0
 11
128.14599999999999
 21
185.61199999999991
 31
0.0
  0
ARC
  5
92
  8
0
 62
     7
 10
126.6222769999999
 20
187.7469199999999
 30
0.0
 40
0.979147
 50
184.5255019999999
 51
224.14041900000001
  0
ARC
  5
93
  8
0
 62
     7
 10
126.384856
 20
187.5627659999999
 30
0.0
 40
0.681326
 50
226.93255799999989
 51
244.989677
  0
LINE
  5
94
  8
0
 62
     7
 10
90.358199999999997
 20
82.342100000000002
 30
0.0
 11
90.732299999999995
 21
81.715400000000002
 31
0.0
  0
ARC
  5
95
  8
0
 62
     7
 10
89.549117000000024
 20
83.291082999999986
 30
0.0
 40
0.4879260000000001
 50
187.6932909999999
 51
246.37676999999999
  0
LINE
  5
96
  8
0
 62
     7
 10
88.644199999999998
 20
83.962299999999999
 30
0.0
 11
89.065600000000003
 21
83.490300000000005
 31
0.0
  0
ARC
  5
97
  8
0
 62
     7
 10
87.184664999999995
 20
85.106812999999988
 30
0.0
 40
0.62458
 50
187.99134599999999
 51
250.226067
  0
LINE
  5
98
  8
0
 62
     7
 10
86.169600000000003
 20
87.352999999999994
 30
0.0
 11
86.566199999999995
 21
86.756699999999995
 31
0.0
  0
ARC
  5
99
  8
0
 62
     7
 10
85.636875999999987
 20
88.453300999999996
 30
0.0
 40
0.745594
 50
188.28227999999999
 51
243.91432
  0
ARC
  5
9A
  8
0
  6
AIGENLINE003
 62
     7
 10
85.105215000000015
 20
187.72968499999999
 30
0.0
 40
1.0762249999999991
 50
311.76086499999991
 51
353.14752299999992
  0
LINE
  5
9B
  8
0
  6
AIGENLINE003
 62
     7
 10
85.822000000000003
 20
186.92699999999999
 30
0.0
 11
84.827399999999983
 21
186.23099999999991
 31
0.0
  0
ARC
  5
9C
  8
0
  6
AIGENLINE003
 62
     7
 10
85.495444999999989
 20
185.4211379999999
 30
0.0
 40
1.049690999999999
 50
129.525419
 51
140.50278899999989
  0
ARC
  5
9D
  8
0
  6
AIGENLINE003
 62
     7
 10
85.704729
 20
185.205871
 30
0.0
 40
1.3485089999999991
 50
139.10059599999991
 51
167.712144
  0
LINE
  5
9E
  8
0
  6
AIGENLINE003
 62
     7
 10
84.387100000000004
 20
185.49299999999991
 30
0.0
 11
84.136700000000005
 21
184.19
 31
0.0
  0
ARC
  5
9F
  8
0
  6
AIGENLINE003
 62
     7
 10
83.57884
 20
184.31918400000001
 30
0.0
 40
0.572634
 50
332.15148499999998
 51
346.93632700000001
  0
ARC
  5
A0
  8
0
  6
AIGENLINE003
 62
     7
 10
83.196859000000003
 20
184.500519
 30
0.0
 40
0.9952489999999999
 50
294.91285899999991
 51
333.19373899999999
  0
LINE
  5
A1
  8
0
  6
AIGENLINE003
 62
     7
 10
83.616100000000003
 20
183.5979999999999
 30
0.0
 11
82.697599999999994
 21
183.13800000000001
 31
0.0
  0
LINE
  5
A2
  8
0
  6
AIGENLINE003
 62
     7
 10
82.697599999999994
 20
183.13800000000001
 30
0.0
 11
82.398600000000002
 21
182.59599999999989
 31
0.0
  0
LINE
  5
A3
  8
0
 62
     7
 10
85.243200000000016
 20
183.16099999999989
 30
0.0
 11
84.899100000000004
 21
182.59599999999989
 31
0.0
  0
ARC
  5
A4
  8
0
 62
     7
 10
85.973889999999983
 20
184.367739
 30
0.0
 40
0.6855520000000001
 50
332.23033099999992
 51
345.91880299999991
  0
ARC
  5
A5
  8
0
 62
     7
 10
85.706423999999998
 20
184.48541299999991
 30
0.0
 40
0.9772549999999998
 50
296.54043999999999
 51
333.43206400000003
  0
ARC
  5
A6
  8
0
 62
     7
 10
87.834137999999996
 20
185.55138600000001
 30
0.0
 40
0.847858
 50
127.0712019999999
 51
139.10842099999999
  0
ARC
  5
A7
  8
0
 62
     7
 10
88.138231000000005
 20
185.25150899999991
 30
0.0
 40
1.2743450000000001
 50
137.8663379999999
 51
168.85360900000001
  0
ARC
  5
A8
  8
0
 62
     7
 10
87.566969999999998
 20
187.766807
 30
0.0
 40
1.122309
 50
307.67337300000003
 51
349.97698500000001
  0
ARC
  5
A9
  8
0
 62
     7
 10
88.417684999999977
 20
194.23740799999999
 30
0.0
 40
0.623785
 50
358.08751799999999
 51
0.176379
  0
ARC
  5
AA
  8
0
 62
     7
 10
88.608722000000014
 20
194.22345599999991
 30
0.0
 40
0.433036
 50
2.100579999999999
 51
87.852039000000005
  0
LINE
  5
AB
  8
0
 62
     7
 10
85.308999999999997
 20
87.783699999999996
 30
0.0
 11
86.169600000000003
 21
87.352999999999994
 31
0.0
  0
LINE
  5
AC
  8
0
 62
     7
 10
86.566199999999995
 20
85.019999999999996
 30
0.0
 11
86.566199999999995
 21
86.756699999999995
 31
0.0
  0
LINE
  5
AD
  8
0
 62
     7
 10
86.973399999999998
 20
84.519099999999995
 30
0.0
 11
88.644199999999998
 21
83.962299999999999
 31
0.0
  0
LINE
  5
AE
  8
0
 62
     7
 10
89.065600000000003
 20
83.225800000000007
 30
0.0
 11
89.065600000000003
 21
83.490300000000005
 31
0.0
  0
LINE
  5
AF
  8
0
 62
     7
 10
89.353600000000014
 20
82.843999999999994
 30
0.0
 11
90.358199999999997
 21
82.342100000000002
 31
0.0
  0
LINE
  5
B0
  8
0
 62
     7
 10
90.732299999999995
 20
80.488600000000005
 30
0.0
 11
90.732299999999995
 21
81.715400000000002
 31
0.0
  0
LINE
  5
B1
  8
0
 62
     7
 10
82.398600000000002
 20
80.655000000000001
 30
0.0
 11
82.398600000000002
 21
80.487899999999996
 31
0.0
  0
LINE
  5
B2
  8
0
  6
AIGENLINE002
 62
     7
 10
82.398600000000002
 20
182.59599999999989
 30
0.0
 11
82.398600000000002
 21
80.655000000000001
 31
0.0
  0
LINE
  5
B3
  8
0
 62
     7
 10
86.556200000000004
 20
194.489
 30
0.0
 11
86.566199999999995
 21
194.65599999999989
 31
0.0
  0
LINE
  5
B4
  8
0
  6
AIGENLINE002
 62
     7
 10
86.1738
 20
187.60099999999991
 30
0.0
 11
86.556200000000004
 21
194.489
 31
0.0
  0
LINE
  5
B5
  8
0
 62
     7
 10
84.899100000000004
 20
182.59599999999989
 30
0.0
 11
84.899100000000004
 21
88.3459
 31
0.0
  0
LINE
  5
B6
  8
0
 62
     7
 10
85.243200000000016
 20
183.16099999999989
 30
0.0
 11
86.143100000000004
 21
183.6109999999999
 31
0.0
  0
LINE
  5
B7
  8
0
 62
     7
 10
83.866600000000005
 20
182.98899999999989
 30
0.0
 11
70.732399999999998
 21
182.98899999999989
 31
0.0
  0
LINE
  5
B8
  8
0
 62
     7
 10
86.638800000000003
 20
184.20099999999991
 30
0.0
 11
86.887900000000002
 21
185.49799999999991
 31
0.0
  0
LINE
  5
B9
  8
0
 62
     7
 10
85.533299999999997
 20
183.82199999999989
 30
0.0
 11
70.732399999999998
 21
183.82199999999989
 31
0.0
  0
LINE
  5
BA
  8
0
 62
     7
 10
87.322999999999993
 20
186.22799999999989
 30
0.0
 11
88.252899999999997
 21
186.8779999999999
 31
0.0
  0
LINE
  5
BB
  8
0
 62
     7
 10
85.949799999999996
 20
185.989
 30
0.0
 11
70.732399999999998
 21
185.989
 31
0.0
  0
LINE
  5
BC
  8
0
 62
     7
 10
88.672200000000004
 20
187.57099999999991
 30
0.0
 11
89.041100000000014
 21
194.21700000000001
 31
0.0
  0
LINE
  5
BD
  8
0
 62
     7
 10
87.616600000000005
 20
187.15599999999989
 30
0.0
 11
70.732399999999998
 21
187.15599999999989
 31
0.0
  0
LINE
  5
BE
  8
0
 62
     7
 10
88.625
 20
194.65599999999989
 30
0.0
 11
70.732399999999998
 21
194.65599999999989
 31
0.0
  0
LINE
  5
BF
  8
0
 62
     7
 10
84.024000000000001
 20
87.988600000000005
 30
0.0
 11
70.732399999999998
 21
87.988600000000005
 31
0.0
  0
LINE
  5
C0
  8
0
 62
     7
 10
85.289000000000001
 20
87.154899999999998
 30
0.0
 11
70.732399999999998
 21
87.154899999999998
 31
0.0
  0
LINE
  5
C1
  8
0
 62
     7
 10
85.691100000000006
 20
84.654799999999994
 30
0.0
 11
70.732399999999998
 21
84.654799999999994
 31
0.0
  0
LINE
  5
C2
  8
0
 62
     7
 10
87.810199999999995
 20
83.821799999999996
 30
0.0
 11
70.732399999999998
 21
83.821799999999996
 31
0.0
  0
LINE
  5
C3
  8
0
 62
     7
 10
88.492699999999999
 20
82.988100000000017
 30
0.0
 11
70.732399999999998
 21
82.988100000000017
 31
0.0
  0
LINE
  5
C4
  8
0
 62
     7
 10
89.590299999999999
 20
82.155000000000001
 30
0.0
 11
70.732399999999998
 21
82.155000000000001
 31
0.0
  0
LINE
  5
C5
  8
0
 62
     7
 10
90.732299999999995
 20
80.488600000000005
 30
0.0
 11
70.732399999999998
 21
80.488600000000005
 31
0.0
  0
LINE
  5
C6
  8
0
 62
     7
 10
51.1066
 20
82.342100000000002
 30
0.0
 11
50.732500000000002
 21
81.715400000000002
 31
0.0
  0
ARC
  5
C7
  8
0
 62
     7
 10
51.915665999999987
 20
83.291082999999986
 30
0.0
 40
0.4879260000000001
 50
293.62324999999998
 51
352.30672900000002
  0
LINE
  5
C8
  8
0
 62
     7
 10
52.820500000000003
 20
83.962299999999999
 30
0.0
 11
52.3992
 21
83.490300000000005
 31
0.0
  0
ARC
  5
C9
  8
0
 62
     7
 10
54.280118000000002
 20
85.106812999999988
 30
0.0
 40
0.62458
 50
289.77395299999989
 51
352.00867399999998
  0
LINE
  5
CA
  8
0
 62
     7
 10
55.295200000000001
 20
87.352999999999994
 30
0.0
 11
54.898600000000002
 21
86.756699999999995
 31
0.0
  0
ARC
  5
CB
  8
0
 62
     7
 10
55.827907000000003
 20
88.453300999999996
 30
0.0
 40
0.745594
 50
296.08569999999992
 51
351.71773999999999
  0
ARC
  5
CC
  8
0
  6
AIGENLINE003
 62
     7
 10
56.359569
 20
187.72968499999999
 30
0.0
 40
1.0762249999999991
 50
186.852496
 51
228.2391549999999
  0
LINE
  5
CD
  8
0
  6
AIGENLINE003
 62
     7
 10
55.642800000000001
 20
186.92699999999999
 30
0.0
 11
56.6374
 21
186.23099999999991
 31
0.0
  0
ARC
  5
CE
  8
0
  6
AIGENLINE003
 62
     7
 10
55.793866000000001
 20
185.227216
 30
0.0
 40
1.310999
 50
11.69083099999999
 51
49.953032999999998
  0
LINE
  5
CF
  8
0
  6
AIGENLINE003
 62
     7
 10
57.0777
 20
185.49299999999991
 30
0.0
 11
57.328099999999999
 21
184.19
 31
0.0
  0
ARC
  5
D0
  8
0
  6
AIGENLINE003
 62
     7
 10
57.885942999999997
 20
184.31918400000001
 30
0.0
 40
0.572634
 50
193.06369199999989
 51
207.848535
  0
ARC
  5
D1
  8
0
  6
AIGENLINE003
 62
     7
 10
58.267924000000001
 20
184.500519
 30
0.0
 40
0.9952489999999999
 50
206.80627999999999
 51
245.08716000000001
  0
LINE
  5
D2
  8
0
  6
AIGENLINE003
 62
     7
 10
57.848700000000001
 20
183.5979999999999
 30
0.0
 11
58.767200000000003
 21
183.13800000000001
 31
0.0
  0
LINE
  5
D3
  8
0
  6
AIGENLINE003
 62
     7
 10
58.767200000000003
 20
183.13800000000001
 30
0.0
 11
59.066200000000002
 21
182.59599999999989
 31
0.0
  0
LINE
  5
D4
  8
0
 62
     7
 10
56.221600000000002
 20
183.16099999999989
 30
0.0
 11
56.5657
 21
182.59599999999989
 31
0.0
  0
ARC
  5
D5
  8
0
 62
     7
 10
55.490893000000007
 20
184.367739
 30
0.0
 40
0.6855520000000001
 50
194.08121700000001
 51
207.76968799999989
  0
ARC
  5
D6
  8
0
 62
     7
 10
55.758358999999999
 20
184.48541299999991
 30
0.0
 40
0.9772549999999998
 50
206.56795600000001
 51
243.4595799999999
  0
ARC
  5
D7
  8
0
 62
     7
 10
53.595258999999999
 20
185.51186000000001
 30
0.0
 40
0.9007379999999999
 50
40.506791999999997
 51
52.648396999999989
  0
ARC
  5
D8
  8
0
 62
     7
 10
53.327244999999998
 20
185.25189700000001
 30
0.0
 40
1.2735899999999989
 50
11.135289
 51
41.567312000000001
  0
ARC
  5
D9
  8
0
 62
     7
 10
53.897812999999999
 20
187.766807
 30
0.0
 40
1.122309
 50
190.02303499999999
 51
232.32664700000001
  0
ARC
  5
DA
  8
0
 62
     7
 10
53.047086
 20
194.23740799999999
 30
0.0
 40
0.6237729999999999
 50
179.82358099999999
 51
181.912522
  0
ARC
  5
DB
  8
0
 62
     7
 10
52.85606099999999
 20
194.22345599999991
 30
0.0
 40
0.433036
 50
92.147924000000017
 51
177.89941699999989
  0
LINE
  5
DC
  8
0
 62
     7
 10
156.76899999999989
 20
70.917000000000002
 30
0.0
 11
158.9799999999999
 21
71.509299999999996
 31
0.0
  0
LINE
  5
DD
  8
0
 62
     7
 10
158.9799999999999
 20
71.509299999999996
 30
0.0
 11
156.76899999999989
 21
72.101500000000001
 31
0.0
  0
LINE
  5
DE
  8
0
 62
     7
 10
156.76899999999989
 20
72.101500000000001
 30
0.0
 11
156.76899999999989
 21
70.917000000000002
 31
0.0
  0
LINE
  5
DF
  8
0
 62
     7
 10
127.0229999999999
 20
72.087000000000003
 30
0.0
 11
124.812
 21
71.495099999999994
 31
0.0
  0
LINE
  5
E0
  8
0
 62
     7
 10
124.812
 20
71.495099999999994
 30
0.0
 11
127.0229999999999
 21
70.902600000000007
 31
0.0
  0
LINE
  5
E1
  8
0
 62
     7
 10
127.0229999999999
 20
70.902600000000007
 30
0.0
 11
127.0229999999999
 21
72.087000000000003
 31
0.0
  0
LINE
  5
E2
  8
0
 62
     7
 10
158.9799999999999
 20
71.501999999999995
 30
0.0
 11
124.812
 21
71.501999999999995
 31
0.0
  0
LINE
  5
E3
  8
0
 62
     7
 10
124.812
 20
70.794700000000006
 30
0.0
 11
124.812
 21
79.788600000000002
 31
0.0
  0
LINE
  5
E4
  8
0
 62
     7
 10
158.9799999999999
 20
70.794700000000006
 30
0.0
 11
158.9799999999999
 21
79.788600000000002
 31
0.0
  0
LINE
  5
E5
  8
0
 62
     7
 10
90.732299999999995
 20
79.788200000000003
 30
0.0
 11
90.732299999999995
 21
70.794700000000006
 31
0.0
  0
LINE
  5
E6
  8
0
 62
     7
 10
50.732500000000002
 20
79.788200000000003
 30
0.0
 11
50.732500000000002
 21
70.794700000000006
 31
0.0
  0
LINE
  5
E7
  8
0
 62
     7
 10
52.942799999999998
 20
72.087000000000003
 30
0.0
 11
50.732500000000002
 21
71.494799999999998
 31
0.0
  0
LINE
  5
E8
  8
0
 62
     7
 10
50.732500000000002
 20
71.494799999999998
 30
0.0
 11
52.942799999999998
 21
70.902600000000007
 31
0.0
  0
LINE
  5
E9
  8
0
 62
     7
 10
52.942799999999998
 20
70.902600000000007
 30
0.0
 11
52.942799999999998
 21
72.087000000000003
 31
0.0
  0
LINE
  5
EA
  8
0
 62
     7
 10
88.521900000000002
 20
70.917000000000002
 30
0.0
 11
90.732299999999995
 21
71.509299999999996
 31
0.0
  0
LINE
  5
EB
  8
0
 62
     7
 10
90.732299999999995
 20
71.509299999999996
 30
0.0
 11
88.521900000000002
 21
72.101500000000001
 31
0.0
  0
LINE
  5
EC
  8
0
 62
     7
 10
88.521900000000002
 20
72.101500000000001
 30
0.0
 11
88.521900000000002
 21
70.917000000000002
 31
0.0
  0
LINE
  5
ED
  8
0
 62
     7
 10
50.732500000000002
 20
71.501999999999995
 30
0.0
 11
90.732299999999995
 21
71.501999999999995
 31
0.0
  0
LINE
  5
EE
  8
0
 62
     7
 10
156.76899999999989
 20
200.56899999999999
 30
0.0
 11
158.9799999999999
 21
201.16099999999989
 31
0.0
  0
LINE
  5
EF
  8
0
 62
     7
 10
158.9799999999999
 20
201.16099999999989
 30
0.0
 11
156.76899999999989
 21
201.75399999999999
 31
0.0
  0
LINE
  5
F0
  8
0
 62
     7
 10
156.76899999999989
 20
201.75399999999999
 30
0.0
 11
156.76899999999989
 21
200.56899999999999
 31
0.0
  0
LINE
  5
F1
  8
0
 62
     7
 10
127.857
 20
201.739
 30
0.0
 11
125.646
 21
201.14699999999999
 31
0.0
  0
LINE
  5
F2
  8
0
 62
     7
 10
125.646
 20
201.14699999999999
 30
0.0
 11
127.857
 21
200.55499999999989
 31
0.0
  0
LINE
  5
F3
  8
0
 62
     7
 10
127.857
 20
200.55499999999989
 30
0.0
 11
127.857
 21
201.739
 31
0.0
  0
LINE
  5
F4
  8
0
 62
     7
 10
158.9799999999999
 20
201.154
 30
0.0
 11
125.646
 21
201.154
 31
0.0
  0
LINE
  5
F5
  8
0
 62
     7
 10
125.646
 20
195.24000000000001
 30
0.0
 11
125.646
 21
201.738
 31
0.0
  0
LINE
  5
F6
  8
0
 62
     7
 10
158.9799999999999
 20
195.24000000000001
 30
0.0
 11
158.9799999999999
 21
201.738
 31
0.0
  0
LINE
  5
F7
  8
0
 62
     7
 10
156.76899999999989
 20
118.931
 30
0.0
 11
158.9799999999999
 21
119.523
 31
0.0
  0
LINE
  5
F8
  8
0
 62
     7
 10
158.9799999999999
 20
119.523
 30
0.0
 11
156.76899999999989
 21
120.1149999999999
 31
0.0
  0
LINE
  5
F9
  8
0
 62
     7
 10
156.76899999999989
 20
120.1149999999999
 30
0.0
 11
156.76899999999989
 21
118.931
 31
0.0
  0
LINE
  5
FA
  8
0
 62
     7
 10
133.68999999999991
 20
120.1009999999999
 30
0.0
 11
131.4789999999999
 21
119.5089999999999
 31
0.0
  0
LINE
  5
FB
  8
0
 62
     7
 10
131.4789999999999
 20
119.5089999999999
 30
0.0
 11
133.68999999999991
 21
118.916
 31
0.0
  0
LINE
  5
FC
  8
0
 62
     7
 10
133.68999999999991
 20
118.916
 30
0.0
 11
133.68999999999991
 21
120.1009999999999
 31
0.0
  0
LINE
  5
FD
  8
0
 62
     7
 10
158.9799999999999
 20
119.51600000000001
 30
0.0
 11
131.4789999999999
 21
119.51600000000001
 31
0.0
  0
LINE
  5
FE
  8
0
 62
     7
 10
80.188199999999995
 20
118.931
 30
0.0
 11
82.398600000000002
 21
119.523
 31
0.0
  0
LINE
  5
FF
  8
0
 62
     7
 10
82.398600000000002
 20
119.523
 30
0.0
 11
80.188199999999995
 21
120.1149999999999
 31
0.0
  0
LINE
  5
100
  8
0
 62
     7
 10
80.188199999999995
 20
120.1149999999999
 30
0.0
 11
80.188199999999995
 21
118.931
 31
0.0
  0
LINE
  5
101
  8
0
 62
     7
 10
61.276600000000002
 20
120.1009999999999
 30
0.0
 11
59.066200000000002
 21
119.5089999999999
 31
0.0
  0
LINE
  5
102
  8
0
 62
     7
 10
59.066200000000002
 20
119.5089999999999
 30
0.0
 11
61.276600000000002
 21
118.916
 31
0.0
  0
LINE
  5
103
  8
0
 62
     7
 10
61.276600000000002
 20
118.916
 30
0.0
 11
61.276600000000002
 21
120.1009999999999
 31
0.0
  0
LINE
  5
104
  8
0
 62
     7
 10
82.398600000000002
 20
119.51600000000001
 30
0.0
 11
59.066200000000002
 21
119.51600000000001
 31
0.0
  0
LINE
  5
105
  8
0
 62
     7
 10
82.688699999999983
 20
140.62700000000001
 30
0.0
 11
84.899100000000004
 21
141.21899999999999
 31
0.0
  0
LINE
  5
106
  8
0
 62
     7
 10
84.899100000000004
 20
141.21899999999999
 30
0.0
 11
82.688699999999983
 21
141.81100000000001
 31
0.0
  0
LINE
  5
107
  8
0
 62
     7
 10
82.688699999999983
 20
141.81100000000001
 30
0.0
 11
82.688699999999983
 21
140.62700000000001
 31
0.0
  0
LINE
  5
108
  8
0
 62
     7
 10
58.7761
 20
141.79699999999991
 30
0.0
 11
56.5657
 21
141.20500000000001
 31
0.0
  0
LINE
  5
109
  8
0
 62
     7
 10
56.5657
 20
141.20500000000001
 30
0.0
 11
58.7761
 21
140.61199999999999
 31
0.0
  0
LINE
  5
10A
  8
0
 62
     7
 10
58.7761
 20
140.61199999999999
 30
0.0
 11
58.7761
 21
141.79699999999991
 31
0.0
  0
LINE
  5
10B
  8
0
 62
     7
 10
84.899100000000004
 20
141.21199999999999
 30
0.0
 11
56.5657
 21
141.21199999999999
 31
0.0
  0
LINE
  5
10C
  8
0
 62
     7
 10
156.76899999999989
 20
140.62700000000001
 30
0.0
 11
158.9799999999999
 21
141.21899999999999
 31
0.0
  0
LINE
  5
10D
  8
0
 62
     7
 10
158.9799999999999
 20
141.21899999999999
 30
0.0
 11
156.76899999999989
 21
141.81100000000001
 31
0.0
  0
LINE
  5
10E
  8
0
 62
     7
 10
156.76899999999989
 20
141.81100000000001
 30
0.0
 11
156.76899999999989
 21
140.62700000000001
 31
0.0
  0
LINE
  5
10F
  8
0
 62
     7
 10
132.023
 20
141.79699999999991
 30
0.0
 11
129.81299999999999
 21
141.20500000000001
 31
0.0
  0
LINE
  5
110
  8
0
 62
     7
 10
129.81299999999999
 20
141.20500000000001
 30
0.0
 11
132.023
 21
140.61199999999999
 31
0.0
  0
LINE
  5
111
  8
0
 62
     7
 10
132.023
 20
140.61199999999999
 30
0.0
 11
132.023
 21
141.79699999999991
 31
0.0
  0
LINE
  5
112
  8
0
 62
     7
 10
158.9799999999999
 20
141.21199999999999
 30
0.0
 11
129.81299999999999
 21
141.21199999999999
 31
0.0
  0
LINE
  5
113
  8
0
 62
     7
 10
56.155799999999999
 20
87.783699999999996
 30
0.0
 11
55.295200000000001
 21
87.352999999999994
 31
0.0
  0
LINE
  5
114
  8
0
 62
     7
 10
54.898600000000002
 20
85.019999999999996
 30
0.0
 11
54.898600000000002
 21
86.756699999999995
 31
0.0
  0
LINE
  5
115
  8
0
 62
     7
 10
54.491399999999992
 20
84.519099999999995
 30
0.0
 11
52.820500000000003
 21
83.962299999999999
 31
0.0
  0
LINE
  5
116
  8
0
 62
     7
 10
52.3992
 20
83.225800000000007
 30
0.0
 11
52.3992
 21
83.490300000000005
 31
0.0
  0
LINE
  5
117
  8
0
 62
     7
 10
52.111199999999997
 20
82.843999999999994
 30
0.0
 11
51.1066
 21
82.342100000000002
 31
0.0
  0
LINE
  5
118
  8
0
 62
     7
 10
50.732500000000002
 20
80.488600000000005
 30
0.0
 11
50.732500000000002
 21
81.715400000000002
 31
0.0
  0
LINE
  5
119
  8
0
 62
     7
 10
124.812
 20
80.488600000000005
 30
0.0
 11
124.812
 21
81.844999999999985
 31
0.0
  0
LINE
  5
11A
  8
0
 62
     7
 10
124.812
 20
81.844999999999985
 30
0.0
 11
125.0499999999999
 21
82.392399999999995
 31
0.0
  0
LINE
  5
11B
  8
0
 62
     7
 10
125.0499999999999
 20
82.392399999999995
 30
0.0
 11
125.4429999999999
 21
82.784099999999995
 31
0.0
  0
ARC
  5
11C
  8
0
 62
     7
 10
124.91762799999999
 20
83.310051999999985
 30
0.0
 40
0.743099
 50
314.94531799999999
 51
348.64557999999988
  0
LINE
  5
11D
  8
0
 62
     7
 10
125.646
 20
83.163799999999995
 30
0.0
 11
125.646
 21
83.508300000000006
 31
0.0
  0
LINE
  5
11E
  8
0
 62
     7
 10
125.646
 20
83.508300000000006
 30
0.0
 11
125.91499999999991
 21
83.888900000000007
 31
0.0
  0
LINE
  5
11F
  8
0
 62
     7
 10
125.91499999999991
 20
83.888900000000007
 30
0.0
 11
128.68199999999999
 21
84.580699999999993
 31
0.0
  0
ARC
  5
120
  8
0
 62
     7
 10
128.57699799999989
 20
84.968868999999984
 30
0.0
 40
0.402187
 50
285.18789199999992
 51
1.785043999999999
  0
LINE
  5
121
  8
0
 62
     7
 10
128.9789999999999
 20
84.981399999999994
 30
0.0
 11
128.9789999999999
 21
86.858300000000014
 31
0.0
  0
LINE
  5
122
  8
0
 62
     7
 10
128.9789999999999
 20
86.858300000000014
 30
0.0
 11
129.24799999999991
 21
87.424700000000001
 31
0.0
  0
LINE
  5
123
  8
0
 62
     7
 10
129.24799999999991
 20
87.424700000000001
 30
0.0
 11
129.59299999999999
 21
87.769199999999998
 31
0.0
  0
LINE
  5
124
  8
0
 62
     7
 10
129.59299999999999
 20
87.769199999999998
 30
0.0
 11
129.81299999999999
 21
88.367300000000014
 31
0.0
  0
LINE
  5
125
  8
0
 62
     7
 10
129.81299999999999
 20
88.367300000000014
 30
0.0
 11
129.81299999999999
 21
182.52500000000001
 31
0.0
  0
LINE
  5
126
  8
0
 62
     7
 10
128.52799999999991
 20
183.63200000000001
 30
0.0
 11
129.46899999999991
 21
183.16099999999989
 31
0.0
  0
LINE
  5
127
  8
0
 62
     7
 10
128.14599999999999
 20
185.61199999999991
 30
0.0
 11
128.14599999999999
 21
184.23400000000001
 31
0.0
  0
LINE
  5
128
  8
0
  6
AIGENLINE002
 62
     7
 10
128.9789999999999
 20
194.65599999999989
 30
0.0
 11
128.9789999999999
 21
187.55399999999989
 31
0.0
  0
LINE
  5
129
  8
0
 62
     7
 10
126.09699999999999
 20
186.94499999999999
 30
0.0
 11
127.7579999999999
 21
186.1699999999999
 31
0.0
  0
LINE
  5
12A
  8
0
 62
     7
 10
125.646
 20
194.65599999999989
 30
0.0
 11
125.646
 21
187.6699999999999
 31
0.0
  0
LINE
  5
12B
  8
0
 62
     7
 10
158.9799999999999
 20
80.488600000000005
 30
0.0
 11
124.812
 21
80.488600000000005
 31
0.0
  0
LINE
  5
12C
  8
0
 62
     7
 10
158.9799999999999
 20
82.155000000000001
 30
0.0
 11
125.5379999999999
 21
82.155000000000001
 31
0.0
  0
LINE
  5
12D
  8
0
 62
     7
 10
158.9799999999999
 20
82.988100000000017
 30
0.0
 11
126.096
 21
82.988100000000017
 31
0.0
  0
LINE
  5
12E
  8
0
 62
     7
 10
158.9799999999999
 20
83.821799999999996
 30
0.0
 11
126.5949999999999
 21
83.821799999999996
 31
0.0
  0
LINE
  5
12F
  8
0
 62
     7
 10
158.9799999999999
 20
84.654799999999994
 30
0.0
 11
129.458
 21
84.654799999999994
 31
0.0
  0
LINE
  5
130
  8
0
 62
     7
 10
158.9799999999999
 20
87.154899999999998
 30
0.0
 11
129.63599999999991
 21
87.154899999999998
 31
0.0
  0
LINE
  5
131
  8
0
 62
     7
 10
158.9799999999999
 20
87.988600000000005
 30
0.0
 11
130.31399999999991
 21
87.988600000000005
 31
0.0
  0
LINE
  5
132
  8
0
 62
     7
 10
158.9799999999999
 20
194.65599999999989
 30
0.0
 11
125.646
 21
194.65599999999989
 31
0.0
  0
LINE
  5
133
  8
0
 62
     7
 10
158.9799999999999
 20
187.15599999999989
 30
0.0
 11
126.4499999999999
 21
187.15599999999989
 31
0.0
  0
LINE
  5
134
  8
0
 62
     7
 10
158.9799999999999
 20
185.989
 30
0.0
 11
128.6579999999999
 21
185.989
 31
0.0
  0
LINE
  5
135
  8
0
 62
     7
 10
158.9799999999999
 20
183.82199999999989
 30
0.0
 11
128.90000000000001
 21
183.82199999999989
 31
0.0
  0
LINE
  5
136
  8
0
 62
     7
 10
158.9799999999999
 20
182.98899999999989
 30
0.0
 11
130.27799999999999
 21
182.98899999999989
 31
0.0
  0
LINE
  5
137
  8
0
 62
     7
 10
158.9799999999999
 20
194.65599999999989
 30
0.0
 11
158.9799999999999
 21
80.487899999999996
 31
0.0
  0
LINE
  5
138
  8
0
 62
     7
 10
100.3639999999999
 20
225.52799999999991
 30
0.0
 11
100.956
 21
223.31700000000001
 31
0.0
  0
LINE
  5
139
  8
0
 62
     7
 10
100.956
 20
223.31700000000001
 30
0.0
 11
101.54900000000001
 21
225.52799999999991
 31
0.0
  0
LINE
  5
13A
  8
0
 62
     7
 10
101.54900000000001
 20
225.52799999999991
 30
0.0
 11
100.3639999999999
 21
225.52799999999991
 31
0.0
  0
LINE
  5
13B
  8
0
 62
     7
 10
101.53399999999991
 20
255.274
 30
0.0
 11
100.94199999999989
 21
257.48399999999998
 31
0.0
  0
LINE
  5
13C
  8
0
 62
     7
 10
100.94199999999989
 20
257.48399999999998
 30
0.0
 11
100.34999999999999
 21
255.274
 31
0.0
  0
LINE
  5
13D
  8
0
 62
     7
 10
100.34999999999999
 20
255.274
 30
0.0
 11
101.53399999999991
 21
255.274
 31
0.0
  0
LINE
  5
13E
  8
0
 62
     7
 10
100.9489999999999
 20
223.31700000000001
 30
0.0
 11
100.9489999999999
 21
257.48399999999998
 31
0.0
  0
LINE
  5
13F
  8
0
 62
     7
 10
101.5329999999999
 20
223.31700000000001
 30
0.0
 11
83.459299999999999
 21
223.31700000000001
 31
0.0
  0
LINE
  5
140
  8
0
 62
     7
 10
101.5329999999999
 20
257.48399999999998
 30
0.0
 11
91.315899999999999
 21
257.48399999999998
 31
0.0
  0
LINE
  5
141
  8
0
 62
     7
 10
59.066200000000002
 20
80.655000000000001
 30
0.0
 11
59.066200000000002
 21
80.487899999999996
 31
0.0
  0
LINE
  5
142
  8
0
  6
AIGENLINE002
 62
     7
 10
59.066200000000002
 20
182.59599999999989
 30
0.0
 11
59.066200000000002
 21
80.655000000000001
 31
0.0
  0
LINE
  5
143
  8
0
 62
     7
 10
54.9086
 20
194.489
 30
0.0
 11
54.898600000000002
 21
194.65599999999989
 31
0.0
  0
LINE
  5
144
  8
0
  6
AIGENLINE002
 62
     7
 10
55.290999999999997
 20
187.60099999999991
 30
0.0
 11
54.9086
 21
194.489
 31
0.0
  0
LINE
  5
145
  8
0
 62
     7
 10
90.73299999999999
 20
265.33499999999992
 30
0.0
 11
90.73299999999999
 21
257.899
 31
0.0
  0
LINE
  5
146
  8
0
 62
     7
 10
50.732500000000002
 20
265.33499999999992
 30
0.0
 11
50.732500000000002
 21
257.899
 31
0.0
  0
LINE
  5
147
  8
0
 62
     7
 10
52.942799999999998
 20
265.33600000000001
 30
0.0
 11
50.732500000000002
 21
264.74400000000003
 31
0.0
  0
LINE
  5
148
  8
0
 62
     7
 10
50.732500000000002
 20
264.74400000000003
 30
0.0
 11
52.942799999999998
 21
264.15199999999987
 31
0.0
  0
LINE
  5
149
  8
0
 62
     7
 10
52.942799999999998
 20
264.15199999999987
 30
0.0
 11
52.942799999999998
 21
265.33600000000001
 31
0.0
  0
LINE
  5
14A
  8
0
 62
     7
 10
88.522599999999997
 20
264.16599999999988
 30
0.0
 11
90.73299999999999
 21
264.75799999999998
 31
0.0
  0
LINE
  5
14B
  8
0
 62
     7
 10
90.73299999999999
 20
264.75799999999998
 30
0.0
 11
88.522599999999997
 21
265.351
 31
0.0
  0
LINE
  5
14C
  8
0
 62
     7
 10
88.522599999999997
 20
265.351
 30
0.0
 11
88.522599999999997
 21
264.16599999999988
 31
0.0
  0
LINE
  5
14D
  8
0
 62
     7
 10
50.732500000000002
 20
264.75099999999998
 30
0.0
 11
90.73299999999999
 21
264.75099999999998
 31
0.0
  0
LINE
  5
14E
  8
0
 62
     7
 10
89.066299999999984
 20
201.73699999999999
 30
0.0
 11
89.066299999999984
 21
195.24000000000001
 31
0.0
  0
LINE
  5
14F
  8
0
 62
     7
 10
52.3992
 20
201.73699999999999
 30
0.0
 11
52.3992
 21
195.24000000000001
 31
0.0
  0
LINE
  5
150
  8
0
 62
     7
 10
54.6096
 20
201.739
 30
0.0
 11
52.3992
 21
201.14699999999999
 31
0.0
  0
LINE
  5
151
  8
0
 62
     7
 10
52.3992
 20
201.14699999999999
 30
0.0
 11
54.6096
 21
200.55499999999989
 31
0.0
  0
LINE
  5
152
  8
0
 62
     7
 10
54.6096
 20
200.55499999999989
 30
0.0
 11
54.6096
 21
201.739
 31
0.0
  0
LINE
  5
153
  8
0
 62
     7
 10
86.855900000000005
 20
200.56899999999999
 30
0.0
 11
89.066299999999984
 21
201.16099999999989
 31
0.0
  0
LINE
  5
154
  8
0
 62
     7
 10
89.066299999999984
 20
201.16099999999989
 30
0.0
 11
86.855900000000005
 21
201.75399999999999
 31
0.0
  0
LINE
  5
155
  8
0
 62
     7
 10
86.855900000000005
 20
201.75399999999999
 30
0.0
 11
86.855900000000005
 21
200.56899999999999
 31
0.0
  0
LINE
  5
156
  8
0
 62
     7
 10
52.3992
 20
201.154
 30
0.0
 11
89.066299999999984
 21
201.154
 31
0.0
  0
LINE
  5
157
  8
0
  6
AIGENLINE001
 62
     7
 10
70.732399999999998
 20
197.75599999999989
 30
0.0
 11
70.732399999999998
 21
77.083799999999997
 31
0.0
  0
LINE
  5
158
  8
0
 62
     7
 10
100.3639999999999
 20
82.699399999999997
 30
0.0
 11
100.956
 21
80.488299999999995
 31
0.0
  0
LINE
  5
159
  8
0
 62
     7
 10
100.956
 20
80.488299999999995
 30
0.0
 11
101.54900000000001
 21
82.699399999999997
 31
0.0
  0
LINE
  5
15A
  8
0
 62
     7
 10
101.54900000000001
 20
82.699399999999997
 30
0.0
 11
100.3639999999999
 21
82.699399999999997
 31
0.0
  0
LINE
  5
15B
  8
0
 62
     7
 10
101.53399999999991
 20
192.44499999999999
 30
0.0
 11
100.94199999999989
 21
194.65599999999989
 31
0.0
  0
LINE
  5
15C
  8
0
 62
     7
 10
100.94199999999989
 20
194.65599999999989
 30
0.0
 11
100.34999999999999
 21
192.44499999999999
 31
0.0
  0
LINE
  5
15D
  8
0
 62
     7
 10
100.34999999999999
 20
192.44499999999999
 30
0.0
 11
101.53399999999991
 21
192.44499999999999
 31
0.0
  0
LINE
  5
15E
  8
0
 62
     7
 10
100.9489999999999
 20
80.488600000000005
 30
0.0
 11
100.9489999999999
 21
194.65599999999989
 31
0.0
  0
LINE
  5
15F
  8
0
 62
     7
 10
101.5329999999999
 20
80.488600000000005
 30
0.0
 11
91.315899999999999
 21
80.488600000000005
 31
0.0
  0
LINE
  5
160
  8
0
 62
     7
 10
101.5329999999999
 20
194.65599999999989
 30
0.0
 11
89.649900000000002
 21
194.65599999999989
 31
0.0
  0
LINE
  5
161
  8
0
 62
     7
 10
56.5657
 20
182.59599999999989
 30
0.0
 11
56.5657
 21
88.3459
 31
0.0
  0
LINE
  5
162
  8
0
 62
     7
 10
56.221600000000002
 20
183.16099999999989
 30
0.0
 11
55.3217
 21
183.6109999999999
 31
0.0
  0
LINE
  5
163
  8
0
 62
     7
 10
57.598199999999999
 20
182.98899999999989
 30
0.0
 11
70.732399999999998
 21
182.98899999999989
 31
0.0
  0
LINE
  5
164
  8
0
 62
     7
 10
54.825899999999997
 20
184.20099999999991
 30
0.0
 11
54.576900000000002
 21
185.49799999999991
 31
0.0
  0
LINE
  5
165
  8
0
 62
     7
 10
55.9315
 20
183.82199999999989
 30
0.0
 11
70.732399999999998
 21
183.82199999999989
 31
0.0
  0
LINE
  5
166
  8
0
 62
     7
 10
54.1417
 20
186.22799999999989
 30
0.0
 11
53.2119
 21
186.8779999999999
 31
0.0
  0
LINE
  5
167
  8
0
 62
     7
 10
55.515000000000001
 20
185.989
 30
0.0
 11
70.732399999999998
 21
185.989
 31
0.0
  0
LINE
  5
168
  8
0
 62
     7
 10
52.7926
 20
187.57099999999991
 30
0.0
 11
52.423699999999997
 21
194.21700000000001
 31
0.0
  0
LINE
  5
169
  8
0
 62
     7
 10
53.848199999999999
 20
187.15599999999989
 30
0.0
 11
70.732399999999998
 21
187.15599999999989
 31
0.0
  0
LINE
  5
16A
  8
0
 62
     7
 10
52.83979999999999
 20
194.65599999999989
 30
0.0
 11
70.732399999999998
 21
194.65599999999989
 31
0.0
  0
LINE
  5
16B
  8
0
 62
     7
 10
57.440800000000003
 20
87.988600000000005
 30
0.0
 11
70.732399999999998
 21
87.988600000000005
 31
0.0
  0
LINE
  5
16C
  8
0
 62
     7
 10
56.175699999999999
 20
87.154899999999998
 30
0.0
 11
70.732399999999998
 21
87.154899999999998
 31
0.0
  0
LINE
  5
16D
  8
0
 62
     7
 10
55.773699999999998
 20
84.654799999999994
 30
0.0
 11
70.732399999999998
 21
84.654799999999994
 31
0.0
  0
LINE
  5
16E
  8
0
 62
     7
 10
53.654600000000002
 20
83.821799999999996
 30
0.0
 11
70.732399999999998
 21
83.821799999999996
 31
0.0
  0
LINE
  5
16F
  8
0
 62
     7
 10
52.97209999999999
 20
82.988100000000017
 30
0.0
 11
70.732399999999998
 21
82.988100000000017
 31
0.0
  0
LINE
  5
170
  8
0
 62
     7
 10
51.874499999999998
 20
82.155000000000001
 30
0.0
 11
70.732399999999998
 21
82.155000000000001
 31
0.0
  0
LINE
  5
171
  8
0
 62
     7
 10
50.732500000000002
 20
80.488600000000005
 30
0.0
 11
70.732399999999998
 21
80.488600000000005
 31
0.0
  0
TEXT
  5
172
  8
_________2
 62
     7
 10
29.525700000000001
 20
22.2272
 30
0.0
 40
3.9357000000000002
  1
重量11.0kg
 41
0.5
  0
LINE
  5
173
  8
_________2
 62
     7
 10
105.2389999999999
 20
17.428499999999989
 30
0.0
 11
105.2389999999999
 21
0.4485540000000001
 31
0.0
  0
LINE
  5
174
  8
_________2
 62
     7
 10
81.679900000000004
 20
51.324300000000001
 30
0.0
 11
79.493700000000004
 21
51.324300000000001
 31
0.0
  0
LINE
  5
175
  8
_________2
 62
     7
 10
82.172600000000017
 20
51.324300000000001
 30
0.0
 11
81.920400000000001
 21
51.324300000000001
 31
0.0
  0
LINE
  5
176
  8
_________2
 62
     7
 10
82.665199999999984
 20
51.324300000000001
 30
0.0
 11
85.590100000000007
 21
51.324300000000001
 31
0.0
  0
LINE
  5
177
  8
_________2
 62
     7
 10
82.172600000000017
 20
51.324300000000001
 30
0.0
 11
82.424800000000005
 21
51.324300000000001
 31
0.0
  0
LINE
  5
178
  8
_________2
 62
     7
 10
75.776399999999995
 20
51.324300000000001
 30
0.0
 11
73.589399999999998
 21
51.324300000000001
 31
0.0
  0
LINE
  5
179
  8
_________2
 62
     7
 10
76.2684
 20
51.324300000000001
 30
0.0
 11
76.016900000000007
 21
51.324300000000001
 31
0.0
  0
LINE
  5
17A
  8
_________2
 62
     7
 10
76.2684
 20
51.817
 30
0.0
 11
76.2684
 21
54.003900000000002
 31
0.0
  0
LINE
  5
17B
  8
_________2
 62
     7
 10
76.2684
 20
51.324300000000001
 30
0.0
 11
76.2684
 21
51.576900000000002
 31
0.0
  0
LINE
  5
17C
  8
_________2
 62
     7
 10
76.76100000000001
 20
51.324300000000001
 30
0.0
 11
78.947999999999993
 21
51.324300000000001
 31
0.0
  0
LINE
  5
17D
  8
_________2
 62
     7
 10
76.2684
 20
51.324300000000001
 30
0.0
 11
76.520499999999998
 21
51.324300000000001
 31
0.0
  0
LINE
  5
17E
  8
_________2
 62
     7
 10
76.2684
 20
50.832399999999993
 30
0.0
 11
76.2684
 21
48.645699999999998
 31
0.0
  0
LINE
  5
17F
  8
_________2
 62
     7
 10
76.2684
 20
51.324300000000001
 30
0.0
 11
76.2684
 21
51.072800000000001
 31
0.0
  0
LINE
  5
180
  8
_________2
 62
     7
 10
79.979399999999984
 20
50.104799999999997
 30
0.0
 11
85.157399999999996
 21
49.240000000000002
 31
0.0
  0
LINE
  5
181
  8
_________2
 62
     7
 10
79.979399999999984
 20
52.544199999999989
 30
0.0
 11
85.157399999999996
 21
53.409700000000001
 31
0.0
  0
LINE
  5
182
  8
_________2
 62
     7
 10
85.157399999999996
 20
49.240000000000002
 30
0.0
 11
85.157399999999996
 21
53.409700000000001
 31
0.0
  0
LINE
  5
183
  8
_________2
 62
     7
 10
79.979399999999984
 20
50.104799999999997
 30
0.0
 11
79.979399999999984
 21
52.544199999999989
 31
0.0
  0
ARC
  5
184
  8
_________2
 62
     7
 10
76.221766000000002
 20
51.277380999999998
 30
0.0
 40
1.267714
 50
2.1220840000000001
 51
87.894083999999992
  0
ARC
  5
185
  8
_________2
 62
     7
 10
76.315297000000001
 20
51.277734999999993
 30
0.0
 40
1.267374999999999
 50
92.122849999999985
 51
177.893304
  0
ARC
  5
186
  8
_________2
 62
     7
 10
76.315273000000005
 20
51.371245999999992
 30
0.0
 40
1.267363
 50
182.12181499999991
 51
267.87821400000001
  0
ARC
  5
187
  8
_________2
 62
     7
 10
76.221461000000005
 20
51.371928999999987
 30
0.0
 40
1.2680439999999991
 50
272.11916400000001
 51
357.84848499999993
  0
ARC
  5
188
  8
_________2
 62
     7
 10
76.187981999999991
 20
51.244312999999998
 30
0.0
 40
2.1668310000000002
 50
2.1161439999999989
 51
87.874379000000005
  0
ARC
  5
189
  8
_________2
 62
     7
 10
76.348411999999996
 20
51.245334999999997
 30
0.0
 40
2.1657980000000001
 50
92.118487999999999
 51
177.90988599999989
  0
ARC
  5
18A
  8
_________2
 62
     7
 10
76.348354
 20
51.404327000000002
 30
0.0
 40
2.1657779999999991
 50
182.11700400000001
 51
267.88302499999992
  0
ARC
  5
18B
  8
_________2
 62
     7
 10
76.188378999999983
 20
51.405009999999997
 30
0.0
 40
2.1664590000000001
 50
272.11546800000002
 51
357.86560400000002
  0
TEXT
  5
18C
  8
_________2
 62
     7
 10
109.5439999999999
 20
23.199100000000001
 30
0.0
 40
3.0923400000000001
  1
図番
 41
0.5
  0
LINE
  5
18D
  8
_________2
 62
     7
 10
108.4889999999999
 20
27.4283
 30
0.0
 11
188.49000000000001
 21
27.4283
 31
0.0
  0
TEXT
  5
18E
  8
_________2
 62
     7
 10
109.5439999999999
 20
33.198900000000002
 30
0.0
 40
3.0923400000000001
  1
品番
 41
0.5
  0
TEXT
  5
18F
  8
_________2
 62
     7
 10
109.5439999999999
 20
53.338000000000001
 30
0.0
 40
3.0923400000000001
  1
名称
 41
0.5
  0
TEXT
  5
190
  8
_________2
 62
     7
 10
96.784058333333334
 20
48.341900000000003
 30
0.0
 40
3.6545800000000002
  1
mm
 41
0.5
 72
     1
 11
98.306799999999996
 21
48.341900000000003
 31
0.0
  0
TEXT
  5
191
  8
_________2
 62
     7
 10
90.582099999999997
 20
53.338000000000001
 30
0.0
 40
3.0923400000000001
  1
単位
 41
0.5
  0
TEXT
  5
192
  8
_________2
 62
     7
 10
90.582099999999997
 20
40.930399999999999
 30
0.0
 40
3.0923400000000001
  1
尺度
 41
0.5
  0
TEXT
  5
193
  8
_________2
 62
     7
 10
95.487658666666675
 20
34.7378
 30
0.0
 40
3.6545800000000002
  1
1 ： 6
 41
0.5
 72
     1
 11
98.898600000000002
 21
34.7378
 31
0.0
  0
TEXT
  5
194
  8
_________2
 62
     7
 10
140.94557499999999
 20
30.627800000000001
 30
0.0
 40
3.9357000000000002
  1
VB723200
 41
0.5
 72
     1
 11
148.489
 21
30.627800000000001
 31
0.0
  0
TEXT
  5
195
  8
_________2
 62
     7
 10
140.94557499999999
 20
20.626999999999988
 30
0.0
 40
3.9357000000000002
  1
VB723200
 41
0.5
 72
     1
 11
148.489
 21
20.626999999999988
 31
0.0
  0
TEXT
  5
196
  8
_________2
 62
     7
 10
114.11799999999999
 20
45.745600000000003
 30
0.0
 40
3.9357000000000002
  1
オマージュ ペデスタル
 41
0.5
  0
TEXT
  5
197
  8
_________2
 62
     7
 10
44.364200333333329
 20
35.122999999999998
 30
0.0
 40
3.6545800000000002
  1
早川
 41
0.5
 72
     1
 11
46.252400000000002
 21
35.122999999999998
 31
0.0
  0
TEXT
  5
198
  8
_________2
 62
     7
 10
25.729290666666671
 20
35.122999999999998
 30
0.0
 40
3.6545800000000002
  1
菅原
 41
0.5
 72
     1
 11
27.6784
 21
35.122999999999998
 31
0.0
  0
TEXT
  5
199
  8
_________2
 62
     7
 10
72.724699999999999
 20
34.7378
 30
0.0
 40
3.6545800000000002
  1
13.06.17
 41
0.5
  0
TEXT
  5
19A
  8
_________2
 62
     7
 10
71.531999999999996
 20
40.930399999999999
 30
0.0
 40
3.0923400000000001
  1
日付
 41
0.5
  0
TEXT
  5
19B
  8
_________2
 62
     7
 10
34.578299999999992
 20
40.930399999999999
 30
0.0
 40
3.0923400000000001
  1
検図
 41
0.5
  0
TEXT
  5
19C
  8
_________2
 62
     7
 10
22.96019999999999
 20
26.730999999999991
 30
0.0
 40
3.0923400000000001
  1
備考
 41
0.5
  0
TEXT
  5
19D
  8
_________2
 62
     7
 10
22.96019999999999
 20
40.930399999999999
 30
0.0
 40
3.0923400000000001
  1
製図
 41
0.5
  0
TEXT
  5
19E
  8
_________2
 62
     7
 10
28.727365333333339
 20
49.456400000000002
 30
0.0
 40
4.4979399999999989
  1
セラトレーディング株式会社
 41
0.5
 72
     1
 11
46.119399999999992
 21
49.456400000000002
 31
0.0
  0
LINE
  5
19F
  8
_________2
 62
     7
 10
188.49000000000001
 20
17.428499999999989
 30
0.0
 11
21.988499999999991
 21
17.428499999999989
 31
0.0
  0
LINE
  5
1A0
  8
_________2
 62
     7
 10
21.988499999999991
 20
17.428499999999989
 30
0.0
 11
21.988499999999991
 21
280.42999999999989
 31
0.0
  0
LINE
  5
1A1
  8
_________2
 62
     7
 10
21.988499999999991
 20
280.42999999999989
 30
0.0
 11
188.49000000000001
 21
280.42999999999989
 31
0.0
  0
LINE
  5
1A2
  8
_________2
 62
     7
 10
188.49000000000001
 20
280.42999999999989
 30
0.0
 11
188.49000000000001
 21
17.428499999999989
 31
0.0
  0
LINE
  5
1A3
  8
_________2
 62
     7
 10
70.488799999999998
 20
30.928899999999999
 30
0.0
 11
70.488799999999998
 21
57.428699999999992
 31
0.0
  0
LINE
  5
1A4
  8
_________2
 62
     7
 10
89.488600000000005
 20
30.928899999999999
 30
0.0
 11
89.488600000000005
 21
57.428699999999992
 31
0.0
  0
LINE
  5
1A5
  8
_________2
 62
     7
 10
108.4889999999999
 20
17.428499999999989
 30
0.0
 11
108.4889999999999
 21
57.428699999999992
 31
0.0
  0
LINE
  5
1A6
  8
_________2
 62
     7
 10
33.488300000000002
 20
30.928899999999999
 30
0.0
 11
33.488300000000002
 21
44.928800000000003
 31
0.0
  0
LINE
  5
1A7
  8
_________2
 62
     7
 10
21.988499999999991
 20
30.928899999999999
 30
0.0
 11
108.4889999999999
 21
30.928899999999999
 31
0.0
  0
LINE
  5
1A8
  8
_________2
 62
     7
 10
21.988499999999991
 20
44.928800000000003
 30
0.0
 11
108.4889999999999
 21
44.928800000000003
 31
0.0
  0
LINE
  5
1A9
  8
_________2
 62
     7
 10
108.4889999999999
 20
37.428100000000001
 30
0.0
 11
188.49000000000001
 21
37.428100000000001
 31
0.0
  0
LINE
  5
1AA
  8
_________2
 62
     7
 10
21.988499999999991
 20
57.428699999999992
 30
0.0
 11
188.49000000000001
 21
57.428699999999992
 31
0.0
  0
LINE
  5
1AB
  8
_________2
 62
     7
 10
210.24000000000001
 20
148.93100000000001
 30
0.0
 11
188.489
 21
148.93100000000001
 31
0.0
  0
LINE
  5
1AC
  8
_________2
 62
     7
 10
105.2389999999999
 20
297.45099999999991
 30
0.0
 11
105.2389999999999
 21
280.42999999999989
 31
0.0
  0
LINE
  5
1AD
  8
_________2
 62
     7
 10
21.988499999999991
 20
148.93100000000001
 30
0.0
 11
0.238402
 21
148.93100000000001
 31
0.0
  0
ENDSEC
  0
EOF
