  0
SECTION
  2
HEADER
  9
$ACADVER
  1
AC1009
  9
$INSBASE
 10
0.0
 20
0.0
 30
0.0
  9
$EXTMIN
 10
-4.70052
 20
-21.071400000000001
 30
0.0
  9
$EXTMAX
 10
205.30099999999999
 20
275.93099999999993
 30
0.0
  9
$LIMMIN
 10
0.0
 20
0.0
  9
$LIMMAX
 10
12.0
 20
9.0
  9
$ORTHOMODE
 70
     0
  9
$REGENMODE
 70
     1
  9
$FILLMODE
 70
     1
  9
$QTEXTMODE
 70
     0
  9
$MIRRTEXT
 70
     1
  9
$DRAGMODE
 70
     2
  9
$LTSCALE
 40
1.0
  9
$OSMODE
 70
    37
  9
$ATTMODE
 70
     1
  9
$TEXTSIZE
 40
0.0
  9
$TRACEWID
 40
0.05
  9
$TEXTSTYLE
  7
STANDARD
  9
$CLAYER
  8
0
  9
$CELTYPE
  6
CONTINUOUS
  9
$CECOLOR
 62
   256
  9
$DIMSCALE
 40
1.0
  9
$DIMASZ
 40
0.18
  9
$DIMEXO
 40
0.0625
  9
$DIMDLI
 40
0.38
  9
$DIMRND
 40
0.0
  9
$DIMDLE
 40
0.0
  9
$DIMEXE
 40
0.18
  9
$DIMTP
 40
0.0
  9
$DIMTM
 40
0.0
  9
$DIMTXT
 40
0.18
  9
$DIMCEN
 40
0.09
  9
$DIMTSZ
 40
0.0
  9
$DIMTOL
 70
     0
  9
$DIMLIM
 70
     0
  9
$DIMTIH
 70
     1
  9
$DIMTOH
 70
     1
  9
$DIMSE1
 70
     0
  9
$DIMSE2
 70
     0
  9
$DIMTAD
 70
     0
  9
$DIMZIN
 70
     0
  9
$DIMBLK
  1

  9
$DIMASO
 70
     1
  9
$DIMSHO
 70
     1
  9
$DIMPOST
  1

  9
$DIMAPOST
  1

  9
$DIMALT
 70
     0
  9
$DIMALTD
 70
     2
  9
$DIMALTF
 40
25.399999999999999
  9
$DIMLFAC
 40
1.0
  9
$DIMTOFL
 70
     0
  9
$DIMTVP
 40
0.0
  9
$DIMTIX
 70
     0
  9
$DIMSOXD
 70
     0
  9
$DIMSAH
 70
     0
  9
$DIMBLK1
  1

  9
$DIMBLK2
  1

  9
$DIMSTYLE
  2
STANDARD
  9
$DIMCLRD
 70
     0
  9
$DIMCLRE
 70
     0
  9
$DIMCLRT
 70
     0
  9
$DIMTFAC
 40
1.0
  9
$DIMGAP
 40
0.09
  9
$LUNITS
 70
     2
  9
$LUPREC
 70
     4
  9
$SKETCHINC
 40
0.1
  9
$FILLETRAD
 40
0.0
  9
$AUNITS
 70
     0
  9
$AUPREC
 70
     0
  9
$MENU
  1
.
  9
$ELEVATION
 40
0.0
  9
$PELEVATION
 40
0.0
  9
$THICKNESS
 40
0.0
  9
$LIMCHECK
 70
     0
  9
$BLIPMODE
 70
     0
  9
$CHAMFERA
 40
0.0
  9
$CHAMFERB
 40
0.0
  9
$SKPOLY
 70
     0
  9
$TDCREATE
 40
2444972.375
  9
$TDUPDATE
 40
2454285.2865263312
  9
$TDINDWG
 40
0.0013998032
  9
$TDUSRTIMER
 40
0.0013998032
  9
$USRTIMER
 70
     1
  9
$ANGBASE
 50
0.0
  9
$ANGDIR
 70
     0
  9
$PDMODE
 70
     0
  9
$PDSIZE
 40
0.0
  9
$PLINEWID
 40
0.0
  9
$COORDS
 70
     1
  9
$SPLFRAME
 70
     0
  9
$SPLINETYPE
 70
     6
  9
$SPLINESEGS
 70
     8
  9
$ATTDIA
 70
     0
  9
$ATTREQ
 70
     1
  9
$HANDLING
 70
     1
  9
$HANDSEED
  5
1AF
  9
$SURFTAB1
 70
     6
  9
$SURFTAB2
 70
     6
  9
$SURFTYPE
 70
     6
  9
$SURFU
 70
     6
  9
$SURFV
 70
     6
  9
$UCSNAME
  2

  9
$UCSORG
 10
0.0
 20
0.0
 30
0.0
  9
$UCSXDIR
 10
1.0
 20
0.0
 30
0.0
  9
$UCSYDIR
 10
0.0
 20
1.0
 30
0.0
  9
$PUCSNAME
  2

  9
$PUCSORG
 10
0.0
 20
0.0
 30
0.0
  9
$PUCSXDIR
 10
1.0
 20
0.0
 30
0.0
  9
$PUCSYDIR
 10
0.0
 20
1.0
 30
0.0
  9
$USERI1
 70
     0
  9
$USERI2
 70
     0
  9
$USERI3
 70
     0
  9
$USERI4
 70
     0
  9
$USERI5
 70
     0
  9
$USERR1
 40
0.0
  9
$USERR2
 40
0.0
  9
$USERR3
 40
0.0
  9
$USERR4
 40
0.0
  9
$USERR5
 40
0.0
  9
$WORLDVIEW
 70
     1
  9
$SHADEDGE
 70
     3
  9
$SHADEDIF
 70
    70
  9
$TILEMODE
 70
     1
  9
$MAXACTVP
 70
    48
  9
$PLIMCHECK
 70
     0
  9
$PEXTMIN
 10
1.0000000000000000E+020
 20
1.0000000000000000E+020
 30
1.0000000000000000E+020
  9
$PEXTMAX
 10
-1.0000000000000000E+020
 20
-1.0000000000000000E+020
 30
-1.0000000000000000E+020
  9
$PLIMMIN
 10
0.0
 20
0.0
  9
$PLIMMAX
 10
12.0
 20
9.0
  9
$UNITMODE
 70
     0
  9
$VISRETAIN
 70
     1
  9
$PLINEGEN
 70
     0
  9
$PSLTSCALE
 70
     1
  0
ENDSEC
  0
SECTION
  2
TABLES
  0
TABLE
  2
VPORT
 70
     2
  0
VPORT
  2
*ACTIVE
 70
     0
 10
0.0
 20
0.0
 11
1.0
 21
1.0
 12
189.56085651407921
 22
127.4297999999999
 13
0.0
 23
0.0
 14
1.0
 24
1.0
 15
0.0
 25
0.0
 16
0.0
 26
0.0
 36
1.0
 17
0.0
 27
0.0
 37
0.0
 40
299.2467506297229
 41
2.1842105263157889
 42
50.0
 43
0.0
 44
0.0
 50
0.0
 51
0.0
 71
     0
 72
   100
 73
     1
 74
     1
 75
     0
 76
     0
 77
     0
 78
     0
  0
ENDTAB
  0
TABLE
  2
LTYPE
 70
     3
  0
LTYPE
  2
CONTINUOUS
 70
     0
  3
Solid line
 72
    65
 73
     0
 40
0.0
  0
LTYPE
  2
AIGENLINE001
 70
     0
  3
generate AI->DXF Converter
 72
    65
 73
     6
 40
7.4083750000000004
 49
3.5278
 49
-0.776115
 49
0.776115
 49
-0.776115
 49
0.776115
 49
-0.776115
  0
LTYPE
  2
AIGENLINE002
 70
     0
  3
generate AI->DXF Converter
 72
    65
 73
     4
 40
5.8561449999999988
 49
3.5278
 49
-0.776115
 49
0.776115
 49
-0.776115
  0
ENDTAB
  0
TABLE
  2
LAYER
 70
     2
  0
LAYER
  2
0
 70
     0
 62
     7
  6
CONTINUOUS
  0
LAYER
  2
_________2
 70
     0
 62
     7
  6
CONTINUOUS
  0
ENDTAB
  0
TABLE
  2
STYLE
 70
     1
  0
STYLE
  2
STANDARD
 70
     0
 40
0.0
 41
0.0
 50
0.0
 71
     0
 42
0.0
  3
TXT
  4
EXTFONT.SHX
  0
ENDTAB
  0
TABLE
  2
VIEW
 70
     0
  0
ENDTAB
  0
TABLE
  2
UCS
 70
     0
  0
ENDTAB
  0
TABLE
  2
APPID
 70
     1
  0
APPID
  2
ACAD
 70
     0
  0
ENDTAB
  0
TABLE
  2
DIMSTYLE
 70
     1
  0
DIMSTYLE
  2
STANDARD
 70
     0
  3

  4

  5

  6

  7

 40
1.0
 41
0.18
 42
0.0625
 43
0.38
 44
0.18
 45
0.0
 46
0.0
 47
0.0
 48
0.0
140
0.18
141
0.09
142
0.0
143
25.399999999999999
144
1.0
145
0.0
146
1.0
147
0.09
 71
     0
 72
     0
 73
     1
 74
     1
 75
     0
 76
     0
 77
     0
 78
     0
170
     0
171
     2
172
     0
173
     0
174
     0
175
     0
176
     0
177
     0
178
     0
  0
ENDTAB
  0
ENDSEC
  0
SECTION
  2
BLOCKS
  0
BLOCK
  8
0
  2
$MODEL_SPACE
 70
     0
 10
0.0
 20
0.0
 30
0.0
  3
$MODEL_SPACE
  1

  0
ENDBLK
  5
1A
  8
0
  0
BLOCK
 67
     1
  8
0
  2
$PAPER_SPACE
 70
     0
 10
0.0
 20
0.0
 30
0.0
  3
$PAPER_SPACE
  1

  0
ENDBLK
  5
17
 67
     1
  8
0
  0
ENDSEC
  0
SECTION
  2
ENTITIES
  0
TEXT
  5
23
  8
0
 62
     7
 10
98.522800000000004
 20
94.322782500000017
 30
0.0
 40
3.0923400000000001
  1
140
 50
90.0
 41
0.5
 72
     1
 11
98.522800000000004
 21
95.997799999999998
 31
0.0
  0
TEXT
  5
24
  8
0
 62
     7
 10
92.799599999999998
 20
90.321020000000004
 30
0.0
 40
3.0923400000000001
  1
13
 50
90.0
 41
0.5
 72
     1
 11
92.799599999999998
 21
91.351799999999997
 31
0.0
  0
TEXT
  5
25
  8
0
 62
     7
 10
92.799599999999998
 20
80.771424999999994
 30
0.0
 40
3.0923400000000001
  1
35
 50
90.0
 41
0.5
 72
     1
 11
92.799599999999998
 21
82.059899999999985
 31
0.0
  0
TEXT
  5
26
  8
0
 62
     7
 10
86.335499999999996
 20
69.302700000000002
 30
0.0
 40
3.0923400000000001
  1
10～29
 50
90.0
 41
0.5
  0
TEXT
  5
27
  8
0
 62
     7
 10
173.35422
 20
118.3889999999999
 30
0.0
 40
3.0923400000000001
  1
17
 41
0.5
 72
     1
 11
174.38499999999991
 21
118.3889999999999
 31
0.0
  0
TEXT
  5
28
  8
0
 62
     7
 10
102.24321999999999
 20
118.3889999999999
 30
0.0
 40
3.0923400000000001
  1
17
 41
0.5
 72
     1
 11
103.2739999999999
 21
118.3889999999999
 31
0.0
  0
TEXT
  5
29
  8
0
 62
     7
 10
133.17617799999991
 20
128.0389999999999
 30
0.0
 40
3.0923400000000001
  1
%%c372±12
 41
0.5
 72
     1
 11
138.227
 21
128.0389999999999
 31
0.0
  0
TEXT
  5
2A
  8
0
 62
     7
 10
135.39235500000001
 20
119.107
 30
0.0
 40
3.0923400000000001
  1
%%c338
 41
0.5
 72
     1
 11
138.227
 21
119.107
 31
0.0
  0
TEXT
  5
2B
  8
0
 62
     7
 10
52.863978000000003
 20
119.107
 30
0.0
 40
3.0923400000000001
  1
%%c372±12
 41
0.5
 72
     1
 11
57.914799999999993
 21
119.107
 31
0.0
  0
TEXT
  5
2C
  8
0
 62
     7
 10
130.76776000000001
 20
171.04699999999991
 30
0.0
 40
3.0923400000000001
  1
カウンター開口寸法
 41
0.5
 72
     1
 11
139.01400000000001
 21
171.04699999999991
 31
0.0
  0
TEXT
  5
2D
  8
0
 62
     7
 10
65.019540000000006
 20
176.32299999999989
 30
0.0
 40
3.0923400000000001
  1
%%c45
 41
0.5
 72
     1
 11
67.081100000000006
 21
176.32299999999989
 31
0.0
  0
TEXT
  5
2E
  8
0
 62
     7
 10
146.80899999999991
 20
178.012
 30
0.0
 40
3.0923400000000001
  1
%%c65
 41
0.5
  0
LINE
  5
2F
  8
0
 62
     7
 10
86.759200000000007
 20
87.1845
 30
0.0
 11
87.351500000000001
 21
84.974199999999996
 31
0.0
  0
LINE
  5
30
  8
0
 62
     7
 10
87.351500000000001
 20
84.974199999999996
 30
0.0
 11
87.943899999999985
 21
87.1845
 31
0.0
  0
LINE
  5
31
  8
0
 62
     7
 10
87.943899999999985
 20
87.1845
 30
0.0
 11
86.759200000000007
 21
87.1845
 31
0.0
  0
LINE
  5
32
  8
0
 62
     7
 10
87.929199999999994
 20
80.263299999999987
 30
0.0
 11
87.337000000000003
 21
82.474400000000003
 31
0.0
  0
LINE
  5
33
  8
0
 62
     7
 10
87.337000000000003
 20
82.474400000000003
 30
0.0
 11
86.744600000000005
 21
80.263299999999987
 31
0.0
  0
LINE
  5
34
  8
0
 62
     7
 10
86.744600000000005
 20
80.263299999999987
 30
0.0
 11
87.929199999999994
 21
80.263299999999987
 31
0.0
  0
LINE
  5
35
  8
0
 62
     7
 10
93.289500000000004
 20
81.351299999999995
 30
0.0
 11
93.881699999999995
 21
79.140900000000002
 31
0.0
  0
LINE
  5
36
  8
0
 62
     7
 10
93.881699999999995
 20
79.140900000000002
 30
0.0
 11
94.4739
 21
81.351299999999995
 31
0.0
  0
LINE
  5
37
  8
0
 62
     7
 10
94.4739
 20
81.351299999999995
 30
0.0
 11
93.289500000000004
 21
81.351299999999995
 31
0.0
  0
LINE
  5
38
  8
0
 62
     7
 10
93.289500000000004
 20
89.351500000000001
 30
0.0
 11
93.881699999999995
 21
87.140500000000003
 31
0.0
  0
LINE
  5
39
  8
0
 62
     7
 10
93.881699999999995
 20
87.140500000000003
 30
0.0
 11
94.4739
 21
89.351500000000001
 31
0.0
  0
LINE
  5
3A
  8
0
 62
     7
 10
94.4739
 20
89.351500000000001
 30
0.0
 11
93.289500000000004
 21
89.351500000000001
 31
0.0
  0
LINE
  5
3B
  8
0
 62
     7
 10
94.459400000000002
 20
82.763099999999994
 30
0.0
 11
93.867199999999997
 21
84.974199999999996
 31
0.0
  0
LINE
  5
3C
  8
0
 62
     7
 10
93.867199999999997
 20
84.974199999999996
 30
0.0
 11
93.275000000000006
 21
82.763099999999994
 31
0.0
  0
LINE
  5
3D
  8
0
 62
     7
 10
93.275000000000006
 20
82.763099999999994
 30
0.0
 11
94.459400000000002
 21
82.763099999999994
 31
0.0
  0
LINE
  5
3E
  8
0
 62
     7
 10
98.780100000000004
 20
87.1845
 30
0.0
 11
99.372299999999996
 21
84.974199999999996
 31
0.0
  0
LINE
  5
3F
  8
0
 62
     7
 10
99.372299999999996
 20
84.974199999999996
 30
0.0
 11
99.964200000000005
 21
87.1845
 31
0.0
  0
LINE
  5
40
  8
0
 62
     7
 10
99.964200000000005
 20
87.1845
 30
0.0
 11
98.780100000000004
 21
87.1845
 31
0.0
  0
LINE
  5
41
  8
0
 62
     7
 10
99.949700000000021
 20
106.09699999999999
 30
0.0
 11
99.357900000000001
 21
108.3069999999999
 31
0.0
  0
LINE
  5
42
  8
0
 62
     7
 10
99.357900000000001
 20
108.3069999999999
 30
0.0
 11
98.765699999999995
 21
106.09699999999999
 31
0.0
  0
LINE
  5
43
  8
0
 62
     7
 10
98.765699999999995
 20
106.09699999999999
 30
0.0
 11
99.949700000000021
 21
106.09699999999999
 31
0.0
  0
LINE
  5
44
  8
0
 62
     7
 10
99.365099999999998
 20
84.974199999999996
 30
0.0
 11
99.365099999999998
 21
108.3069999999999
 31
0.0
  0
LINE
  5
45
  8
0
 62
     7
 10
93.874499999999983
 20
79.140900000000002
 30
0.0
 11
93.874499999999983
 21
93.448800000000006
 31
0.0
  0
LINE
  5
46
  8
0
 62
     7
 10
87.344200000000001
 20
69.421199999999999
 30
0.0
 11
87.344200000000001
 21
89.257099999999994
 31
0.0
  0
LINE
  5
47
  8
0
 62
     7
 10
67.448000000000008
 20
87.140500000000003
 30
0.0
 11
94.924499999999995
 21
87.140500000000003
 31
0.0
  0
LINE
  5
48
  8
0
 62
     7
 10
62.968000000000011
 20
79.140900000000002
 30
0.0
 11
94.756399999999999
 21
79.140900000000002
 31
0.0
  0
LINE
  5
49
  8
0
 62
     7
 10
83.548400000000015
 20
82.474400000000003
 30
0.0
 11
88.402600000000007
 21
82.474400000000003
 31
0.0
  0
LINE
  5
4A
  8
0
 62
     7
 10
83.548400000000015
 20
84.974199999999996
 30
0.0
 11
100.5989999999999
 21
84.974199999999996
 31
0.0
  0
LINE
  5
4B
  8
0
 62
     7
 10
90.216099999999997
 20
108.3069999999999
 30
0.0
 11
100.5989999999999
 21
108.3069999999999
 31
0.0
  0
LINE
  5
4C
  8
0
 62
     7
 10
167.80299999999991
 20
125.89099999999991
 30
0.0
 11
170.01400000000001
 21
126.4829999999999
 31
0.0
  0
LINE
  5
4D
  8
0
 62
     7
 10
170.01400000000001
 20
126.4829999999999
 30
0.0
 11
167.80299999999991
 21
127.075
 31
0.0
  0
LINE
  5
4E
  8
0
 62
     7
 10
167.80299999999991
 20
127.075
 30
0.0
 11
167.80299999999991
 21
125.89099999999991
 31
0.0
  0
LINE
  5
4F
  8
0
 62
     7
 10
110.223
 20
127.06100000000001
 30
0.0
 11
108.01300000000001
 21
126.468
 31
0.0
  0
LINE
  5
50
  8
0
 62
     7
 10
108.01300000000001
 20
126.468
 30
0.0
 11
110.223
 21
125.876
 31
0.0
  0
LINE
  5
51
  8
0
 62
     7
 10
110.223
 20
125.876
 30
0.0
 11
110.223
 21
127.06100000000001
 31
0.0
  0
LINE
  5
52
  8
0
 62
     7
 10
170.01400000000001
 20
126.476
 30
0.0
 11
108.01300000000001
 21
126.476
 31
0.0
  0
LINE
  5
53
  8
0
 62
     7
 10
170.01400000000001
 20
109.0869999999999
 30
0.0
 11
170.01400000000001
 21
127.46899999999989
 31
0.0
  0
LINE
  5
54
  8
0
 62
     7
 10
167.1809999999999
 20
109.187
 30
0.0
 11
167.1809999999999
 21
118.714
 31
0.0
  0
LINE
  5
55
  8
0
 62
     7
 10
110.84699999999999
 20
109.011
 30
0.0
 11
110.84699999999999
 21
118.538
 31
0.0
  0
LINE
  5
56
  8
0
 62
     7
 10
108.01300000000001
 20
109.0869999999999
 30
0.0
 11
108.01300000000001
 21
127.46899999999989
 31
0.0
  0
LINE
  5
57
  8
0
 62
     7
 10
105.803
 20
117.036
 30
0.0
 11
108.01300000000001
 21
117.6279999999999
 31
0.0
  0
LINE
  5
58
  8
0
 62
     7
 10
108.01300000000001
 20
117.6279999999999
 30
0.0
 11
105.803
 21
118.2199999999999
 31
0.0
  0
LINE
  5
59
  8
0
 62
     7
 10
105.803
 20
118.2199999999999
 30
0.0
 11
105.803
 21
117.036
 31
0.0
  0
LINE
  5
5A
  8
0
 62
     7
 10
164.96999999999991
 20
117.036
 30
0.0
 11
167.1809999999999
 21
117.6279999999999
 31
0.0
  0
LINE
  5
5B
  8
0
 62
     7
 10
167.1809999999999
 20
117.6279999999999
 30
0.0
 11
164.96999999999991
 21
118.2199999999999
 31
0.0
  0
LINE
  5
5C
  8
0
 62
     7
 10
164.96999999999991
 20
118.2199999999999
 30
0.0
 11
164.96999999999991
 21
117.036
 31
0.0
  0
LINE
  5
5D
  8
0
 62
     7
 10
172.22499999999999
 20
118.206
 30
0.0
 11
170.01400000000001
 21
117.6139999999999
 31
0.0
  0
LINE
  5
5E
  8
0
 62
     7
 10
170.01400000000001
 20
117.6139999999999
 30
0.0
 11
172.22499999999999
 21
117.0209999999999
 31
0.0
  0
LINE
  5
5F
  8
0
 62
     7
 10
172.22499999999999
 20
117.0209999999999
 30
0.0
 11
172.22499999999999
 21
118.206
 31
0.0
  0
LINE
  5
60
  8
0
 62
     7
 10
113.057
 20
118.206
 30
0.0
 11
110.84699999999999
 21
117.6139999999999
 31
0.0
  0
LINE
  5
61
  8
0
 62
     7
 10
110.84699999999999
 20
117.6139999999999
 30
0.0
 11
113.057
 21
117.0209999999999
 31
0.0
  0
LINE
  5
62
  8
0
 62
     7
 10
113.057
 20
117.0209999999999
 30
0.0
 11
113.057
 21
118.206
 31
0.0
  0
LINE
  5
63
  8
0
 62
     7
 10
176.4799999999999
 20
117.621
 30
0.0
 11
101.47799999999999
 21
117.621
 31
0.0
  0
LINE
  5
64
  8
0
 62
     7
 10
87.115099999999998
 20
117.036
 30
0.0
 11
89.325900000000004
 21
117.6279999999999
 31
0.0
  0
LINE
  5
65
  8
0
 62
     7
 10
89.325900000000004
 20
117.6279999999999
 30
0.0
 11
87.115099999999998
 21
118.2199999999999
 31
0.0
  0
LINE
  5
66
  8
0
 62
     7
 10
87.115099999999998
 20
118.2199999999999
 30
0.0
 11
87.115099999999998
 21
117.036
 31
0.0
  0
LINE
  5
67
  8
0
 62
     7
 10
29.535499999999988
 20
118.206
 30
0.0
 11
27.325099999999988
 21
117.6139999999999
 31
0.0
  0
LINE
  5
68
  8
0
 62
     7
 10
27.325099999999988
 20
117.6139999999999
 30
0.0
 11
29.535499999999988
 21
117.0209999999999
 31
0.0
  0
LINE
  5
69
  8
0
 62
     7
 10
29.535499999999988
 20
117.0209999999999
 30
0.0
 11
29.535499999999988
 21
118.206
 31
0.0
  0
LINE
  5
6A
  8
0
 62
     7
 10
89.325900000000004
 20
117.621
 30
0.0
 11
27.325099999999988
 21
117.621
 31
0.0
  0
ARC
  5
6B
  8
0
 62
     7
 10
142.762959
 20
87.798629000000005
 30
0.0
 40
0.784959
 50
270.07139999999998
 51
283.06570799999997
  0
ARC
  5
6C
  8
0
 62
     7
 10
142.65733299999991
 20
88.273334999999989
 30
0.0
 40
1.2712609999999991
 50
282.86629399999998
 51
295.1567849999999
  0
ARC
  5
6D
  8
0
 62
     7
 10
142.1532179999999
 20
89.328990000000005
 30
0.0
 40
2.4410939999999992
 50
295.33383900000001
 51
314.73951
  0
ARC
  5
6E
  8
0
 62
     7
 10
141.793846
 20
89.820466000000025
 30
0.0
 40
3.044503999999999
 50
313.03279700000002
 51
321.97966899999989
  0
ARC
  5
6F
  8
0
 62
     7
 10
315.18029200000001
 20
-917.97946999999976
 30
0.0
 40
1035.7899999999991
 50
103.785724
 51
103.977631
  0
ARC
  5
70
  8
0
 62
     7
 10
63.187533999999999
 20
110.8540269999999
 30
0.0
 40
23.458643999999989
 50
282.73863899999998
 51
307.29049999999989
  0
ARC
  5
71
  8
0
 62
     7
 10
59.620990999999997
 20
116.10911299999989
 30
0.0
 40
29.802278999999999
 50
306.62456200000003
 51
319.92198100000002
  0
ARC
  5
72
  8
0
 62
     7
 10
52.91107499999999
 20
122.1269469999999
 30
0.0
 40
38.812002
 50
319.50182499999988
 51
330.69585999999993
  0
ARC
  5
73
  8
0
 62
     7
 10
43.44604799999999
 20
127.85342799999999
 30
0.0
 40
49.869934000000001
 50
330.28102000000001
 51
336.92454399999991
  0
ARC
  5
74
  8
0
 62
     7
 10
142.76094599999999
 20
86.533101999999985
 30
0.0
 40
1.2351030000000001
 50
270.13876899999991
 51
307.14149700000002
  0
ARC
  5
75
  8
0
 62
     7
 10
142.23706899999991
 20
87.232377999999997
 30
0.0
 40
2.1088429999999998
 50
307.01635399999992
 51
315.67833899999999
  0
ARC
  5
76
  8
0
 62
     7
 10
142.07852099999999
 20
101.322097
 30
0.0
 40
13.009349
 50
286.89637999999991
 51
289.99074899999999
  0
ARC
  5
77
  8
0
 62
     7
 10
147.2596519999999
 20
83.978910999999997
 30
0.0
 40
5.0916990000000002
 50
105.96031000000001
 51
115.707367
  0
ARC
  5
78
  8
0
 62
     7
 10
146.42892499999999
 20
85.758467999999993
 30
0.0
 40
3.1280189999999992
 50
116.1364439999999
 51
135.64603099999991
  0
ARC
  5
79
  8
0
 62
     7
 10
147.1188129999999
 20
83.198227000000017
 30
0.0
 40
4.1963879999999989
 50
110.0434539999999
 51
130.130235
  0
ARC
  5
7A
  8
0
 62
     7
 10
148.52530799999991
 20
81.496217999999999
 30
0.0
 40
6.404272999999999
 50
129.93688499999999
 51
138.2709219999999
  0
ARC
  5
7B
  8
0
 62
     7
 10
395.86855600000001
 20
-917.97946999999976
 30
0.0
 40
1035.7899999999991
 50
103.785724
 51
103.977631
  0
ARC
  5
7C
  8
0
 62
     7
 10
140.18396000000001
 20
117.089135
 30
0.0
 40
28.701989000000001
 50
282.76554199999993
 51
313.65867200000002
  0
ARC
  5
7D
  8
0
 62
     7
 10
140.749495
 20
115.920233
 30
0.0
 40
27.468786000000001
 50
314.48849299999989
 51
338.88180599999993
  0
ARC
  5
7E
  8
0
 62
     7
 10
136.714482
 20
117.793431
 30
0.0
 40
31.909056
 50
338.354602
 51
342.70521600000001
  0
ARC
  5
7F
  8
0
 62
     7
 10
143.876441
 20
110.8536629999999
 30
0.0
 40
23.458147
 50
282.73730199999989
 51
307.29037299999999
  0
ARC
  5
80
  8
0
 62
     7
 10
140.31043799999989
 20
116.107709
 30
0.0
 40
29.800626999999999
 50
306.62481099999991
 51
319.92283399999991
  0
ARC
  5
81
  8
0
 62
     7
 10
133.59733799999989
 20
122.127634
 30
0.0
 40
38.81412499999999
 50
319.50316700000002
 51
330.6964549999999
  0
ARC
  5
82
  8
0
 62
     7
 10
124.130544
 20
127.8548929999999
 30
0.0
 40
49.873975000000002
 50
330.28173199999992
 51
336.92469199999999
  0
LINE
  5
83
  8
0
  6
AIGENLINE001
 62
     7
 10
163.43499999999989
 20
84.974199999999996
 30
0.0
 11
144.93100000000001
 21
84.974199999999996
 31
0.0
  0
ARC
  5
84
  8
0
 62
     7
 10
145.190506
 20
85.214828999999995
 30
0.0
 40
0.259763
 50
92.242473999999987
 51
177.91555399999999
  0
ARC
  5
85
  8
0
 62
     7
 10
145.17097599999991
 20
85.214911000000001
 30
0.0
 40
0.259651
 50
2.0673119999999989
 51
87.932678000000024
  0
ARC
  5
86
  8
0
 62
     7
 10
145.17091699999989
 20
85.233701999999994
 30
0.0
 40
0.259711
 50
272.07970299999988
 51
357.92030699999992
  0
ARC
  5
87
  8
0
 62
     7
 10
145.18984499999991
 20
85.233066000000008
 30
0.0
 40
0.259079
 50
181.94408899999991
 51
267.89788299999998
  0
LINE
  5
88
  8
0
 62
     7
 10
144.93100000000001
 20
84.974199999999996
 30
0.0
 11
144.93100000000001
 21
85.474399999999989
 31
0.0
  0
LINE
  5
89
  8
0
 62
     7
 10
144.93100000000001
 20
85.474399999999989
 30
0.0
 11
145.43000000000001
 21
85.474399999999989
 31
0.0
  0
LINE
  5
8A
  8
0
 62
     7
 10
145.43000000000001
 20
84.974199999999996
 30
0.0
 11
145.43000000000001
 21
85.474399999999989
 31
0.0
  0
LINE
  5
8B
  8
0
 62
     7
 10
142.76400000000001
 20
86.155799999999985
 30
0.0
 11
139.01400000000001
 21
86.155799999999985
 31
0.0
  0
LINE
  5
8C
  8
0
 62
     7
 10
142.76400000000001
 20
85.297999999999988
 30
0.0
 11
142.76400000000001
 21
87.0137
 31
0.0
  0
LINE
  5
8D
  8
0
 62
     7
 10
142.76400000000001
 20
85.297999999999988
 30
0.0
 11
139.01400000000001
 21
85.297999999999988
 31
0.0
  0
LINE
  5
8E
  8
0
 62
     7
 10
142.76400000000001
 20
87.0137
 30
0.0
 11
139.01400000000001
 21
87.0137
 31
0.0
  0
LINE
  5
8F
  8
0
 62
     7
 10
142.18000000000001
 20
79.140900000000002
 30
0.0
 11
142.18000000000001
 21
80.474100000000007
 31
0.0
  0
LINE
  5
90
  8
0
 62
     7
 10
142.459
 20
79.140900000000002
 30
0.0
 11
142.459
 21
84.846699999999984
 31
0.0
  0
LINE
  5
91
  8
0
 62
     7
 10
139.01400000000001
 20
80.474100000000007
 30
0.0
 11
142.459
 21
80.474100000000007
 31
0.0
  0
LINE
  5
92
  8
0
 62
     7
 10
143.13900000000001
 20
84.680599999999984
 30
0.0
 11
142.97200000000001
 21
84.846699999999984
 31
0.0
  0
LINE
  5
93
  8
0
 62
     7
 10
142.97200000000001
 20
84.846699999999984
 30
0.0
 11
139.01400000000001
 21
84.846699999999984
 31
0.0
  0
LINE
  5
94
  8
0
 62
     7
 10
142.97200000000001
 20
84.846699999999984
 30
0.0
 11
142.97200000000001
 21
79.140900000000002
 31
0.0
  0
LINE
  5
95
  8
0
 62
     7
 10
143.13900000000001
 20
84.680599999999984
 30
0.0
 11
143.13900000000001
 21
79.307599999999994
 31
0.0
  0
LINE
  5
96
  8
0
 62
     7
 10
170.01400000000001
 20
108.3069999999999
 30
0.0
 11
139.01400000000001
 21
108.3069999999999
 31
0.0
  0
LINE
  5
97
  8
0
  6
AIGENLINE001
 62
     7
 10
163.43499999999989
 20
82.474400000000003
 30
0.0
 11
145.68100000000001
 21
82.474400000000003
 31
0.0
  0
LINE
  5
98
  8
0
 62
     7
 10
142.97200000000001
 20
79.140900000000002
 30
0.0
 11
143.13900000000001
 21
79.307599999999994
 31
0.0
  0
LINE
  5
99
  8
0
 62
     7
 10
142.459
 20
79.307599999999994
 30
0.0
 11
143.13900000000001
 21
79.307599999999994
 31
0.0
  0
LINE
  5
9A
  8
0
 62
     7
 10
139.01400000000001
 20
79.140900000000002
 30
0.0
 11
142.97200000000001
 21
79.140900000000002
 31
0.0
  0
LINE
  5
9B
  8
0
 62
     7
 10
144.26400000000001
 20
81.473899999999986
 30
0.0
 11
144.26400000000001
 21
79.9739
 31
0.0
  0
LINE
  5
9C
  8
0
 62
     7
 10
143.13900000000001
 20
79.9739
 30
0.0
 11
144.26400000000001
 21
79.9739
 31
0.0
  0
LINE
  5
9D
  8
0
 62
     7
 10
145.68100000000001
 20
82.474400000000003
 30
0.0
 11
145.68100000000001
 21
81.473899999999986
 31
0.0
  0
LINE
  5
9E
  8
0
 62
     7
 10
144.26400000000001
 20
81.473899999999986
 30
0.0
 11
145.68100000000001
 21
81.473899999999986
 31
0.0
  0
LINE
  5
9F
  8
0
 62
     7
 10
144.26400000000001
 20
83.474199999999996
 30
0.0
 11
144.26400000000001
 21
84.974199999999996
 31
0.0
  0
LINE
  5
A0
  8
0
  6
AIGENLINE001
 62
     7
 10
144.43100000000001
 20
82.474400000000003
 30
0.0
 11
144.43100000000001
 21
84.974199999999996
 31
0.0
  0
LINE
  5
A1
  8
0
 62
     7
 10
143.13900000000001
 20
82.474400000000003
 30
0.0
 11
145.68100000000001
 21
82.474400000000003
 31
0.0
  0
LINE
  5
A2
  8
0
 62
     7
 10
143.13900000000001
 20
83.474199999999996
 30
0.0
 11
144.26400000000001
 21
83.474199999999996
 31
0.0
  0
LINE
  5
A3
  8
0
 62
     7
 10
145.68100000000001
 20
84.974199999999996
 30
0.0
 11
145.68100000000001
 21
87.140500000000003
 31
0.0
  0
LINE
  5
A4
  8
0
 62
     7
 10
145.43000000000001
 20
84.974199999999996
 30
0.0
 11
145.68100000000001
 21
84.974199999999996
 31
0.0
  0
LINE
  5
A5
  8
0
 62
     7
 10
144.26400000000001
 20
84.974199999999996
 30
0.0
 11
144.93100000000001
 21
84.974199999999996
 31
0.0
  0
LINE
  5
A6
  8
0
 62
     7
 10
89.325900000000004
 20
108.3069999999999
 30
0.0
 11
58.325299999999999
 21
108.3069999999999
 31
0.0
  0
LINE
  5
A7
  8
0
 62
     7
 10
89.325900000000004
 20
109.0869999999999
 30
0.0
 11
89.325900000000004
 21
118.6139999999999
 31
0.0
  0
LINE
  5
A8
  8
0
  6
AIGENLINE001
 62
     7
 10
82.745699999999999
 20
82.474400000000003
 30
0.0
 11
64.9923
 21
82.474400000000003
 31
0.0
  0
LINE
  5
A9
  8
0
  6
AIGENLINE001
 62
     7
 10
82.745699999999999
 20
84.974199999999996
 30
0.0
 11
64.9923
 21
84.974199999999996
 31
0.0
  0
LINE
  5
AA
  8
0
 62
     7
 10
62.283799999999999
 20
83.474199999999996
 30
0.0
 11
62.283799999999999
 21
82.474400000000003
 31
0.0
  0
LINE
  5
AB
  8
0
 62
     7
 10
62.450499999999991
 20
83.474199999999996
 30
0.0
 11
62.450499999999991
 21
82.474400000000003
 31
0.0
  0
LINE
  5
AC
  8
0
 62
     7
 10
62.283799999999999
 20
79.140900000000002
 30
0.0
 11
62.450499999999991
 21
79.307599999999994
 31
0.0
  0
LINE
  5
AD
  8
0
 62
     7
 10
58.325299999999999
 20
79.307599999999994
 30
0.0
 11
62.450499999999991
 21
79.307599999999994
 31
0.0
  0
LINE
  5
AE
  8
0
 62
     7
 10
62.283799999999999
 20
79.9739
 30
0.0
 11
62.283799999999999
 21
79.140900000000002
 31
0.0
  0
LINE
  5
AF
  8
0
 62
     7
 10
62.450499999999991
 20
79.9739
 30
0.0
 11
62.450499999999991
 21
79.307599999999994
 31
0.0
  0
LINE
  5
B0
  8
0
 62
     7
 10
58.325299999999999
 20
79.140900000000002
 30
0.0
 11
62.283799999999999
 21
79.140900000000002
 31
0.0
  0
LINE
  5
B1
  8
0
 62
     7
 10
63.575699999999991
 20
81.473899999999986
 30
0.0
 11
63.575699999999991
 21
79.9739
 31
0.0
  0
LINE
  5
B2
  8
0
 62
     7
 10
58.325299999999999
 20
79.9739
 30
0.0
 11
63.575699999999991
 21
79.9739
 31
0.0
  0
LINE
  5
B3
  8
0
 62
     7
 10
64.9923
 20
82.474400000000003
 30
0.0
 11
64.9923
 21
81.473899999999986
 31
0.0
  0
LINE
  5
B4
  8
0
 62
     7
 10
58.325299999999999
 20
81.473899999999986
 30
0.0
 11
64.9923
 21
81.473899999999986
 31
0.0
  0
LINE
  5
B5
  8
0
 62
     7
 10
63.575699999999991
 20
83.474199999999996
 30
0.0
 11
63.575699999999991
 21
84.974199999999996
 31
0.0
  0
LINE
  5
B6
  8
0
  6
AIGENLINE001
 62
     7
 10
63.742400000000004
 20
82.474400000000003
 30
0.0
 11
63.742400000000004
 21
84.974199999999996
 31
0.0
  0
LINE
  5
B7
  8
0
 62
     7
 10
58.325299999999999
 20
82.474400000000003
 30
0.0
 11
64.9923
 21
82.474400000000003
 31
0.0
  0
LINE
  5
B8
  8
0
 62
     7
 10
58.325299999999999
 20
83.474199999999996
 30
0.0
 11
63.575699999999991
 21
83.474199999999996
 31
0.0
  0
LINE
  5
B9
  8
0
 62
     7
 10
64.9923
 20
84.974199999999996
 30
0.0
 11
64.9923
 21
87.140500000000003
 31
0.0
  0
LINE
  5
BA
  8
0
 62
     7
 10
58.325299999999999
 20
87.140500000000003
 30
0.0
 11
64.9923
 21
87.140500000000003
 31
0.0
  0
LINE
  5
BB
  8
0
 62
     7
 10
58.325299999999999
 20
84.974199999999996
 30
0.0
 11
64.9923
 21
84.974199999999996
 31
0.0
  0
ARC
  5
BC
  8
0
 62
     7
 10
142.762959
 20
86.940794999999994
 30
0.0
 40
0.784959
 50
270.07139999999998
 51
283.06570799999997
  0
ARC
  5
BD
  8
0
 62
     7
 10
142.65733299999991
 20
87.415499999999994
 30
0.0
 40
1.2712609999999991
 50
282.86629399999998
 51
295.1567849999999
  0
ARC
  5
BE
  8
0
 62
     7
 10
142.1532179999999
 20
88.471155999999993
 30
0.0
 40
2.4410939999999992
 50
295.33383900000001
 51
314.73951
  0
ARC
  5
BF
  8
0
 62
     7
 10
141.793846
 20
88.962631999999985
 30
0.0
 40
3.044503999999999
 50
313.03279700000002
 51
321.97966899999989
  0
ARC
  5
C0
  8
0
 62
     7
 10
142.10021299999991
 20
100.3904169999999
 30
0.0
 40
12.93230099999999
 50
286.89828099999988
 51
290.00941499999999
  0
ARC
  5
C1
  8
0
 62
     7
 10
147.260896
 20
83.118822999999978
 30
0.0
 40
5.0942869999999996
 50
105.969933
 51
115.709412
  0
ARC
  5
C2
  8
0
 62
     7
 10
146.4294669999999
 20
84.899979999999985
 30
0.0
 40
3.1288640000000001
 50
116.140792
 51
135.64441199999999
  0
ARC
  5
C3
  8
0
 62
     7
 10
141.6195909999999
 20
114.12827799999999
 30
0.0
 40
26.350209
 50
280.72959800000001
 51
303.946145
  0
ARC
  5
C4
  8
0
 62
     7
 10
139.47437799999989
 20
117.6706149999999
 30
0.0
 40
30.487362000000001
 50
303.57309700000002
 51
342.114082
  0
ARC
  5
C5
  8
0
 62
     7
 10
135.26420599999989
 20
86.940794999999994
 30
0.0
 40
0.784959
 50
256.93431199999998
 51
269.92862000000002
  0
ARC
  5
C6
  8
0
 62
     7
 10
135.369831
 20
87.415499999999994
 30
0.0
 40
1.2712609999999991
 50
244.84323499999999
 51
257.13372599999991
  0
ARC
  5
C7
  8
0
 62
     7
 10
135.8739469999999
 20
88.471155999999993
 30
0.0
 40
2.4410939999999992
 50
225.26051000000001
 51
244.66618099999999
  0
ARC
  5
C8
  8
0
 62
     7
 10
136.23331899999991
 20
88.962631999999985
 30
0.0
 40
3.044503999999999
 50
218.02035099999989
 51
226.9672229999999
  0
ARC
  5
C9
  8
0
 62
     7
 10
135.926951
 20
100.3904169999999
 30
0.0
 40
12.93230099999999
 50
249.9906049999999
 51
253.1017379999999
  0
ARC
  5
CA
  8
0
 62
     7
 10
130.76626899999991
 20
83.118822999999978
 30
0.0
 40
5.0942869999999996
 50
64.290568000000007
 51
74.030047999999994
  0
ARC
  5
CB
  8
0
 62
     7
 10
131.59769800000001
 20
84.899979999999985
 30
0.0
 40
3.1288640000000001
 50
44.355567999999991
 51
63.859188000000003
  0
ARC
  5
CC
  8
0
 62
     7
 10
135.26420599999989
 20
87.798629000000005
 30
0.0
 40
0.784959
 50
256.93431199999998
 51
269.92862000000002
  0
ARC
  5
CD
  8
0
 62
     7
 10
135.369831
 20
88.273334999999989
 30
0.0
 40
1.2712609999999991
 50
244.84323499999999
 51
257.13372599999991
  0
ARC
  5
CE
  8
0
 62
     7
 10
135.8739469999999
 20
89.328990000000005
 30
0.0
 40
2.4410939999999992
 50
225.26051000000001
 51
244.66618099999999
  0
ARC
  5
CF
  8
0
 62
     7
 10
136.23331899999991
 20
89.820466000000025
 30
0.0
 40
3.044503999999999
 50
218.02035099999989
 51
226.9672229999999
  0
ARC
  5
D0
  8
0
 62
     7
 10
-198.52931100000001
 20
-917.97946999999976
 30
0.0
 40
1035.7899999999991
 50
76.022350000000003
 51
76.214256000000006
  0
ARC
  5
D1
  8
0
 62
     7
 10
53.463126000000003
 20
110.85384499999989
 30
0.0
 40
23.458394999999989
 50
232.70958300000001
 51
257.26204999999987
  0
ARC
  5
D2
  8
0
 62
     7
 10
57.028917000000007
 20
116.107899
 30
0.0
 40
29.800754000000001
 50
220.0774559999999
 51
233.3754899999999
  0
ARC
  5
D3
  8
0
 62
     7
 10
63.740803
 20
122.12720299999999
 30
0.0
 40
38.812927000000002
 50
209.30382700000001
 51
220.49752599999991
  0
ARC
  5
D4
  8
0
 62
     7
 10
73.207193000000004
 20
127.8543699999999
 30
0.0
 40
49.872382000000002
 50
203.07545400000001
 51
209.71863999999999
  0
ARC
  5
D5
  8
0
 62
     7
 10
135.26621499999999
 20
86.531616999999997
 30
0.0
 40
1.2336169999999991
 50
232.835353
 51
269.861267
  0
ARC
  5
D6
  8
0
 62
     7
 10
135.79581499999989
 20
87.236920999999995
 30
0.0
 40
2.1156160000000002
 50
224.31450799999999
 51
232.94475999999989
  0
ARC
  5
D7
  8
0
 62
     7
 10
135.926951
 20
101.2482509999999
 30
0.0
 40
12.93230099999999
 50
249.9906049999999
 51
253.1017379999999
  0
ARC
  5
D8
  8
0
 62
     7
 10
130.76626899999991
 20
83.976656999999989
 30
0.0
 40
5.0942869999999996
 50
64.290568000000007
 51
74.030047999999994
  0
ARC
  5
D9
  8
0
 62
     7
 10
131.59769800000001
 20
85.757813999999996
 30
0.0
 40
3.1288640000000001
 50
44.355567999999991
 51
63.859188000000003
  0
ARC
  5
DA
  8
0
 62
     7
 10
130.9078749999999
 20
83.196928999999983
 30
0.0
 40
4.1977699999999993
 50
49.874846999999988
 51
69.956493999999992
  0
ARC
  5
DB
  8
0
 62
     7
 10
129.48300499999991
 20
81.472487000000001
 30
0.0
 40
6.4346529999999991
 50
41.770947
 51
50.069156000000007
  0
ARC
  5
DC
  8
0
 62
     7
 10
-129.29077599999999
 20
-964.093974
 30
0.0
 40
1083.303999999999
 50
76.023844999999994
 51
76.207299000000006
  0
ARC
  5
DD
  8
0
 62
     7
 10
136.40757400000001
 20
114.12827799999999
 30
0.0
 40
26.350209
 50
236.05387499999989
 51
259.27042099999989
  0
ARC
  5
DE
  8
0
 62
     7
 10
138.552787
 20
117.6706149999999
 30
0.0
 40
30.487362000000001
 50
197.88593700000001
 51
236.42692199999999
  0
ARC
  5
DF
  8
0
 62
     7
 10
137.84389299999989
 20
117.089135
 30
0.0
 40
28.701989000000001
 50
226.34134700000001
 51
257.23447799999991
  0
ARC
  5
E0
  8
0
 62
     7
 10
137.27835799999991
 20
115.920233
 30
0.0
 40
27.468786000000001
 50
201.11821399999991
 51
225.511527
  0
ARC
  5
E1
  8
0
 62
     7
 10
141.3133719999999
 20
117.793431
 30
0.0
 40
31.909056
 50
197.294804
 51
201.64541800000001
  0
ARC
  5
E2
  8
0
 62
     7
 10
134.151477
 20
110.853948
 30
0.0
 40
23.458438999999998
 50
232.70985799999991
 51
257.26271600000001
  0
ARC
  5
E3
  8
0
 62
     7
 10
137.7192189999999
 20
116.11013699999999
 30
0.0
 40
29.803677
 50
220.07835199999991
 51
233.375145
  0
ARC
  5
E4
  8
0
 62
     7
 10
144.42800700000001
 20
122.12738999999991
 30
0.0
 40
38.812165
 50
209.30477500000001
 51
220.49884999999989
  0
ARC
  5
E5
  8
0
 62
     7
 10
153.90560999999991
 20
127.8617879999999
 30
0.0
 40
49.884946999999997
 50
203.07856599999991
 51
209.72021199999989
  0
LINE
  5
E6
  8
0
 62
     7
 10
144.81999999999991
 20
181.89399999999989
 30
0.0
 11
142.83799999999991
 21
183.0379999999999
 31
0.0
  0
LINE
  5
E7
  8
0
 62
     7
 10
142.83799999999991
 20
183.0379999999999
 30
0.0
 11
143.983
 21
181.0559999999999
 31
0.0
  0
LINE
  5
E8
  8
0
 62
     7
 10
143.983
 20
181.0559999999999
 30
0.0
 11
144.81999999999991
 21
181.89399999999989
 31
0.0
  0
LINE
  5
E9
  8
0
 62
     7
 10
133.20099999999991
 20
191.8479999999999
 30
0.0
 11
135.18299999999991
 21
190.70299999999989
 31
0.0
  0
LINE
  5
EA
  8
0
 62
     7
 10
135.18299999999991
 20
190.70299999999989
 30
0.0
 11
134.0389999999999
 21
192.685
 31
0.0
  0
LINE
  5
EB
  8
0
 62
     7
 10
134.0389999999999
 20
192.685
 30
0.0
 11
133.20099999999991
 21
191.8479999999999
 31
0.0
  0
LINE
  5
EC
  8
0
 62
     7
 10
130.17400000000001
 20
195.71299999999999
 30
0.0
 11
146.4729999999999
 21
179.4129999999999
 31
0.0
  0
LINE
  5
ED
  8
0
  6
AIGENLINE002
 62
     7
 10
147.85499999999999
 20
186.87299999999999
 30
0.0
 11
129.404
 21
186.87299999999999
 31
0.0
  0
LINE
  5
EE
  8
0
  6
AIGENLINE002
 62
     7
 10
139.01400000000001
 20
178.03999999999999
 30
0.0
 11
139.01400000000001
 21
195.8309999999999
 31
0.0
  0
ARC
  5
EF
  8
0
 62
     7
 10
139.01358099999999
 20
186.87315000000001
 30
0.0
 40
5.4164139999999987
 50
0.00001
 51
89.999980000000008
  0
ARC
  5
F0
  8
0
 62
     7
 10
139.01323899999991
 20
186.872806
 30
0.0
 40
5.416758999999999
 50
89.996356000000006
 51
179.99632600000001
  0
ARC
  5
F1
  8
0
 62
     7
 10
139.01340899999991
 20
186.873323
 30
0.0
 40
5.4169289999999988
 50
180.00183200000001
 51
270.00184200000001
  0
ARC
  5
F2
  8
0
 62
     7
 10
139.01340899999991
 20
186.87298000000001
 30
0.0
 40
5.4165869999999989
 50
270.00184200000001
 51
0.001812
  0
LINE
  5
F3
  8
0
 62
     7
 10
62.9587
 20
183.077
 30
0.0
 11
60.976900000000001
 21
184.22200000000001
 31
0.0
  0
LINE
  5
F4
  8
0
 62
     7
 10
60.976900000000001
 20
184.22200000000001
 30
0.0
 11
62.121000000000002
 21
182.24000000000001
 31
0.0
  0
LINE
  5
F5
  8
0
 62
     7
 10
62.121000000000002
 20
182.24000000000001
 30
0.0
 11
62.9587
 21
183.077
 31
0.0
  0
LINE
  5
F6
  8
0
 62
     7
 10
53.691800000000001
 20
190.66900000000001
 30
0.0
 11
55.6736
 21
189.52500000000001
 31
0.0
  0
LINE
  5
F7
  8
0
 62
     7
 10
55.6736
 20
189.52500000000001
 30
0.0
 11
54.529499999999999
 21
191.50700000000001
 31
0.0
  0
LINE
  5
F8
  8
0
 62
     7
 10
54.529499999999999
 20
191.50700000000001
 30
0.0
 11
53.691800000000001
 21
190.66900000000001
 31
0.0
  0
LINE
  5
F9
  8
0
 62
     7
 10
51.979199999999992
 20
193.21899999999999
 30
0.0
 11
65.225899999999996
 21
179.9729999999999
 31
0.0
  0
ARC
  5
FA
  8
0
 62
     7
 10
58.325231999999993
 20
186.87323699999999
 30
0.0
 40
3.7500969999999998
 50
359.99869399999989
 51
89.998664000000005
  0
ARC
  5
FB
  8
0
 62
     7
 10
58.325405000000003
 20
186.87323699999999
 30
0.0
 40
3.7500969999999998
 50
90.001315999999989
 51
180.00132600000001
  0
ARC
  5
FC
  8
0
 62
     7
 10
58.325318000000003
 20
186.87315100000001
 30
0.0
 40
3.750008999999999
 50
179.99996999999991
 51
270.00002000000001
  0
ARC
  5
FD
  8
0
 62
     7
 10
58.325318000000003
 20
186.873152
 30
0.0
 40
3.7500110000000002
 50
270.00002000000001
 51
359.99998999999991
  0
LINE
  5
FE
  8
0
  6
AIGENLINE002
 62
     7
 10
93.287099999999995
 20
186.87299999999999
 30
0.0
 11
23.302299999999988
 21
186.87299999999999
 31
0.0
  0
LINE
  5
FF
  8
0
  6
AIGENLINE002
 62
     7
 10
58.325299999999999
 20
151.94
 30
0.0
 11
58.325299999999999
 21
221.80199999999999
 31
0.0
  0
ARC
  5
100
  8
0
 62
     7
 10
58.325144999999992
 20
186.873322
 30
0.0
 40
6.249960999999999
 50
359.99843099999993
 51
89.998401000000001
  0
ARC
  5
101
  8
0
 62
     7
 10
58.325319999999998
 20
186.87315000000001
 30
0.0
 40
6.2501329999999991
 50
90.0
 51
179.99996999999991
  0
ARC
  5
102
  8
0
 62
     7
 10
58.325231000000002
 20
186.87323599999999
 30
0.0
 40
6.2500450000000001
 50
180.000799
 51
270.000809
  0
ARC
  5
103
  8
0
 62
     7
 10
58.325231000000002
 20
186.87306599999991
 30
0.0
 40
6.2498740000000002
 50
270.000809
 51
0.00078
  0
ARC
  5
104
  8
0
 62
     7
 10
58.325313999999999
 20
186.87314599999999
 30
0.0
 40
28.000195000000001
 50
0.00001
 51
89.999980000000008
  0
ARC
  5
105
  8
0
 62
     7
 10
58.325322999999997
 20
186.87314599999999
 30
0.0
 40
28.000195000000001
 50
90.0
 51
179.99996999999991
  0
ARC
  5
106
  8
0
 62
     7
 10
58.325313999999999
 20
186.87314599999999
 30
0.0
 40
28.000185999999989
 50
179.99996999999991
 51
270.00002000000001
  0
ARC
  5
107
  8
0
 62
     7
 10
58.325313999999999
 20
186.87315599999999
 30
0.0
 40
28.000195000000001
 50
270.00002000000001
 51
359.99998999999991
  0
ARC
  5
108
  8
0
 62
     7
 10
58.325313000000001
 20
186.87314599999999
 30
0.0
 40
31.000204
 50
0.00001
 51
89.999980000000008
  0
ARC
  5
109
  8
0
 62
     7
 10
58.325324000000002
 20
186.87314599999999
 30
0.0
 40
31.000204
 50
90.0
 51
179.99996999999991
  0
ARC
  5
10A
  8
0
 62
     7
 10
58.325313000000001
 20
186.87314599999999
 30
0.0
 40
31.000192999999999
 50
179.99996999999991
 51
270.00002000000001
  0
ARC
  5
10B
  8
0
 62
     7
 10
58.325313000000001
 20
186.87315699999999
 30
0.0
 40
31.000204
 50
270.00002000000001
 51
359.99998999999991
  0
LINE
  5
10C
  8
0
  6
AIGENLINE001
 62
     7
 10
114.5929999999999
 20
84.974199999999996
 30
0.0
 11
133.09700000000001
 21
84.974199999999996
 31
0.0
  0
ARC
  5
10D
  8
0
 62
     7
 10
132.83732499999999
 20
85.214781000000016
 30
0.0
 40
0.259786
 50
2.0949939999999989
 51
87.904995999999997
  0
ARC
  5
10E
  8
0
 62
     7
 10
132.85639499999991
 20
85.214705000000009
 30
0.0
 40
0.259864
 50
92.111056000000005
 51
177.88891399999989
  0
ARC
  5
10F
  8
0
 62
     7
 10
132.856247
 20
85.233701999999994
 30
0.0
 40
0.259711
 50
182.0796959999999
 51
267.92033399999991
  0
ARC
  5
110
  8
0
 62
     7
 10
132.837401
 20
85.233698000000004
 30
0.0
 40
0.259707
 50
272.07888800000001
 51
357.92112200000003
  0
LINE
  5
111
  8
0
 62
     7
 10
133.09700000000001
 20
84.974199999999996
 30
0.0
 11
133.09700000000001
 21
85.474399999999989
 31
0.0
  0
LINE
  5
112
  8
0
 62
     7
 10
133.09700000000001
 20
85.474399999999989
 30
0.0
 11
132.59700000000001
 21
85.474399999999989
 31
0.0
  0
LINE
  5
113
  8
0
 62
     7
 10
132.59700000000001
 20
84.974199999999996
 30
0.0
 11
132.59700000000001
 21
85.474399999999989
 31
0.0
  0
LINE
  5
114
  8
0
 62
     7
 10
135.26299999999989
 20
86.155799999999985
 30
0.0
 11
139.01400000000001
 21
86.155799999999985
 31
0.0
  0
LINE
  5
115
  8
0
 62
     7
 10
135.26299999999989
 20
85.297999999999988
 30
0.0
 11
135.26299999999989
 21
87.0137
 31
0.0
  0
LINE
  5
116
  8
0
 62
     7
 10
135.26299999999989
 20
85.297999999999988
 30
0.0
 11
139.01400000000001
 21
85.297999999999988
 31
0.0
  0
LINE
  5
117
  8
0
 62
     7
 10
135.26299999999989
 20
87.0137
 30
0.0
 11
139.01400000000001
 21
87.0137
 31
0.0
  0
LINE
  5
118
  8
0
 62
     7
 10
135.84700000000001
 20
79.140900000000002
 30
0.0
 11
135.84700000000001
 21
80.474100000000007
 31
0.0
  0
LINE
  5
119
  8
0
 62
     7
 10
135.5679999999999
 20
79.140900000000002
 30
0.0
 11
135.5679999999999
 21
84.846699999999984
 31
0.0
  0
LINE
  5
11A
  8
0
 62
     7
 10
139.01400000000001
 20
80.474100000000007
 30
0.0
 11
135.5679999999999
 21
80.474100000000007
 31
0.0
  0
LINE
  5
11B
  8
0
 62
     7
 10
134.88800000000001
 20
84.680599999999984
 30
0.0
 11
135.05500000000001
 21
84.846699999999984
 31
0.0
  0
LINE
  5
11C
  8
0
 62
     7
 10
135.05500000000001
 20
84.846699999999984
 30
0.0
 11
139.01400000000001
 21
84.846699999999984
 31
0.0
  0
LINE
  5
11D
  8
0
 62
     7
 10
135.05500000000001
 20
84.846699999999984
 30
0.0
 11
135.05500000000001
 21
79.140900000000002
 31
0.0
  0
LINE
  5
11E
  8
0
 62
     7
 10
134.88800000000001
 20
84.680599999999984
 30
0.0
 11
134.88800000000001
 21
79.307599999999994
 31
0.0
  0
LINE
  5
11F
  8
0
 62
     7
 10
108.01300000000001
 20
108.3069999999999
 30
0.0
 11
139.01400000000001
 21
108.3069999999999
 31
0.0
  0
LINE
  5
120
  8
0
  6
AIGENLINE001
 62
     7
 10
114.5929999999999
 20
82.474400000000003
 30
0.0
 11
132.34700000000001
 21
82.474400000000003
 31
0.0
  0
LINE
  5
121
  8
0
 62
     7
 10
135.05500000000001
 20
79.140900000000002
 30
0.0
 11
134.88800000000001
 21
79.307599999999994
 31
0.0
  0
LINE
  5
122
  8
0
 62
     7
 10
135.5679999999999
 20
79.307599999999994
 30
0.0
 11
134.88800000000001
 21
79.307599999999994
 31
0.0
  0
LINE
  5
123
  8
0
 62
     7
 10
139.01400000000001
 20
79.140900000000002
 30
0.0
 11
135.05500000000001
 21
79.140900000000002
 31
0.0
  0
LINE
  5
124
  8
0
 62
     7
 10
133.76300000000001
 20
81.473899999999986
 30
0.0
 11
133.76300000000001
 21
79.9739
 31
0.0
  0
LINE
  5
125
  8
0
 62
     7
 10
134.88800000000001
 20
79.9739
 30
0.0
 11
133.76300000000001
 21
79.9739
 31
0.0
  0
LINE
  5
126
  8
0
 62
     7
 10
132.34700000000001
 20
82.474400000000003
 30
0.0
 11
132.34700000000001
 21
81.473899999999986
 31
0.0
  0
LINE
  5
127
  8
0
 62
     7
 10
133.76300000000001
 20
81.473899999999986
 30
0.0
 11
132.34700000000001
 21
81.473899999999986
 31
0.0
  0
LINE
  5
128
  8
0
 62
     7
 10
133.76300000000001
 20
83.474199999999996
 30
0.0
 11
133.76300000000001
 21
84.974199999999996
 31
0.0
  0
LINE
  5
129
  8
0
  6
AIGENLINE001
 62
     7
 10
133.59700000000001
 20
82.474400000000003
 30
0.0
 11
133.59700000000001
 21
84.974199999999996
 31
0.0
  0
LINE
  5
12A
  8
0
 62
     7
 10
134.88800000000001
 20
82.474400000000003
 30
0.0
 11
132.34700000000001
 21
82.474400000000003
 31
0.0
  0
LINE
  5
12B
  8
0
 62
     7
 10
134.88800000000001
 20
83.474199999999996
 30
0.0
 11
133.76300000000001
 21
83.474199999999996
 31
0.0
  0
LINE
  5
12C
  8
0
 62
     7
 10
132.34700000000001
 20
84.974199999999996
 30
0.0
 11
132.34700000000001
 21
87.140500000000003
 31
0.0
  0
LINE
  5
12D
  8
0
 62
     7
 10
132.59700000000001
 20
84.974199999999996
 30
0.0
 11
132.34700000000001
 21
84.974199999999996
 31
0.0
  0
LINE
  5
12E
  8
0
 62
     7
 10
133.76300000000001
 20
84.974199999999996
 30
0.0
 11
133.09700000000001
 21
84.974199999999996
 31
0.0
  0
LINE
  5
12F
  8
0
 62
     7
 10
27.325099999999988
 20
108.3069999999999
 30
0.0
 11
58.325299999999999
 21
108.3069999999999
 31
0.0
  0
LINE
  5
130
  8
0
 62
     7
 10
27.325099999999988
 20
109.0869999999999
 30
0.0
 11
27.325099999999988
 21
118.6139999999999
 31
0.0
  0
LINE
  5
131
  8
0
  6
AIGENLINE002
 62
     7
 10
58.325299999999999
 20
77.141300000000001
 30
0.0
 11
58.325299999999999
 21
110.762
 31
0.0
  0
LINE
  5
132
  8
0
  6
AIGENLINE001
 62
     7
 10
33.904899999999991
 20
82.474400000000003
 30
0.0
 11
51.658700000000003
 21
82.474400000000003
 31
0.0
  0
LINE
  5
133
  8
0
  6
AIGENLINE001
 62
     7
 10
33.904899999999991
 20
84.974199999999996
 30
0.0
 11
51.658700000000003
 21
84.974199999999996
 31
0.0
  0
LINE
  5
134
  8
0
 62
     7
 10
54.366900000000001
 20
83.474199999999996
 30
0.0
 11
54.366900000000001
 21
82.474400000000003
 31
0.0
  0
LINE
  5
135
  8
0
 62
     7
 10
54.200099999999999
 20
83.474199999999996
 30
0.0
 11
54.200099999999999
 21
82.474400000000003
 31
0.0
  0
LINE
  5
136
  8
0
 62
     7
 10
54.366900000000001
 20
79.140900000000002
 30
0.0
 11
54.200099999999999
 21
79.307599999999994
 31
0.0
  0
LINE
  5
137
  8
0
 62
     7
 10
58.325299999999999
 20
79.307599999999994
 30
0.0
 11
54.200099999999999
 21
79.307599999999994
 31
0.0
  0
LINE
  5
138
  8
0
 62
     7
 10
54.366900000000001
 20
79.9739
 30
0.0
 11
54.366900000000001
 21
79.140900000000002
 31
0.0
  0
LINE
  5
139
  8
0
 62
     7
 10
54.200099999999999
 20
79.9739
 30
0.0
 11
54.200099999999999
 21
79.307599999999994
 31
0.0
  0
LINE
  5
13A
  8
0
 62
     7
 10
58.325299999999999
 20
79.140900000000002
 30
0.0
 11
54.366900000000001
 21
79.140900000000002
 31
0.0
  0
LINE
  5
13B
  8
0
 62
     7
 10
53.075299999999991
 20
81.473899999999986
 30
0.0
 11
53.075299999999991
 21
79.9739
 31
0.0
  0
LINE
  5
13C
  8
0
 62
     7
 10
58.325299999999999
 20
79.9739
 30
0.0
 11
53.075299999999991
 21
79.9739
 31
0.0
  0
LINE
  5
13D
  8
0
 62
     7
 10
51.658700000000003
 20
82.474400000000003
 30
0.0
 11
51.658700000000003
 21
81.473899999999986
 31
0.0
  0
LINE
  5
13E
  8
0
 62
     7
 10
58.325299999999999
 20
81.473899999999986
 30
0.0
 11
51.658700000000003
 21
81.473899999999986
 31
0.0
  0
LINE
  5
13F
  8
0
 62
     7
 10
53.075299999999991
 20
83.474199999999996
 30
0.0
 11
53.075299999999991
 21
84.974199999999996
 31
0.0
  0
LINE
  5
140
  8
0
  6
AIGENLINE001
 62
     7
 10
52.9086
 20
82.474400000000003
 30
0.0
 11
52.9086
 21
84.974199999999996
 31
0.0
  0
LINE
  5
141
  8
0
 62
     7
 10
58.325299999999999
 20
82.474400000000003
 30
0.0
 11
51.658700000000003
 21
82.474400000000003
 31
0.0
  0
LINE
  5
142
  8
0
 62
     7
 10
58.325299999999999
 20
83.474199999999996
 30
0.0
 11
53.075299999999991
 21
83.474199999999996
 31
0.0
  0
LINE
  5
143
  8
0
 62
     7
 10
51.658700000000003
 20
84.974199999999996
 30
0.0
 11
51.658700000000003
 21
87.140500000000003
 31
0.0
  0
LINE
  5
144
  8
0
 62
     7
 10
58.325299999999999
 20
87.140500000000003
 30
0.0
 11
51.658700000000003
 21
87.140500000000003
 31
0.0
  0
LINE
  5
145
  8
0
 62
     7
 10
58.325299999999999
 20
84.974199999999996
 30
0.0
 11
51.658700000000003
 21
84.974199999999996
 31
0.0
  0
LINE
  5
146
  8
0
  6
AIGENLINE002
 62
     7
 10
139.01400000000001
 20
77.141300000000001
 30
0.0
 11
139.01400000000001
 21
110.762
 31
0.0
  0
LINE
  5
147
  8
_________2
 62
     7
 10
139.03399999999991
 20
258.911
 30
0.0
 11
139.03399999999991
 21
216.91099999999989
 31
0.0
  0
LINE
  5
148
  8
_________2
 62
     7
 10
161.26300000000001
 20
258.911
 30
0.0
 11
161.26300000000001
 21
216.91099999999989
 31
0.0
  0
TEXT
  5
149
  8
_________2
 62
     7
 10
168.6787453333333
 20
219.06200000000001
 30
0.0
 40
3.3734599999999988
  1
ブラック
 41
0.5
 72
     1
 11
172.50200000000001
 21
219.06200000000001
 31
0.0
  0
TEXT
  5
14A
  8
_________2
 62
     7
 10
143.81620166666659
 20
219.06200000000001
 30
0.0
 40
3.3734599999999988
  1
VF200-KP
 41
0.5
 72
     1
 11
150.28200000000001
 21
219.06200000000001
 31
0.0
  0
LINE
  5
14B
  8
_________2
 62
     7
 10
139.03399999999991
 20
216.91099999999989
 30
0.0
 11
183.55099999999999
 21
216.91099999999989
 31
0.0
  0
TEXT
  5
14C
  8
_________2
 62
     7
 10
168.73496966666659
 20
226.06200000000001
 30
0.0
 40
3.3734599999999988
  1
ホワイト
 41
0.5
 72
     1
 11
172.50200000000001
 21
226.06200000000001
 31
0.0
  0
TEXT
  5
14D
  8
_________2
 62
     7
 10
143.53507999999999
 20
226.06200000000001
 30
0.0
 40
3.3734599999999988
  1
VF200-WP
 41
0.5
 72
     1
 11
150.28200000000001
 21
226.06200000000001
 31
0.0
  0
LINE
  5
14E
  8
_________2
 62
     7
 10
139.03399999999991
 20
223.91099999999989
 30
0.0
 11
183.55099999999999
 21
223.91099999999989
 31
0.0
  0
TEXT
  5
14F
  8
_________2
 62
     7
 10
168.73496966666659
 20
233.06099999999989
 30
0.0
 40
3.3734599999999988
  1
フロスト
 41
0.5
 72
     1
 11
172.50200000000001
 21
233.06099999999989
 31
0.0
  0
TEXT
  5
150
  8
_________2
 62
     7
 10
143.81620166666659
 20
233.06200000000001
 30
0.0
 40
3.3734599999999988
  1
VF200-CF
 41
0.5
 72
     1
 11
150.28200000000001
 21
233.06200000000001
 31
0.0
  0
TEXT
  5
151
  8
_________2
 62
     7
 10
169.63455899999991
 20
240.06099999999989
 30
0.0
 40
3.3734599999999988
  1
クリア
 41
0.5
 72
     1
 11
172.50200000000001
 21
240.06099999999989
 31
0.0
  0
TEXT
  5
152
  8
_________2
 62
     7
 10
165.6426313333333
 20
247.06099999999989
 30
0.0
 40
3.3734599999999988
  1
コバルトブルー
 41
0.5
 72
     1
 11
172.50200000000001
 21
247.06099999999989
 31
0.0
  0
TEXT
  5
153
  8
_________2
 62
     7
 10
171.71485933333329
 20
254.06200000000001
 30
0.0
 40
3.3734599999999988
  1
色
 41
0.5
 72
     1
 11
172.50200000000001
 21
254.06200000000001
 31
0.0
  0
TEXT
  5
154
  8
_________2
 62
     7
 10
143.81620166666659
 20
240.0619999999999
 30
0.0
 40
3.3734599999999988
  1
VF200-CP
 41
0.5
 72
     1
 11
150.28200000000001
 21
240.0619999999999
 31
0.0
  0
TEXT
  5
155
  8
_________2
 62
     7
 10
143.81620166666659
 20
247.06200000000001
 30
0.0
 40
3.3734599999999988
  1
VF200-TP
 41
0.5
 72
     1
 11
150.28200000000001
 21
247.06200000000001
 31
0.0
  0
TEXT
  5
156
  8
_________2
 62
     7
 10
146.8808213333333
 20
254.06200000000001
 30
0.0
 40
3.3734599999999988
  1
品番
 41
0.5
 72
     1
 11
148.68000000000001
 21
254.06200000000001
 31
0.0
  0
LINE
  5
157
  8
_________2
 62
     7
 10
205.30099999999999
 20
127.411
 30
0.0
 11
183.55000000000001
 21
127.411
 31
0.0
  0
LINE
  5
158
  8
_________2
 62
     7
 10
100.2999999999999
 20
-4.0910799999999998
 30
0.0
 11
100.2999999999999
 21
-21.071400000000001
 31
0.0
  0
LINE
  5
159
  8
_________2
 62
     7
 10
100.2999999999999
 20
275.93099999999993
 30
0.0
 11
100.2999999999999
 21
258.911
 31
0.0
  0
LINE
  5
15A
  8
_________2
 62
     7
 10
17.049499999999998
 20
127.411
 30
0.0
 11
-4.70052
 21
127.411
 31
0.0
  0
LINE
  5
15B
  8
_________2
 62
     7
 10
76.741
 20
29.8047
 30
0.0
 11
74.554699999999997
 21
29.8047
 31
0.0
  0
LINE
  5
15C
  8
_________2
 62
     7
 10
77.233699999999999
 20
29.8047
 30
0.0
 11
76.981499999999997
 21
29.8047
 31
0.0
  0
LINE
  5
15D
  8
_________2
 62
     7
 10
77.726299999999995
 20
29.8047
 30
0.0
 11
80.651200000000003
 21
29.8047
 31
0.0
  0
LINE
  5
15E
  8
_________2
 62
     7
 10
77.233699999999999
 20
29.8047
 30
0.0
 11
77.485500000000002
 21
29.8047
 31
0.0
  0
LINE
  5
15F
  8
_________2
 62
     7
 10
70.837100000000007
 20
29.8047
 30
0.0
 11
68.650499999999994
 21
29.8047
 31
0.0
  0
LINE
  5
160
  8
_________2
 62
     7
 10
71.329400000000007
 20
29.8047
 30
0.0
 11
71.077600000000004
 21
29.8047
 31
0.0
  0
LINE
  5
161
  8
_________2
 62
     7
 10
71.329400000000007
 20
30.2974
 30
0.0
 11
71.329400000000007
 21
32.484400000000001
 31
0.0
  0
LINE
  5
162
  8
_________2
 62
     7
 10
71.329400000000007
 20
29.8047
 30
0.0
 11
71.329400000000007
 21
30.056899999999992
 31
0.0
  0
LINE
  5
163
  8
_________2
 62
     7
 10
71.822100000000006
 20
29.8047
 30
0.0
 11
74.009
 21
29.8047
 31
0.0
  0
LINE
  5
164
  8
_________2
 62
     7
 10
71.329400000000007
 20
29.8047
 30
0.0
 11
71.581599999999995
 21
29.8047
 31
0.0
  0
LINE
  5
165
  8
_________2
 62
     7
 10
71.329400000000007
 20
29.312799999999999
 30
0.0
 11
71.329400000000007
 21
27.125800000000002
 31
0.0
  0
LINE
  5
166
  8
_________2
 62
     7
 10
71.329400000000007
 20
29.8047
 30
0.0
 11
71.329400000000007
 21
29.5532
 31
0.0
  0
LINE
  5
167
  8
_________2
 62
     7
 10
75.040499999999994
 20
28.5852
 30
0.0
 11
80.218500000000006
 21
27.720400000000001
 31
0.0
  0
LINE
  5
168
  8
_________2
 62
     7
 10
75.040499999999994
 20
31.0243
 30
0.0
 11
80.218500000000006
 21
31.889700000000001
 31
0.0
  0
LINE
  5
169
  8
_________2
 62
     7
 10
80.218500000000006
 20
27.720400000000001
 30
0.0
 11
80.218500000000006
 21
31.889700000000001
 31
0.0
  0
LINE
  5
16A
  8
_________2
 62
     7
 10
75.040499999999994
 20
28.5852
 30
0.0
 11
75.040499999999994
 21
31.0243
 31
0.0
  0
ARC
  5
16B
  8
_________2
 62
     7
 10
71.28285600000001
 20
29.757811
 30
0.0
 40
1.2673589999999999
 50
2.122214
 51
87.893958999999995
  0
ARC
  5
16C
  8
_________2
 62
     7
 10
71.375959999999992
 20
29.758213000000001
 30
0.0
 40
1.2669559999999991
 50
92.104701000000006
 51
177.8952689999999
  0
ARC
  5
16D
  8
_________2
 62
     7
 10
71.376357999999996
 20
29.851671
 30
0.0
 40
1.2673680000000001
 50
182.12203600000001
 51
267.877993
  0
ARC
  5
16E
  8
_________2
 62
     7
 10
71.282531999999989
 20
29.851998999999989
 30
0.0
 40
1.267695999999999
 50
272.12015300000002
 51
357.863674
  0
ARC
  5
16F
  8
_________2
 62
     7
 10
71.329430000000002
 20
29.804742999999998
 30
0.0
 40
2.0849849999999992
 50
0.00001
 51
89.999980000000008
  0
ARC
  5
170
  8
_________2
 62
     7
 10
71.329603000000006
 20
29.804915000000001
 30
0.0
 40
2.084813
 50
90.004733999999999
 51
180.00474399999999
  0
ARC
  5
171
  8
_________2
 62
     7
 10
71.409106000000008
 20
29.884775999999999
 30
0.0
 40
2.1657950000000001
 50
182.11776599999999
 51
267.89173399999999
  0
ARC
  5
172
  8
_________2
 62
     7
 10
71.249459000000002
 20
29.885429999999989
 30
0.0
 40
2.1664590000000001
 50
272.11546800000002
 51
357.86560400000002
  0
TEXT
  5
173
  8
_________2
 62
     7
 10
104.605
 20
1.6794899999999999
 30
0.0
 40
3.0923400000000001
  1
図番
 41
0.5
  0
LINE
  5
174
  8
_________2
 62
     7
 10
103.55
 20
5.9087199999999989
 30
0.0
 11
183.55099999999999
 21
5.9087199999999989
 31
0.0
  0
TEXT
  5
175
  8
_________2
 62
     7
 10
104.605
 20
11.679299999999991
 30
0.0
 40
3.0923400000000001
  1
品番
 41
0.5
  0
TEXT
  5
176
  8
_________2
 62
     7
 10
104.605
 20
31.818100000000001
 30
0.0
 40
3.0923400000000001
  1
名称
 41
0.5
  0
TEXT
  5
177
  8
_________2
 62
     7
 10
91.845058333333341
 20
26.821999999999989
 30
0.0
 40
3.6545800000000002
  1
mm
 41
0.5
 72
     1
 11
93.367800000000003
 21
26.821999999999989
 31
0.0
  0
TEXT
  5
178
  8
_________2
 62
     7
 10
85.643199999999993
 20
31.818100000000001
 30
0.0
 40
3.0923400000000001
  1
単位
 41
0.5
  0
TEXT
  5
179
  8
_________2
 62
     7
 10
85.643199999999993
 20
19.410799999999991
 30
0.0
 40
3.0923400000000001
  1
尺度
 41
0.5
  0
TEXT
  5
17A
  8
_________2
 62
     7
 10
90.548758666666686
 20
13.2179
 30
0.0
 40
3.6545800000000002
  1
1 ： 6
 41
0.5
 72
     1
 11
93.959699999999998
 21
13.2179
 31
0.0
  0
TEXT
  5
17B
  8
_________2
 62
     7
 10
136.66252499999999
 20
9.1078600000000005
 30
0.0
 40
3.9357000000000002
  1
図中の表参照
 41
0.5
 72
     1
 11
143.55000000000001
 21
9.1078600000000005
 31
0.0
  0
TEXT
  5
17C
  8
_________2
 62
     7
 10
138.95835
 20
-0.8926299999999999
 30
0.0
 40
3.9357000000000002
  1
VF200
 41
0.5
 72
     1
 11
143.55000000000001
 21
-0.8926299999999999
 31
0.0
  0
TEXT
  5
17D
  8
_________2
 62
     7
 10
109.179
 20
24.2257
 30
0.0
 40
3.9357000000000002
  1
ヴィトラフォーム・ガラス手洗器
 41
0.5
  0
TEXT
  5
17E
  8
_________2
 62
     7
 10
39.364390666666658
 20
13.603
 30
0.0
 40
3.6545800000000002
  1
高橋
 41
0.5
 72
     1
 11
41.313499999999998
 21
13.603
 31
0.0
  0
TEXT
  5
17F
  8
_________2
 62
     7
 10
20.790090666666661
 20
13.603
 30
0.0
 40
3.6545800000000002
  1
石原
 41
0.5
 72
     1
 11
22.73919999999999
 21
13.603
 31
0.0
  0
TEXT
  5
180
  8
_________2
 62
     7
 10
67.785399999999996
 20
13.2179
 30
0.0
 40
3.6545800000000002
  1
06.02.21
 41
0.5
  0
TEXT
  5
181
  8
_________2
 62
     7
 10
66.593100000000007
 20
19.410799999999991
 30
0.0
 40
3.0923400000000001
  1
日付
 41
0.5
  0
TEXT
  5
182
  8
_________2
 62
     7
 10
29.639399999999998
 20
19.410799999999991
 30
0.0
 40
3.0923400000000001
  1
検図
 41
0.5
  0
TEXT
  5
183
  8
_________2
 62
     7
 10
18.021100000000001
 20
5.21143
 30
0.0
 40
3.0923400000000001
  1
備考
 41
0.5
  0
TEXT
  5
184
  8
_________2
 62
     7
 10
18.021100000000001
 20
19.410799999999991
 30
0.0
 40
3.0923400000000001
  1
製図
 41
0.5
  0
TEXT
  5
185
  8
_________2
 62
     7
 10
23.788465333333338
 20
27.936800000000002
 30
0.0
 40
4.4979399999999989
  1
セラトレーディング株式会社
 41
0.5
 72
     1
 11
41.180500000000002
 21
27.936800000000002
 31
0.0
  0
LINE
  5
186
  8
_________2
 62
     7
 10
183.55099999999999
 20
-4.0910799999999998
 30
0.0
 11
17.049499999999998
 21
-4.0910799999999998
 31
0.0
  0
LINE
  5
187
  8
_________2
 62
     7
 10
17.049499999999998
 20
-4.0910799999999998
 30
0.0
 11
17.049499999999998
 21
258.911
 31
0.0
  0
LINE
  5
188
  8
_________2
 62
     7
 10
17.049499999999998
 20
258.911
 30
0.0
 11
183.55099999999999
 21
258.911
 31
0.0
  0
LINE
  5
189
  8
_________2
 62
     7
 10
183.55099999999999
 20
258.911
 30
0.0
 11
183.55099999999999
 21
-4.0910799999999998
 31
0.0
  0
LINE
  5
18A
  8
_________2
 62
     7
 10
65.549599999999998
 20
9.4089600000000004
 30
0.0
 11
65.549599999999998
 21
35.908799999999999
 31
0.0
  0
LINE
  5
18B
  8
_________2
 62
     7
 10
84.549700000000016
 20
9.4089600000000004
 30
0.0
 11
84.549700000000016
 21
35.908799999999999
 31
0.0
  0
LINE
  5
18C
  8
_________2
 62
     7
 10
103.55
 20
-4.0910799999999998
 30
0.0
 11
103.55
 21
35.908799999999999
 31
0.0
  0
LINE
  5
18D
  8
_________2
 62
     7
 10
28.549299999999992
 20
9.4089600000000004
 30
0.0
 11
28.549299999999992
 21
23.409199999999998
 31
0.0
  0
LINE
  5
18E
  8
_________2
 62
     7
 10
17.049499999999998
 20
9.4089600000000004
 30
0.0
 11
103.55
 21
9.4089600000000004
 31
0.0
  0
LINE
  5
18F
  8
_________2
 62
     7
 10
17.049499999999998
 20
23.409199999999998
 30
0.0
 11
103.55
 21
23.409199999999998
 31
0.0
  0
LINE
  5
190
  8
_________2
 62
     7
 10
103.55
 20
15.9085
 30
0.0
 11
183.55099999999999
 21
15.9085
 31
0.0
  0
LINE
  5
191
  8
_________2
 62
     7
 10
139.03399999999991
 20
230.91099999999989
 30
0.0
 11
183.55099999999999
 21
230.91099999999989
 31
0.0
  0
LINE
  5
192
  8
_________2
 62
     7
 10
139.03399999999991
 20
237.91099999999989
 30
0.0
 11
183.55099999999999
 21
237.91099999999989
 31
0.0
  0
LINE
  5
193
  8
_________2
 62
     7
 10
139.03399999999991
 20
244.91099999999989
 30
0.0
 11
183.55099999999999
 21
244.91099999999989
 31
0.0
  0
LINE
  5
194
  8
_________2
 62
     7
 10
139.03399999999991
 20
251.91099999999989
 30
0.0
 11
183.55099999999999
 21
251.91099999999989
 31
0.0
  0
LINE
  5
195
  8
_________2
 62
     7
 10
17.049499999999998
 20
35.908799999999999
 30
0.0
 11
183.55099999999999
 21
35.908799999999999
 31
0.0
  0
ENDSEC
  0
EOF
