  0
SECTION
  2
HEADER
  9
$ACADVER
  1
AC1009
  9
$INSBASE
 10
0.0
 20
0.0
 30
0.0
  9
$EXTMIN
 10
-0.146073
 20
-0.000344512
 30
0.0
  9
$EXTMAX
 10
209.85599999999991
 20
297.00200000000001
 30
0.0
  9
$LIMMIN
 10
0.0
 20
0.0
  9
$LIMMAX
 10
12.0
 20
9.0
  9
$ORTHOMODE
 70
     0
  9
$REGENMODE
 70
     1
  9
$FILLMODE
 70
     1
  9
$QTEXTMODE
 70
     0
  9
$MIRRTEXT
 70
     1
  9
$DRAGMODE
 70
     2
  9
$LTSCALE
 40
1.0
  9
$OSMODE
 70
    37
  9
$ATTMODE
 70
     1
  9
$TEXTSIZE
 40
0.0
  9
$TRACEWID
 40
0.05
  9
$TEXTSTYLE
  7
STANDARD
  9
$CLAYER
  8
0
  9
$CELTYPE
  6
CONTINUOUS
  9
$CECOLOR
 62
   256
  9
$DIMSCALE
 40
1.0
  9
$DIMASZ
 40
0.18
  9
$DIMEXO
 40
0.0625
  9
$DIMDLI
 40
0.38
  9
$DIMRND
 40
0.0
  9
$DIMDLE
 40
0.0
  9
$DIMEXE
 40
0.18
  9
$DIMTP
 40
0.0
  9
$DIMTM
 40
0.0
  9
$DIMTXT
 40
0.18
  9
$DIMCEN
 40
0.09
  9
$DIMTSZ
 40
0.0
  9
$DIMTOL
 70
     0
  9
$DIMLIM
 70
     0
  9
$DIMTIH
 70
     1
  9
$DIMTOH
 70
     1
  9
$DIMSE1
 70
     0
  9
$DIMSE2
 70
     0
  9
$DIMTAD
 70
     0
  9
$DIMZIN
 70
     0
  9
$DIMBLK
  1

  9
$DIMASO
 70
     1
  9
$DIMSHO
 70
     1
  9
$DIMPOST
  1

  9
$DIMAPOST
  1

  9
$DIMALT
 70
     0
  9
$DIMALTD
 70
     2
  9
$DIMALTF
 40
25.399999999999999
  9
$DIMLFAC
 40
1.0
  9
$DIMTOFL
 70
     0
  9
$DIMTVP
 40
0.0
  9
$DIMTIX
 70
     0
  9
$DIMSOXD
 70
     0
  9
$DIMSAH
 70
     0
  9
$DIMBLK1
  1

  9
$DIMBLK2
  1

  9
$DIMSTYLE
  2
STANDARD
  9
$DIMCLRD
 70
     0
  9
$DIMCLRE
 70
     0
  9
$DIMCLRT
 70
     0
  9
$DIMTFAC
 40
1.0
  9
$DIMGAP
 40
0.09
  9
$LUNITS
 70
     2
  9
$LUPREC
 70
     4
  9
$SKETCHINC
 40
0.1
  9
$FILLETRAD
 40
0.0
  9
$AUNITS
 70
     0
  9
$AUPREC
 70
     0
  9
$MENU
  1
.
  9
$ELEVATION
 40
0.0
  9
$PELEVATION
 40
0.0
  9
$THICKNESS
 40
0.0
  9
$LIMCHECK
 70
     0
  9
$BLIPMODE
 70
     0
  9
$CHAMFERA
 40
0.0
  9
$CHAMFERB
 40
0.0
  9
$SKPOLY
 70
     0
  9
$TDCREATE
 40
2444972.375
  9
$TDUPDATE
 40
2456893.248942812
  9
$TDINDWG
 40
0.0000047685
  9
$TDUSRTIMER
 40
0.0000047685
  9
$USRTIMER
 70
     1
  9
$ANGBASE
 50
0.0
  9
$ANGDIR
 70
     0
  9
$PDMODE
 70
     0
  9
$PDSIZE
 40
0.0
  9
$PLINEWID
 40
0.0
  9
$COORDS
 70
     1
  9
$SPLFRAME
 70
     0
  9
$SPLINETYPE
 70
     6
  9
$SPLINESEGS
 70
     8
  9
$ATTDIA
 70
     0
  9
$ATTREQ
 70
     1
  9
$HANDLING
 70
     1
  9
$HANDSEED
  5
E2
  9
$SURFTAB1
 70
     6
  9
$SURFTAB2
 70
     6
  9
$SURFTYPE
 70
     6
  9
$SURFU
 70
     6
  9
$SURFV
 70
     6
  9
$UCSNAME
  2

  9
$UCSORG
 10
0.0
 20
0.0
 30
0.0
  9
$UCSXDIR
 10
1.0
 20
0.0
 30
0.0
  9
$UCSYDIR
 10
0.0
 20
1.0
 30
0.0
  9
$PUCSNAME
  2

  9
$PUCSORG
 10
0.0
 20
0.0
 30
0.0
  9
$PUCSXDIR
 10
1.0
 20
0.0
 30
0.0
  9
$PUCSYDIR
 10
0.0
 20
1.0
 30
0.0
  9
$USERI1
 70
     0
  9
$USERI2
 70
     0
  9
$USERI3
 70
     0
  9
$USERI4
 70
     0
  9
$USERI5
 70
     0
  9
$USERR1
 40
0.0
  9
$USERR2
 40
0.0
  9
$USERR3
 40
0.0
  9
$USERR4
 40
0.0
  9
$USERR5
 40
0.0
  9
$WORLDVIEW
 70
     1
  9
$SHADEDGE
 70
     3
  9
$SHADEDIF
 70
    70
  9
$TILEMODE
 70
     1
  9
$MAXACTVP
 70
    48
  9
$PLIMCHECK
 70
     0
  9
$PEXTMIN
 10
1.0000000000000000E+020
 20
1.0000000000000000E+020
 30
1.0000000000000000E+020
  9
$PEXTMAX
 10
-1.0000000000000000E+020
 20
-1.0000000000000000E+020
 30
-1.0000000000000000E+020
  9
$PLIMMIN
 10
0.0
 20
0.0
  9
$PLIMMAX
 10
12.0
 20
9.0
  9
$UNITMODE
 70
     0
  9
$VISRETAIN
 70
     1
  9
$PLINEGEN
 70
     0
  9
$PSLTSCALE
 70
     1
  0
ENDSEC
  0
SECTION
  2
TABLES
  0
TABLE
  2
VPORT
 70
     2
  0
VPORT
  2
*ACTIVE
 70
     0
 10
0.0
 20
0.0
 11
1.0
 21
1.0
 12
206.5614882454619
 22
148.50082774399999
 13
0.0
 23
0.0
 14
1.0
 24
1.0
 15
0.0
 25
0.0
 16
0.0
 26
0.0
 36
1.0
 17
0.0
 27
0.0
 37
0.0
 40
299.4535330499258
 41
2.2894736842105261
 42
50.0
 43
0.0
 44
0.0
 50
0.0
 51
0.0
 71
     0
 72
   100
 73
     1
 74
     1
 75
     0
 76
     0
 77
     0
 78
     0
  0
ENDTAB
  0
TABLE
  2
LTYPE
 70
     2
  0
LTYPE
  2
CONTINUOUS
 70
     0
  3
Solid line
 72
    65
 73
     0
 40
0.0
  0
LTYPE
  2
AIGENLINE001
 70
     0
  3
generate AI->DXF Converter
 72
    65
 73
     4
 40
5.8561449999999988
 49
3.5278
 49
-0.776115
 49
0.776115
 49
-0.776115
  0
ENDTAB
  0
TABLE
  2
LAYER
 70
     2
  0
LAYER
  2
0
 70
     0
 62
     7
  6
CONTINUOUS
  0
LAYER
  2
_________2
 70
     0
 62
     7
  6
CONTINUOUS
  0
ENDTAB
  0
TABLE
  2
STYLE
 70
     1
  0
STYLE
  2
STANDARD
 70
     0
 40
0.0
 41
0.0
 50
0.0
 71
     0
 42
0.0
  3
TXT
  4
EXTFONT.SHX
  0
ENDTAB
  0
TABLE
  2
VIEW
 70
     0
  0
ENDTAB
  0
TABLE
  2
UCS
 70
     0
  0
ENDTAB
  0
TABLE
  2
APPID
 70
     1
  0
APPID
  2
ACAD
 70
     0
  0
ENDTAB
  0
TABLE
  2
DIMSTYLE
 70
     1
  0
DIMSTYLE
  2
STANDARD
 70
     0
  3

  4

  5

  6

  7

 40
1.0
 41
0.18
 42
0.0625
 43
0.38
 44
0.18
 45
0.0
 46
0.0
 47
0.0
 48
0.0
140
0.18
141
0.09
142
0.0
143
25.399999999999999
144
1.0
145
0.0
146
1.0
147
0.09
 71
     0
 72
     0
 73
     1
 74
     1
 75
     0
 76
     0
 77
     0
 78
     0
170
     0
171
     2
172
     0
173
     0
174
     0
175
     0
176
     0
177
     0
178
     0
  0
ENDTAB
  0
ENDSEC
  0
SECTION
  2
BLOCKS
  0
BLOCK
  8
0
  2
$MODEL_SPACE
 70
     0
 10
0.0
 20
0.0
 30
0.0
  3
$MODEL_SPACE
  1

  0
ENDBLK
  5
1A
  8
0
  0
BLOCK
 67
     1
  8
0
  2
$PAPER_SPACE
 70
     0
 10
0.0
 20
0.0
 30
0.0
  3
$PAPER_SPACE
  1

  0
ENDBLK
  5
17
 67
     1
  8
0
  0
ENDSEC
  0
SECTION
  2
ENTITIES
  0
TEXT
  5
22
  8
0
 62
     7
 10
97.737804500000024
 20
96.023700000000005
 30
0.0
 40
3.660169999999999
  1
G1 1/4
 41
0.5
 72
     1
 11
101.947
 21
96.023700000000005
 31
0.0
  0
TEXT
  5
23
  8
0
 62
     7
 10
126.76000000000001
 20
136.9208073333333
 30
0.0
 40
3.660169999999999
  1
40～60
 50
90.0
 41
0.5
 72
     1
 11
126.76000000000001
 21
141.0689999999999
 31
0.0
  0
TEXT
  5
24
  8
0
 62
     7
 10
116.5945793151362
 20
238.9275793151362
 30
0.0
 40
3.660169999999999
  1
%%c72
 50
45.0
 41
0.5
 72
     1
 11
118.31999999999999
 21
240.65299999999999
 31
0.0
  0
TEXT
  5
25
  8
0
 62
     7
 10
99.506886666666674
 20
173.7579999999999
 30
0.0
 40
3.660169999999999
  1
%%c72
 41
0.5
 72
     1
 11
101.947
 21
173.7579999999999
 31
0.0
  0
ARC
  5
26
  8
0
 62
     7
 10
86.719731999999993
 20
146.98350300000001
 30
0.0
 40
5.002934999999999
 50
21.949249999999999
 51
59.606048999999992
  0
ARC
  5
27
  8
0
 62
     7
 10
86.725927999999996
 20
146.929824
 30
0.0
 40
5.016462999999999
 50
7.7312339999999988
 51
16.503197
  0
LINE
  5
28
  8
0
 62
     7
 10
116.947
 20
148.3549999999999
 30
0.0
 11
116.947
 21
148.8549999999999
 31
0.0
  0
LINE
  5
29
  8
0
 62
     7
 10
86.946799999999996
 20
148.3549999999999
 30
0.0
 11
86.946799999999996
 21
148.8549999999999
 31
0.0
  0
LINE
  5
2A
  8
0
 62
     7
 10
86.946799999999996
 20
148.3549999999999
 30
0.0
 11
116.947
 21
148.3549999999999
 31
0.0
  0
LINE
  5
2B
  8
0
 62
     7
 10
86.946799999999996
 20
148.8549999999999
 30
0.0
 11
116.947
 21
148.8549999999999
 31
0.0
  0
ARC
  5
2C
  8
0
 62
     7
 10
117.176301
 20
146.98165700000001
 30
0.0
 40
5.005681
 50
120.4057539999999
 51
158.02148299999999
  0
ARC
  5
2D
  8
0
 62
     7
 10
117.26958499999991
 20
146.90880999999999
 30
0.0
 40
5.119959999999999
 50
163.5966379999999
 51
172.18864899999991
  0
LINE
  5
2E
  8
0
 62
     7
 10
117.697
 20
153.10499999999999
 30
0.0
 11
114.636
 21
151.2939999999999
 31
0.0
  0
LINE
  5
2F
  8
0
 62
     7
 10
117.697
 20
153.6049999999999
 30
0.0
 11
117.697
 21
153.10499999999999
 31
0.0
  0
LINE
  5
30
  8
0
 62
     7
 10
111.9469999999999
 20
129.8539999999999
 30
0.0
 11
111.9469999999999
 21
145.6049999999999
 31
0.0
  0
LINE
  5
31
  8
0
 62
     7
 10
112.447
 20
129.8539999999999
 30
0.0
 11
112.447
 21
145.1049999999999
 31
0.0
  0
LINE
  5
32
  8
0
 62
     7
 10
111.9469999999999
 20
145.6049999999999
 30
0.0
 11
111.9469999999999
 21
147.1049999999999
 31
0.0
  0
LINE
  5
33
  8
0
 62
     7
 10
112.197
 20
147.6049999999999
 30
0.0
 11
111.9469999999999
 21
147.1049999999999
 31
0.0
  0
LINE
  5
34
  8
0
 62
     7
 10
112.447
 20
145.1049999999999
 30
0.0
 11
111.9469999999999
 21
145.6049999999999
 31
0.0
  0
LINE
  5
35
  8
0
 62
     7
 10
86.196799999999996
 20
153.10499999999999
 30
0.0
 11
89.258300000000006
 21
151.2939999999999
 31
0.0
  0
LINE
  5
36
  8
0
 62
     7
 10
86.196799999999996
 20
153.6049999999999
 30
0.0
 11
86.196799999999996
 21
153.10499999999999
 31
0.0
  0
LINE
  5
37
  8
0
 62
     7
 10
91.946899999999985
 20
129.8539999999999
 30
0.0
 11
91.946899999999985
 21
145.6049999999999
 31
0.0
  0
LINE
  5
38
  8
0
 62
     7
 10
91.446799999999996
 20
129.8539999999999
 30
0.0
 11
91.446799999999996
 21
145.1049999999999
 31
0.0
  0
LINE
  5
39
  8
0
 62
     7
 10
91.946899999999985
 20
145.6049999999999
 30
0.0
 11
91.946899999999985
 21
147.1049999999999
 31
0.0
  0
LINE
  5
3A
  8
0
 62
     7
 10
91.696799999999996
 20
147.6049999999999
 30
0.0
 11
91.946899999999985
 21
147.1049999999999
 31
0.0
  0
LINE
  5
3B
  8
0
 62
     7
 10
91.446799999999996
 20
145.1049999999999
 30
0.0
 11
91.946899999999985
 21
145.6049999999999
 31
0.0
  0
LINE
  5
3C
  8
0
 62
     7
 10
91.446799999999996
 20
145.1049999999999
 30
0.0
 11
112.447
 21
145.1049999999999
 31
0.0
  0
LINE
  5
3D
  8
0
 62
     7
 10
91.946899999999985
 20
145.6049999999999
 30
0.0
 11
111.9469999999999
 21
145.6049999999999
 31
0.0
  0
LINE
  5
3E
  8
0
 62
     7
 10
91.946899999999985
 20
147.1049999999999
 30
0.0
 11
111.9469999999999
 21
147.1049999999999
 31
0.0
  0
LINE
  5
3F
  8
0
 62
     7
 10
91.696799999999996
 20
147.6049999999999
 30
0.0
 11
112.197
 21
147.6049999999999
 31
0.0
  0
LINE
  5
40
  8
0
 62
     7
 10
86.196799999999996
 20
153.10499999999999
 30
0.0
 11
117.697
 21
153.10499999999999
 31
0.0
  0
LINE
  5
41
  8
0
 62
     7
 10
86.196799999999996
 20
153.6049999999999
 30
0.0
 11
117.697
 21
153.6049999999999
 31
0.0
  0
ARC
  5
42
  8
0
 62
     7
 10
88.701996999999977
 20
128.67898699999989
 30
0.0
 40
1.202445999999999
 50
102.2512199999999
 51
106.850668
  0
ARC
  5
43
  8
0
 62
     7
 10
89.145894999999996
 20
127.10388500000001
 30
0.0
 40
2.8387720000000001
 50
106.20983099999999
 51
129.07393200000001
  0
ARC
  5
44
  8
0
 62
     7
 10
88.734579000000011
 20
127.650752
 30
0.0
 40
2.1551089999999991
 50
129.74881899999991
 51
146.05119999999999
  0
LINE
  5
45
  8
0
 62
     7
 10
86.946799999999996
 20
128.3539999999999
 30
0.0
 11
86.946799999999996
 21
128.8539999999999
 31
0.0
  0
ARC
  5
46
  8
0
 62
     7
 10
115.1360509999999
 20
128.46127599999991
 30
0.0
 40
1.426968
 50
73.240188000000003
 51
77.431514000000007
  0
ARC
  5
47
  8
0
 62
     7
 10
114.7454919999999
 20
127.1012909999999
 30
0.0
 40
2.841863
 50
50.520792999999991
 51
73.607056
  0
ARC
  5
48
  8
0
 62
     7
 10
115.1685639999999
 20
127.65977599999999
 30
0.0
 40
2.1419950000000001
 50
33.893937999999999
 51
49.757524000000011
  0
ARC
  5
49
  8
0
 62
     7
 10
109.384046
 20
143.1164939999999
 30
0.0
 40
18.954302999999999
 50
56.132002999999997
 51
62.488318000000007
  0
ARC
  5
4A
  8
0
 62
     7
 10
105.86612599999999
 20
136.6165189999999
 30
0.0
 40
26.344532000000001
 50
62.232611999999989
 51
68.733079000000004
  0
ARC
  5
4B
  8
0
 62
     7
 10
102.20050500000001
 20
127.677195
 30
0.0
 40
36.005082999999992
 50
68.456847999999994
 51
75.421247999999991
  0
ARC
  5
4C
  8
0
 62
     7
 10
100.51168800000001
 20
121.95034699999999
 30
0.0
 40
41.973077000000004
 50
75.157879000000008
 51
84.440201000000016
  0
ARC
  5
4D
  8
0
 62
     7
 10
101.7769729999999
 20
133.48206499999989
 30
0.0
 40
30.373355
 50
84.708236999999997
 51
89.679485
  0
ARC
  5
4E
  8
0
 62
     7
 10
94.510421999999991
 20
143.1161679999999
 30
0.0
 40
18.954972000000001
 50
117.5134129999999
 51
123.86922300000001
  0
ARC
  5
4F
  8
0
 62
     7
 10
98.024896000000012
 20
136.623018
 30
0.0
 40
26.337559999999989
 50
111.266907
 51
117.768905
  0
ARC
  5
50
  8
0
 62
     7
 10
101.69251800000001
 20
127.6791639999999
 30
0.0
 40
36.003058000000003
 50
104.578795
 51
111.54350599999999
  0
ARC
  5
51
  8
0
 62
     7
 10
103.38155399999999
 20
121.9513139999999
 30
0.0
 40
41.972078000000003
 50
95.559387999999984
 51
104.842106
  0
ARC
  5
52
  8
0
 62
     7
 10
102.116632
 20
133.48227800000001
 30
0.0
 40
30.37314099999999
 50
90.320217999999997
 51
95.291745000000006
  0
LINE
  5
53
  8
0
 62
     7
 10
92.196899999999985
 20
105.854
 30
0.0
 11
91.696600000000004
 21
106.3539999999999
 31
0.0
  0
LINE
  5
54
  8
0
 62
     7
 10
112.197
 20
106.3539999999999
 30
0.0
 11
111.697
 21
105.854
 31
0.0
  0
LINE
  5
55
  8
0
 62
     7
 10
91.696600000000004
 20
106.3539999999999
 30
0.0
 11
112.197
 21
106.3539999999999
 31
0.0
  0
LINE
  5
56
  8
0
 62
     7
 10
92.196899999999985
 20
105.854
 30
0.0
 11
92.196899999999985
 21
110.854
 31
0.0
  0
LINE
  5
57
  8
0
 62
     7
 10
111.697
 20
105.854
 30
0.0
 11
111.697
 21
110.854
 31
0.0
  0
LINE
  5
58
  8
0
 62
     7
 10
112.197
 20
106.3539999999999
 30
0.0
 11
112.197
 21
110.854
 31
0.0
  0
LINE
  5
59
  8
0
 62
     7
 10
91.696600000000004
 20
106.3539999999999
 30
0.0
 11
91.696600000000004
 21
110.854
 31
0.0
  0
LINE
  5
5A
  8
0
 62
     7
 10
92.196899999999985
 20
105.854
 30
0.0
 11
111.697
 21
105.854
 31
0.0
  0
LINE
  5
5B
  8
0
 62
     7
 10
114.447
 20
110.854
 30
0.0
 11
114.447
 21
125.354
 31
0.0
  0
LINE
  5
5C
  8
0
 62
     7
 10
89.446600000000004
 20
110.854
 30
0.0
 11
89.446600000000004
 21
125.354
 31
0.0
  0
LINE
  5
5D
  8
0
 62
     7
 10
89.446600000000004
 20
110.854
 30
0.0
 11
114.447
 21
110.854
 31
0.0
  0
LINE
  5
5E
  8
0
 62
     7
 10
117.447
 20
125.354
 30
0.0
 11
117.447
 21
128.3539999999999
 31
0.0
  0
LINE
  5
5F
  8
0
 62
     7
 10
86.446600000000004
 20
125.354
 30
0.0
 11
86.446600000000004
 21
128.3539999999999
 31
0.0
  0
LINE
  5
60
  8
0
 62
     7
 10
86.446600000000004
 20
125.354
 30
0.0
 11
117.447
 21
125.354
 31
0.0
  0
LINE
  5
61
  8
0
 62
     7
 10
116.947
 20
128.3539999999999
 30
0.0
 11
116.947
 21
128.8539999999999
 31
0.0
  0
LINE
  5
62
  8
0
 62
     7
 10
86.446600000000004
 20
128.3539999999999
 30
0.0
 11
117.447
 21
128.3539999999999
 31
0.0
  0
LINE
  5
63
  8
0
 62
     7
 10
88.446799999999996
 20
129.8539999999999
 30
0.0
 11
115.447
 21
129.8539999999999
 31
0.0
  0
LINE
  5
64
  8
0
 62
     7
 10
105.6969999999999
 20
157.8549999999999
 30
0.0
 11
105.6969999999999
 21
153.6049999999999
 31
0.0
  0
LINE
  5
65
  8
0
 62
     7
 10
98.196900000000014
 20
157.8549999999999
 30
0.0
 11
98.196900000000014
 21
153.6049999999999
 31
0.0
  0
LINE
  5
66
  8
0
  6
AIGENLINE001
 62
     7
 10
101.947
 20
102.3589999999999
 30
0.0
 11
101.947
 21
168.50499999999991
 31
0.0
  0
LINE
  5
67
  8
0
 62
     7
 10
119.947
 20
157.8549999999999
 30
0.0
 11
119.947
 21
158.8549999999999
 31
0.0
  0
LINE
  5
68
  8
0
 62
     7
 10
83.946799999999996
 20
158.8549999999999
 30
0.0
 11
83.946799999999996
 21
157.8549999999999
 31
0.0
  0
LINE
  5
69
  8
0
 62
     7
 10
83.946799999999996
 20
158.8549999999999
 30
0.0
 11
119.947
 21
158.8549999999999
 31
0.0
  0
LINE
  5
6A
  8
0
 62
     7
 10
83.946799999999996
 20
157.8549999999999
 30
0.0
 11
119.947
 21
157.8549999999999
 31
0.0
  0
ARC
  5
6B
  8
0
 62
     7
 10
101.946873
 20
222.9176939999999
 30
0.0
 40
18.000052
 50
270.00002000000001
 51
359.99998999999991
  0
ARC
  5
6C
  8
0
 62
     7
 10
101.946873
 20
222.917688
 30
0.0
 40
18.00004599999999
 50
179.99996999999991
 51
270.00002000000001
  0
ARC
  5
6D
  8
0
 62
     7
 10
101.94687999999999
 20
222.917688
 30
0.0
 40
18.000052
 50
90.0
 51
179.99996999999991
  0
ARC
  5
6E
  8
0
 62
     7
 10
101.946873
 20
222.917688
 30
0.0
 40
18.000052
 50
0.00001
 51
89.999980000000008
  0
LINE
  5
6F
  8
0
 62
     7
 10
128.22499999999991
 20
129.8539999999999
 30
0.0
 11
117.39700000000001
 21
129.8539999999999
 31
0.0
  0
LINE
  5
70
  8
0
 62
     7
 10
128.22499999999991
 20
153.6049999999999
 30
0.0
 11
118.8309999999999
 21
153.6049999999999
 31
0.0
  0
LINE
  5
71
  8
0
 62
     7
 10
128.12999999999991
 20
151.39400000000001
 30
0.0
 11
127.5379999999999
 21
153.6049999999999
 31
0.0
  0
LINE
  5
72
  8
0
 62
     7
 10
127.5379999999999
 20
153.6049999999999
 30
0.0
 11
126.946
 21
151.39400000000001
 31
0.0
  0
LINE
  5
73
  8
0
 62
     7
 10
126.946
 20
151.39400000000001
 30
0.0
 11
128.12999999999991
 21
151.39400000000001
 31
0.0
  0
LINE
  5
74
  8
0
 62
     7
 10
126.95999999999999
 20
132.065
 30
0.0
 11
127.553
 21
129.8539999999999
 31
0.0
  0
LINE
  5
75
  8
0
 62
     7
 10
127.553
 20
129.8539999999999
 30
0.0
 11
128.14500000000001
 21
132.065
 31
0.0
  0
LINE
  5
76
  8
0
 62
     7
 10
128.14500000000001
 20
132.065
 30
0.0
 11
126.95999999999999
 21
132.065
 31
0.0
  0
LINE
  5
77
  8
0
 62
     7
 10
127.5449999999999
 20
153.6049999999999
 30
0.0
 11
127.5449999999999
 21
129.8539999999999
 31
0.0
  0
LINE
  5
78
  8
0
 62
     7
 10
119.947
 20
173.339
 30
0.0
 11
119.947
 21
159.86199999999991
 31
0.0
  0
LINE
  5
79
  8
0
 62
     7
 10
83.946799999999996
 20
173.339
 30
0.0
 11
83.946799999999996
 21
159.86199999999991
 31
0.0
  0
LINE
  5
7A
  8
0
 62
     7
 10
86.157200000000003
 20
173.285
 30
0.0
 11
83.946799999999996
 21
172.6929999999999
 31
0.0
  0
LINE
  5
7B
  8
0
 62
     7
 10
83.946799999999996
 20
172.6929999999999
 30
0.0
 11
86.157200000000003
 21
172.09999999999999
 31
0.0
  0
LINE
  5
7C
  8
0
 62
     7
 10
86.157200000000003
 20
172.09999999999999
 30
0.0
 11
86.157200000000003
 21
173.285
 31
0.0
  0
LINE
  5
7D
  8
0
 62
     7
 10
117.7359999999999
 20
172.11500000000001
 30
0.0
 11
119.947
 21
172.70699999999991
 31
0.0
  0
LINE
  5
7E
  8
0
 62
     7
 10
119.947
 20
172.70699999999991
 30
0.0
 11
117.7359999999999
 21
173.30000000000001
 31
0.0
  0
LINE
  5
7F
  8
0
 62
     7
 10
117.7359999999999
 20
173.30000000000001
 30
0.0
 11
117.7359999999999
 21
172.11500000000001
 31
0.0
  0
LINE
  5
80
  8
0
 62
     7
 10
83.946799999999996
 20
172.6999999999999
 30
0.0
 11
119.947
 21
172.6999999999999
 31
0.0
  0
LINE
  5
81
  8
0
 62
     7
 10
93.907199999999989
 20
95.829700000000017
 30
0.0
 11
91.696600000000004
 21
95.237499999999983
 31
0.0
  0
LINE
  5
82
  8
0
 62
     7
 10
91.696600000000004
 20
95.237499999999983
 30
0.0
 11
93.907199999999989
 21
94.645300000000006
 31
0.0
  0
LINE
  5
83
  8
0
 62
     7
 10
93.907199999999989
 20
94.645300000000006
 30
0.0
 11
93.907199999999989
 21
95.829700000000017
 31
0.0
  0
LINE
  5
84
  8
0
 62
     7
 10
109.986
 20
94.659800000000004
 30
0.0
 11
112.197
 21
95.25200000000001
 31
0.0
  0
LINE
  5
85
  8
0
 62
     7
 10
112.197
 20
95.25200000000001
 30
0.0
 11
109.986
 21
95.844199999999987
 31
0.0
  0
LINE
  5
86
  8
0
 62
     7
 10
109.986
 20
95.844199999999987
 30
0.0
 11
109.986
 21
94.659800000000004
 31
0.0
  0
LINE
  5
87
  8
0
 62
     7
 10
91.696600000000004
 20
95.244699999999995
 30
0.0
 11
112.197
 21
95.244699999999995
 31
0.0
  0
LINE
  5
88
  8
0
 62
     7
 10
112.197
 20
94.539199999999994
 30
0.0
 11
112.197
 21
104.857
 31
0.0
  0
LINE
  5
89
  8
0
 62
     7
 10
91.696600000000004
 20
94.539199999999994
 30
0.0
 11
91.696600000000004
 21
104.857
 31
0.0
  0
LINE
  5
8A
  8
0
 62
     7
 10
88.074399999999983
 20
208.20799999999991
 30
0.0
 11
89.218900000000005
 21
210.19
 31
0.0
  0
LINE
  5
8B
  8
0
 62
     7
 10
89.218900000000005
 20
210.19
 30
0.0
 11
87.236900000000006
 21
209.04599999999991
 31
0.0
  0
LINE
  5
8C
  8
0
 62
     7
 10
87.236900000000006
 20
209.04599999999991
 30
0.0
 11
88.074399999999983
 21
208.20799999999991
 31
0.0
  0
LINE
  5
8D
  8
0
 62
     7
 10
115.819
 20
237.62700000000001
 30
0.0
 11
114.6749999999999
 21
235.6459999999999
 31
0.0
  0
LINE
  5
8E
  8
0
 62
     7
 10
114.6749999999999
 20
235.6459999999999
 30
0.0
 11
116.657
 21
236.78999999999999
 31
0.0
  0
LINE
  5
8F
  8
0
 62
     7
 10
116.657
 20
236.78999999999999
 30
0.0
 11
115.819
 21
237.62700000000001
 31
0.0
  0
LINE
  5
90
  8
0
 62
     7
 10
121.71599999999999
 20
242.68700000000001
 30
0.0
 11
85.441299999999998
 21
206.41199999999989
 31
0.0
  0
LINE
  5
91
  8
0
  6
AIGENLINE001
 62
     7
 10
124.44799999999999
 20
222.91799999999989
 30
0.0
 11
79.969800000000006
 21
222.91799999999989
 31
0.0
  0
LINE
  5
92
  8
0
  6
AIGENLINE001
 62
     7
 10
101.947
 20
201.09699999999989
 30
0.0
 11
101.947
 21
245.149
 31
0.0
  0
TEXT
  5
93
  8
_________2
 62
     7
 10
140.92331541666661
 20
30.178899999999992
 30
0.0
 40
4.6583899999999989
  1
VF86110
 41
0.5
 72
     1
 11
148.1049999999999
 21
30.178899999999992
 31
0.0
  0
LINE
  5
94
  8
_________2
 62
     7
 10
209.85599999999991
 20
148.482
 30
0.0
 11
188.1049999999999
 21
148.482
 31
0.0
  0
LINE
  5
95
  8
_________2
 62
     7
 10
104.855
 20
16.979900000000001
 30
0.0
 11
104.855
 21
-0.000344512
 31
0.0
  0
LINE
  5
96
  8
_________2
 62
     7
 10
104.855
 20
297.00200000000001
 30
0.0
 11
104.855
 21
279.98200000000003
 31
0.0
  0
LINE
  5
97
  8
_________2
 62
     7
 10
21.604299999999991
 20
148.482
 30
0.0
 11
-0.146073
 21
148.482
 31
0.0
  0
LINE
  5
98
  8
_________2
 62
     7
 10
81.2958
 20
50.875799999999991
 30
0.0
 11
79.109499999999997
 21
50.875799999999991
 31
0.0
  0
LINE
  5
99
  8
_________2
 62
     7
 10
81.788499999999999
 20
50.875799999999991
 30
0.0
 11
81.536299999999983
 21
50.875799999999991
 31
0.0
  0
LINE
  5
9A
  8
_________2
 62
     7
 10
82.281099999999995
 20
50.875799999999991
 30
0.0
 11
85.205999999999989
 21
50.875799999999991
 31
0.0
  0
LINE
  5
9B
  8
_________2
 62
     7
 10
81.788499999999999
 20
50.875799999999991
 30
0.0
 11
82.040599999999998
 21
50.875799999999991
 31
0.0
  0
LINE
  5
9C
  8
_________2
 62
     7
 10
75.392300000000006
 20
50.875799999999991
 30
0.0
 11
73.205299999999994
 21
50.875799999999991
 31
0.0
  0
LINE
  5
9D
  8
_________2
 62
     7
 10
75.884200000000007
 20
50.875799999999991
 30
0.0
 11
75.6327
 21
50.875799999999991
 31
0.0
  0
LINE
  5
9E
  8
_________2
 62
     7
 10
75.884200000000007
 20
51.368400000000001
 30
0.0
 11
75.884200000000007
 21
53.555399999999999
 31
0.0
  0
LINE
  5
9F
  8
_________2
 62
     7
 10
75.884200000000007
 20
50.875799999999991
 30
0.0
 11
75.884200000000007
 21
51.128
 31
0.0
  0
LINE
  5
A0
  8
_________2
 62
     7
 10
76.376900000000006
 20
50.875799999999991
 30
0.0
 11
78.563800000000001
 21
50.875799999999991
 31
0.0
  0
LINE
  5
A1
  8
_________2
 62
     7
 10
75.884200000000007
 20
50.875799999999991
 30
0.0
 11
76.136399999999995
 21
50.875799999999991
 31
0.0
  0
LINE
  5
A2
  8
_________2
 62
     7
 10
75.884200000000007
 20
50.383800000000001
 30
0.0
 11
75.884200000000007
 21
48.196800000000003
 31
0.0
  0
LINE
  5
A3
  8
_________2
 62
     7
 10
75.884200000000007
 20
50.875799999999991
 30
0.0
 11
75.884200000000007
 21
50.624299999999991
 31
0.0
  0
LINE
  5
A4
  8
_________2
 62
     7
 10
79.595299999999995
 20
49.656199999999998
 30
0.0
 11
84.773300000000006
 21
48.791499999999999
 31
0.0
  0
LINE
  5
A5
  8
_________2
 62
     7
 10
79.595299999999995
 20
52.095300000000002
 30
0.0
 11
84.773300000000006
 21
52.960799999999992
 31
0.0
  0
LINE
  5
A6
  8
_________2
 62
     7
 10
84.773300000000006
 20
48.791499999999999
 30
0.0
 11
84.773300000000006
 21
52.960799999999992
 31
0.0
  0
LINE
  5
A7
  8
_________2
 62
     7
 10
79.595299999999995
 20
49.656199999999998
 30
0.0
 11
79.595299999999995
 21
52.095300000000002
 31
0.0
  0
ARC
  5
A8
  8
_________2
 62
     7
 10
75.837979000000004
 20
50.828812999999997
 30
0.0
 40
1.2673709999999989
 50
2.1232950000000002
 51
87.909056000000007
  0
ARC
  5
A9
  8
_________2
 62
     7
 10
75.931143000000006
 20
50.828847000000003
 30
0.0
 40
1.267363
 50
92.121785999999986
 51
177.878185
  0
ARC
  5
AA
  8
_________2
 62
     7
 10
75.931143000000006
 20
50.922691999999998
 30
0.0
 40
1.267363
 50
182.12181499999991
 51
267.87821400000001
  0
ARC
  5
AB
  8
_________2
 62
     7
 10
75.837330000000009
 20
50.923374000000003
 30
0.0
 40
1.2680439999999991
 50
272.11916400000001
 51
357.84848499999993
  0
ARC
  5
AC
  8
_________2
 62
     7
 10
75.884219999999999
 20
50.875768999999998
 30
0.0
 40
2.0849849999999992
 50
0.00001
 51
89.999980000000008
  0
ARC
  5
AD
  8
_________2
 62
     7
 10
75.964256999999989
 20
50.796447000000001
 30
0.0
 40
2.1657860000000002
 50
92.117855000000034
 51
177.90105299999991
  0
ARC
  5
AE
  8
_________2
 62
     7
 10
75.964224000000002
 20
50.955773000000001
 30
0.0
 40
2.1657779999999991
 50
182.11700400000001
 51
267.88302499999992
  0
ARC
  5
AF
  8
_________2
 62
     7
 10
75.804248999999999
 20
50.956456000000003
 30
0.0
 40
2.1664590000000001
 50
272.11546800000002
 51
357.86560400000002
  0
TEXT
  5
B0
  8
_________2
 62
     7
 10
109.1599999999999
 20
22.750499999999992
 30
0.0
 40
3.660169999999999
  1
図番
 41
0.5
  0
LINE
  5
B1
  8
_________2
 62
     7
 10
108.105
 20
26.979700000000001
 30
0.0
 11
188.1049999999999
 21
26.979700000000001
 31
0.0
  0
TEXT
  5
B2
  8
_________2
 62
     7
 10
109.1599999999999
 20
32.750300000000003
 30
0.0
 40
3.660169999999999
  1
品番
 41
0.5
  0
TEXT
  5
B3
  8
_________2
 62
     7
 10
109.1599999999999
 20
52.889099999999999
 30
0.0
 40
3.660169999999999
  1
名称
 41
0.5
  0
TEXT
  5
B4
  8
_________2
 62
     7
 10
96.120245833333357
 20
47.892999999999986
 30
0.0
 40
4.3256500000000004
  1
mm
 41
0.5
 72
     1
 11
97.922600000000003
 21
47.892999999999986
 31
0.0
  0
TEXT
  5
B5
  8
_________2
 62
     7
 10
90.197999999999993
 20
52.889099999999999
 30
0.0
 40
3.660169999999999
  1
単位
 41
0.5
  0
TEXT
  5
B6
  8
_________2
 62
     7
 10
90.197999999999993
 20
40.481900000000003
 30
0.0
 40
3.660169999999999
  1
尺度
 41
0.5
  0
TEXT
  5
B7
  8
_________2
 62
     7
 10
94.477226666666667
 20
34.288899999999991
 30
0.0
 40
4.3256500000000004
  1
1 ： 2
 41
0.5
 72
     1
 11
98.514499999999984
 21
34.288899999999991
 31
0.0
  0
TEXT
  5
B8
  8
_________2
 62
     7
 10
140.92331541666661
 20
20.1784
 30
0.0
 40
4.6583899999999989
  1
VF86110
 41
0.5
 72
     1
 11
148.1049999999999
 21
20.1784
 31
0.0
  0
TEXT
  5
B9
  8
_________2
 62
     7
 10
113.73399999999999
 20
45.296700000000001
 30
0.0
 40
4.6583899999999989
  1
ヴィトラフォーム用排水目皿
 41
0.5
  0
TEXT
  5
BA
  8
_________2
 62
     7
 10
43.633380833333327
 20
34.674100000000003
 30
0.0
 40
4.3256500000000004
  1
早川
 41
0.5
 72
     1
 11
45.868299999999991
 21
34.674100000000003
 31
0.0
  0
TEXT
  5
BB
  8
_________2
 62
     7
 10
24.987286666666659
 20
34.674100000000003
 30
0.0
 40
4.3256500000000004
  1
石原
 41
0.5
 72
     1
 11
27.2943
 21
34.674100000000003
 31
0.0
  0
TEXT
  5
BC
  8
_________2
 62
     7
 10
72.340599999999995
 20
34.288899999999991
 30
0.0
 40
4.3256500000000004
  1
14.08.22
 41
0.5
  0
TEXT
  5
BD
  8
_________2
 62
     7
 10
71.147900000000007
 20
40.481900000000003
 30
0.0
 40
3.660169999999999
  1
日付
 41
0.5
  0
TEXT
  5
BE
  8
_________2
 62
     7
 10
34.194200000000002
 20
40.481900000000003
 30
0.0
 40
3.660169999999999
  1
検図
 41
0.5
  0
TEXT
  5
BF
  8
_________2
 62
     7
 10
22.57589999999999
 20
26.282499999999992
 30
0.0
 40
3.660169999999999
  1
備考
 41
0.5
  0
TEXT
  5
C0
  8
_________2
 62
     7
 10
22.57589999999999
 20
40.481900000000003
 30
0.0
 40
3.660169999999999
  1
製図
 41
0.5
  0
TEXT
  5
C1
  8
_________2
 62
     7
 10
25.149630666666681
 20
49.00780000000001
 30
0.0
 40
5.3238799999999991
  1
セラトレーディング株式会社
 41
0.5
 72
     1
 11
45.735300000000002
 21
49.00780000000001
 31
0.0
  0
LINE
  5
C2
  8
_________2
 62
     7
 10
188.1049999999999
 20
16.979900000000001
 30
0.0
 11
21.604299999999991
 21
16.979900000000001
 31
0.0
  0
LINE
  5
C3
  8
_________2
 62
     7
 10
21.604299999999991
 20
16.979900000000001
 30
0.0
 11
21.604299999999991
 21
279.98200000000003
 31
0.0
  0
LINE
  5
C4
  8
_________2
 62
     7
 10
21.604299999999991
 20
279.98200000000003
 30
0.0
 11
188.1049999999999
 21
279.98200000000003
 31
0.0
  0
LINE
  5
C5
  8
_________2
 62
     7
 10
188.1049999999999
 20
279.98200000000003
 30
0.0
 11
188.1049999999999
 21
16.979900000000001
 31
0.0
  0
LINE
  5
C6
  8
_________2
 62
     7
 10
70.104699999999994
 20
30.48
 30
0.0
 11
70.104699999999994
 21
56.979799999999997
 31
0.0
  0
LINE
  5
C7
  8
_________2
 62
     7
 10
89.104500000000002
 20
30.48
 30
0.0
 11
89.104500000000002
 21
56.979799999999997
 31
0.0
  0
LINE
  5
C8
  8
_________2
 62
     7
 10
108.105
 20
16.979900000000001
 30
0.0
 11
108.105
 21
56.979799999999997
 31
0.0
  0
LINE
  5
C9
  8
_________2
 62
     7
 10
33.104100000000003
 20
30.48
 30
0.0
 11
33.104100000000003
 21
44.4803
 31
0.0
  0
LINE
  5
CA
  8
_________2
 62
     7
 10
21.604299999999991
 20
30.48
 30
0.0
 11
108.105
 21
30.48
 31
0.0
  0
LINE
  5
CB
  8
_________2
 62
     7
 10
21.604299999999991
 20
44.4803
 30
0.0
 11
108.105
 21
44.4803
 31
0.0
  0
LINE
  5
CC
  8
_________2
 62
     7
 10
108.105
 20
36.979500000000002
 30
0.0
 11
188.1049999999999
 21
36.979500000000002
 31
0.0
  0
LINE
  5
CD
  8
_________2
 62
     7
 10
21.604299999999991
 20
56.979799999999997
 30
0.0
 11
188.1049999999999
 21
56.979799999999997
 31
0.0
  0
ENDSEC
  0
EOF
