  0
SECTION
  2
HEADER
  9
$ACADVER
  1
AC1009
  9
$INSBASE
 10
0.0
 20
0.0
 30
0.0
  9
$EXTMIN
 10
-4.70052
 20
-21.071400000000001
 30
0.0
  9
$EXTMAX
 10
205.30099999999999
 20
275.93099999999998
 30
0.0
  9
$LIMMIN
 10
0.0
 20
0.0
  9
$LIMMAX
 10
12.0
 20
9.0
  9
$ORTHOMODE
 70
     0
  9
$REGENMODE
 70
     1
  9
$FILLMODE
 70
     1
  9
$QTEXTMODE
 70
     0
  9
$MIRRTEXT
 70
     1
  9
$DRAGMODE
 70
     2
  9
$LTSCALE
 40
1.0
  9
$OSMODE
 70
    37
  9
$ATTMODE
 70
     1
  9
$TEXTSIZE
 40
0.0
  9
$TRACEWID
 40
0.05
  9
$TEXTSTYLE
  7
STANDARD
  9
$CLAYER
  8
0
  9
$CELTYPE
  6
CONTINUOUS
  9
$CECOLOR
 62
   256
  9
$DIMSCALE
 40
1.0
  9
$DIMASZ
 40
0.18
  9
$DIMEXO
 40
0.0625
  9
$DIMDLI
 40
0.38
  9
$DIMRND
 40
0.0
  9
$DIMDLE
 40
0.0
  9
$DIMEXE
 40
0.18
  9
$DIMTP
 40
0.0
  9
$DIMTM
 40
0.0
  9
$DIMTXT
 40
0.18
  9
$DIMCEN
 40
0.09
  9
$DIMTSZ
 40
0.0
  9
$DIMTOL
 70
     0
  9
$DIMLIM
 70
     0
  9
$DIMTIH
 70
     1
  9
$DIMTOH
 70
     1
  9
$DIMSE1
 70
     0
  9
$DIMSE2
 70
     0
  9
$DIMTAD
 70
     0
  9
$DIMZIN
 70
     0
  9
$DIMBLK
  1

  9
$DIMASO
 70
     1
  9
$DIMSHO
 70
     1
  9
$DIMPOST
  1

  9
$DIMAPOST
  1

  9
$DIMALT
 70
     0
  9
$DIMALTD
 70
     2
  9
$DIMALTF
 40
25.399999999999999
  9
$DIMLFAC
 40
1.0
  9
$DIMTOFL
 70
     0
  9
$DIMTVP
 40
0.0
  9
$DIMTIX
 70
     0
  9
$DIMSOXD
 70
     0
  9
$DIMSAH
 70
     0
  9
$DIMBLK1
  1

  9
$DIMBLK2
  1

  9
$DIMSTYLE
  2
STANDARD
  9
$DIMCLRD
 70
     0
  9
$DIMCLRE
 70
     0
  9
$DIMCLRT
 70
     0
  9
$DIMTFAC
 40
1.0
  9
$DIMGAP
 40
0.09
  9
$LUNITS
 70
     2
  9
$LUPREC
 70
     4
  9
$SKETCHINC
 40
0.1
  9
$FILLETRAD
 40
0.0
  9
$AUNITS
 70
     0
  9
$AUPREC
 70
     0
  9
$MENU
  1
.
  9
$ELEVATION
 40
0.0
  9
$PELEVATION
 40
0.0
  9
$THICKNESS
 40
0.0
  9
$LIMCHECK
 70
     0
  9
$BLIPMODE
 70
     0
  9
$CHAMFERA
 40
0.0
  9
$CHAMFERB
 40
0.0
  9
$SKPOLY
 70
     0
  9
$TDCREATE
 40
2444972.375
  9
$TDUPDATE
 40
2457135.2546865968
  9
$TDINDWG
 40
0.0000308681
  9
$TDUSRTIMER
 40
0.0000308681
  9
$USRTIMER
 70
     1
  9
$ANGBASE
 50
0.0
  9
$ANGDIR
 70
     0
  9
$PDMODE
 70
     0
  9
$PDSIZE
 40
0.0
  9
$PLINEWID
 40
0.0
  9
$COORDS
 70
     1
  9
$SPLFRAME
 70
     0
  9
$SPLINETYPE
 70
     6
  9
$SPLINESEGS
 70
     8
  9
$ATTDIA
 70
     1
  9
$ATTREQ
 70
     1
  9
$HANDLING
 70
     1
  9
$HANDSEED
  5
631
  9
$SURFTAB1
 70
     6
  9
$SURFTAB2
 70
     6
  9
$SURFTYPE
 70
     6
  9
$SURFU
 70
     6
  9
$SURFV
 70
     6
  9
$UCSNAME
  2

  9
$UCSORG
 10
0.0
 20
0.0
 30
0.0
  9
$UCSXDIR
 10
1.0
 20
0.0
 30
0.0
  9
$UCSYDIR
 10
0.0
 20
1.0
 30
0.0
  9
$PUCSNAME
  2

  9
$PUCSORG
 10
0.0
 20
0.0
 30
0.0
  9
$PUCSXDIR
 10
1.0
 20
0.0
 30
0.0
  9
$PUCSYDIR
 10
0.0
 20
1.0
 30
0.0
  9
$USERI1
 70
     0
  9
$USERI2
 70
     0
  9
$USERI3
 70
     0
  9
$USERI4
 70
     0
  9
$USERI5
 70
     0
  9
$USERR1
 40
0.0
  9
$USERR2
 40
0.0
  9
$USERR3
 40
0.0
  9
$USERR4
 40
0.0
  9
$USERR5
 40
0.0
  9
$WORLDVIEW
 70
     1
  9
$SHADEDGE
 70
     3
  9
$SHADEDIF
 70
    70
  9
$TILEMODE
 70
     1
  9
$MAXACTVP
 70
    48
  9
$PLIMCHECK
 70
     0
  9
$PEXTMIN
 10
1.0000000000000000E+020
 20
1.0000000000000000E+020
 30
1.0000000000000000E+020
  9
$PEXTMAX
 10
-1.0000000000000000E+020
 20
-1.0000000000000000E+020
 30
-1.0000000000000000E+020
  9
$PLIMMIN
 10
0.0
 20
0.0
  9
$PLIMMAX
 10
12.0
 20
9.0
  9
$UNITMODE
 70
     0
  9
$VISRETAIN
 70
     1
  9
$PLINEGEN
 70
     0
  9
$PSLTSCALE
 70
     1
  0
ENDSEC
  0
SECTION
  2
TABLES
  0
TABLE
  2
VPORT
 70
     1
  0
VPORT
  2
*ACTIVE
 70
     0
 10
0.0
 20
0.0
 11
1.0
 21
1.0
 12
162.69075388505291
 22
127.4298
 13
0.0
 23
0.0
 14
1.0
 24
1.0
 15
0.0
 25
0.0
 16
0.0
 26
0.0
 36
1.0
 17
0.0
 27
0.0
 37
0.0
 40
289.76704850771438
 41
2.1063583815028899
 42
50.0
 43
0.0
 44
0.0
 50
0.0
 51
0.0
 71
     0
 72
   100
 73
     1
 74
     1
 75
     0
 76
     0
 77
     0
 78
     0
  0
ENDTAB
  0
TABLE
  2
LTYPE
 70
     3
  0
LTYPE
  2
CONTINUOUS
 70
     0
  3
Solid line
 72
    65
 73
     0
 40
0.0
  0
LTYPE
  2
AIGENLINE001
 70
     0
  3
generate AI->DXF Converter
 72
    65
 73
     4
 40
5.8561449999999988
 49
3.5278
 49
-0.776115
 49
0.776115
 49
-0.776115
  0
LTYPE
  2
AIGENLINE002
 70
     0
  3
generate AI->DXF Converter
 72
    65
 73
     6
 40
7.4083750000000004
 49
3.5278
 49
-0.776115
 49
0.776115
 49
-0.776115
 49
0.776115
 49
-0.776115
  0
ENDTAB
  0
TABLE
  2
LAYER
 70
     2
  0
LAYER
  2
0
 70
     0
 62
     7
  6
CONTINUOUS
  0
LAYER
  2
_________2
 70
     0
 62
     7
  6
CONTINUOUS
  0
ENDTAB
  0
TABLE
  2
STYLE
 70
     1
  0
STYLE
  2
STANDARD
 70
     0
 40
0.0
 41
0.0
 50
0.0
 71
     0
 42
0.0
  3
TXT
  4
EXTFONT.SHX
  0
ENDTAB
  0
TABLE
  2
VIEW
 70
     0
  0
ENDTAB
  0
TABLE
  2
UCS
 70
     0
  0
ENDTAB
  0
TABLE
  2
APPID
 70
     3
  0
APPID
  2
ACAD
 70
     0
  0
APPID
  2
ACAD_NAV_VCDISPLAY
 70
     0
  0
APPID
  2
ACAD_MLEADERVER
 70
     0
  0
ENDTAB
  0
TABLE
  2
DIMSTYLE
 70
     1
  0
DIMSTYLE
  2
STANDARD
 70
     0
  3

  4

  5

  6

  7

 40
1.0
 41
0.18
 42
0.0625
 43
0.38
 44
0.18
 45
0.0
 46
0.0
 47
0.0
 48
0.0
140
0.18
141
0.09
142
0.0
143
25.399999999999999
144
1.0
145
0.0
146
1.0
147
0.09
 71
     0
 72
     0
 73
     1
 74
     1
 75
     0
 76
     0
 77
     0
 78
     0
170
     0
171
     2
172
     0
173
     0
174
     0
175
     0
176
     0
177
     0
178
     0
  0
ENDTAB
  0
ENDSEC
  0
SECTION
  2
BLOCKS
  0
BLOCK
  8
0
  2
$MODEL_SPACE
 70
     0
 10
0.0
 20
0.0
 30
0.0
  3
$MODEL_SPACE
  1

  0
ENDBLK
  5
1A
  8
0
  0
BLOCK
 67
     1
  8
0
  2
$PAPER_SPACE
 70
     0
 10
0.0
 20
0.0
 30
0.0
  3
$PAPER_SPACE
  1

  0
ENDBLK
  5
17
 67
     1
  8
0
  0
ENDSEC
  0
SECTION
  2
ENTITIES
  0
TEXT
  5
23
  8
0
 62
     7
 10
109.1621487064847
 20
190.384159027441
 30
0.0
 40
3.660169999999999
  1
%%c82
 50
274.91000000000003
 41
0.5
 72
     1
 11
109.371
 21
187.953
 31
0.0
  0
TEXT
  5
24
  8
0
 62
     7
 10
131.05688666666671
 20
112.155
 30
0.0
 40
3.660169999999999
  1
%%c74
 41
0.5
 72
     1
 11
133.49700000000001
 21
112.155
 31
0.0
  0
TEXT
  5
25
  8
0
 62
     7
 10
129.29380449999999
 20
79.878100000000003
 30
0.0
 40
3.660169999999999
  1
G1 1/2
 41
0.5
 72
     1
 11
133.50299999999999
 21
79.878100000000003
 31
0.0
  0
TEXT
  5
26
  8
0
 62
     7
 10
105.61424358333331
 20
209.20099999999999
 30
0.0
 40
3.660169999999999
  1
100～260
 41
0.5
 72
     1
 11
111.13500000000001
 21
209.20099999999999
 31
0.0
  0
TEXT
  5
27
  8
0
 62
     7
 10
149.47499999999999
 20
93.350636250000008
 30
0.0
 40
3.660169999999999
  1
70
 50
90.0
 41
0.5
 72
     1
 11
149.47499999999999
 21
94.723200000000006
 31
0.0
  0
TEXT
  5
28
  8
0
 62
     7
 10
149.47499999999999
 20
138.8842435833333
 30
0.0
 40
3.660169999999999
  1
180～400
 50
90.0
 41
0.5
 72
     1
 11
149.47499999999999
 21
144.405
 31
0.0
  0
ARC
  5
29
  8
0
 62
     7
 10
44.629576999999998
 20
184.45230699999999
 30
0.0
 40
5.5684430000000003
 50
0.3008980000000001
 51
45.987170999999996
  0
ARC
  5
2A
  8
0
 62
     7
 10
44.629351
 20
184.51090199999999
 30
0.0
 40
5.5686679999999988
 50
314.01873599999999
 51
359.69800300000003
  0
ARC
  5
2B
  8
0
 62
     7
 10
128.14763500000001
 20
93.426071999999991
 30
0.0
 40
0.100938
 50
90.168464999999983
 51
126.756818
  0
ARC
  5
2C
  8
0
 62
     7
 10
128.20108300000001
 20
93.343778999999984
 30
0.0
 40
0.198958
 50
124.906485
 51
139.68949699999999
  0
ARC
  5
2D
  8
0
 62
     7
 10
128.32946799999999
 20
93.234318999999999
 30
0.0
 40
0.367671
 50
139.62517099999999
 51
150.25724299999999
  0
ARC
  5
2E
  8
0
 62
     7
 10
128.58892599999999
 20
93.084686000000005
 30
0.0
 40
0.667184
 50
150.15403699999999
 51
158.19092000000001
  0
ARC
  5
2F
  8
0
 62
     7
 10
129.04619600000001
 20
92.89967
 30
0.0
 40
1.160463
 50
158.09756300000001
 51
164.96231499999999
  0
ARC
  5
30
  8
0
 62
     7
 10
129.74059
 20
92.707377000000008
 30
0.0
 40
1.8809769999999999
 50
164.79341600000001
 51
173.31631200000001
  0
ARC
  5
31
  8
0
 62
     7
 10
130.89775700000001
 20
92.538103000000007
 30
0.0
 40
3.0501649999999998
 50
172.68807100000001
 51
180.21060600000001
  0
LINE
  5
32
  8
0
 62
     7
 10
132.24700000000001
 20
92.526899999999983
 30
0.0
 11
132.24700000000001
 21
93.5274
 31
0.0
  0
LINE
  5
33
  8
0
 62
     7
 10
131.047
 20
92.526899999999983
 30
0.0
 11
131.047
 21
93.5274
 31
0.0
  0
LINE
  5
34
  8
0
 62
     7
 10
132.24700000000001
 20
93.5274
 30
0.0
 11
131.047
 21
93.5274
 31
0.0
  0
LINE
  5
35
  8
0
 62
     7
 10
132.64699999999999
 20
93.226899999999986
 30
0.0
 11
132.24700000000001
 21
93.226899999999986
 31
0.0
  0
LINE
  5
36
  8
0
 62
     7
 10
131.047
 20
93.226899999999986
 30
0.0
 11
130.64699999999999
 21
93.226899999999986
 31
0.0
  0
LINE
  5
37
  8
0
 62
     7
 10
130.64699999999999
 20
92.526899999999983
 30
0.0
 11
130.64699999999999
 21
93.5274
 31
0.0
  0
LINE
  5
38
  8
0
 62
     7
 10
129.44800000000001
 20
92.526899999999983
 30
0.0
 11
129.44800000000001
 21
93.5274
 31
0.0
  0
LINE
  5
39
  8
0
 62
     7
 10
129.047
 20
92.526899999999983
 30
0.0
 11
129.047
 21
93.5274
 31
0.0
  0
LINE
  5
3A
  8
0
 62
     7
 10
130.64699999999999
 20
93.5274
 30
0.0
 11
129.44800000000001
 21
93.5274
 31
0.0
  0
LINE
  5
3B
  8
0
 62
     7
 10
129.047
 20
93.5274
 30
0.0
 11
128.14699999999999
 21
93.5274
 31
0.0
  0
LINE
  5
3C
  8
0
 62
     7
 10
129.44800000000001
 20
93.226899999999986
 30
0.0
 11
129.047
 21
93.226899999999986
 31
0.0
  0
ARC
  5
3D
  8
0
 62
     7
 10
128.14792199999999
 20
91.628912999999997
 30
0.0
 40
0.101795
 50
233.15936800000009
 51
269.671021
  0
ARC
  5
3E
  8
0
 62
     7
 10
128.198893
 20
91.707581000000005
 30
0.0
 40
0.19542
 50
220.88189299999999
 51
235.02939799999999
  0
ARC
  5
3F
  8
0
 62
     7
 10
128.321518
 20
91.814162999999994
 30
0.0
 40
0.35789
 50
209.754997
 51
220.93364800000009
  0
ARC
  5
40
  8
0
 62
     7
 10
128.579161
 20
91.964062999999996
 30
0.0
 40
0.6559619999999999
 50
201.96869899999999
 51
209.95334800000001
  0
ARC
  5
41
  8
0
 62
     7
 10
129.00205700000001
 20
92.136973999999995
 30
0.0
 40
1.112838999999999
 50
196.08873
 51
202.079398
  0
ARC
  5
42
  8
0
 62
     7
 10
129.789084
 20
92.360298
 30
0.0
 40
1.930933
 50
186.279595
 51
195.98404500000001
  0
ARC
  5
43
  8
0
 62
     7
 10
130.92228
 20
92.517398000000014
 30
0.0
 40
3.0746820000000001
 50
179.82305700000001
 51
186.87980899999991
  0
LINE
  5
44
  8
0
 62
     7
 10
132.24700000000001
 20
92.526899999999983
 30
0.0
 11
132.24700000000001
 21
91.527100000000004
 31
0.0
  0
LINE
  5
45
  8
0
 62
     7
 10
131.047
 20
92.526899999999983
 30
0.0
 11
131.047
 21
91.527100000000004
 31
0.0
  0
LINE
  5
46
  8
0
 62
     7
 10
132.24700000000001
 20
91.527100000000004
 30
0.0
 11
131.047
 21
91.527100000000004
 31
0.0
  0
LINE
  5
47
  8
0
 62
     7
 10
132.64699999999999
 20
91.827200000000005
 30
0.0
 11
132.24700000000001
 21
91.827200000000005
 31
0.0
  0
LINE
  5
48
  8
0
 62
     7
 10
131.047
 20
91.827200000000005
 30
0.0
 11
130.64699999999999
 21
91.827200000000005
 31
0.0
  0
LINE
  5
49
  8
0
 62
     7
 10
130.64699999999999
 20
92.526899999999983
 30
0.0
 11
130.64699999999999
 21
91.527100000000004
 31
0.0
  0
LINE
  5
4A
  8
0
 62
     7
 10
129.44800000000001
 20
92.526899999999983
 30
0.0
 11
129.44800000000001
 21
91.527100000000004
 31
0.0
  0
LINE
  5
4B
  8
0
 62
     7
 10
129.047
 20
92.526899999999983
 30
0.0
 11
129.047
 21
91.527100000000004
 31
0.0
  0
LINE
  5
4C
  8
0
 62
     7
 10
130.64699999999999
 20
91.527100000000004
 30
0.0
 11
129.44800000000001
 21
91.527100000000004
 31
0.0
  0
LINE
  5
4D
  8
0
 62
     7
 10
129.047
 20
91.527100000000004
 30
0.0
 11
128.14699999999999
 21
91.527100000000004
 31
0.0
  0
LINE
  5
4E
  8
0
 62
     7
 10
129.44800000000001
 20
91.827200000000005
 30
0.0
 11
129.047
 21
91.827200000000005
 31
0.0
  0
LINE
  5
4F
  8
0
 62
     7
 10
83.362700000000004
 20
168.34899999999999
 30
0.0
 11
83.860699999999994
 21
168.393
 31
0.0
  0
LINE
  5
50
  8
0
 62
     7
 10
85.853200000000015
 20
168.56700000000001
 30
0.0
 11
89.340000000000003
 21
168.87100000000001
 31
0.0
  0
LINE
  5
51
  8
0
 62
     7
 10
86.024600000000007
 20
163.161
 30
0.0
 11
89.810199999999995
 21
163.49199999999999
 31
0.0
  0
LINE
  5
52
  8
0
 62
     7
 10
89.810199999999995
 20
163.49199999999999
 30
0.0
 11
89.862399999999994
 21
162.89400000000001
 31
0.0
  0
LINE
  5
53
  8
0
 62
     7
 10
89.862399999999994
 20
162.89400000000001
 30
0.0
 11
86.076800000000006
 21
162.56299999999999
 31
0.0
  0
LINE
  5
54
  8
0
 62
     7
 10
84.682199999999995
 20
162.441
 30
0.0
 11
83.885199999999983
 21
162.37200000000001
 31
0.0
  0
LINE
  5
55
  8
0
 62
     7
 10
83.885199999999983
 20
162.37200000000001
 30
0.0
 11
83.832999999999998
 21
162.96899999999999
 31
0.0
  0
LINE
  5
56
  8
0
 62
     7
 10
83.832999999999998
 20
162.96899999999999
 30
0.0
 11
84.629999999999995
 21
163.03899999999999
 31
0.0
  0
LINE
  5
57
  8
0
 62
     7
 10
83.8733
 20
169.39699999999999
 30
0.0
 11
83.853999999999999
 21
169.61799999999999
 31
0.0
  0
LINE
  5
58
  8
0
 62
     7
 10
88.218599999999995
 20
177.10499999999999
 30
0.0
 11
88.593100000000007
 21
172.821
 31
0.0
  0
LINE
  5
59
  8
0
 62
     7
 10
89.114500000000007
 20
169.15299999999999
 30
0.0
 11
85.842500000000001
 21
168.68899999999999
 31
0.0
  0
LINE
  5
5A
  8
0
 62
     7
 10
83.859300000000005
 20
168.4079999999999
 30
0.0
 11
83.562000000000012
 21
168.36600000000001
 31
0.0
  0
LINE
  5
5B
  8
0
 62
     7
 10
89.079700000000003
 20
169.55099999999999
 30
0.0
 11
85.807699999999997
 21
169.08799999999999
 31
0.0
  0
LINE
  5
5C
  8
0
 62
     7
 10
83.8245
 20
168.80699999999999
 30
0.0
 11
83.527000000000001
 21
168.76499999999999
 31
0.0
  0
LINE
  5
5D
  8
0
 62
     7
 10
89.044899999999998
 20
169.94999999999999
 30
0.0
 11
85.7727
 21
169.48599999999999
 31
0.0
  0
LINE
  5
5E
  8
0
 62
     7
 10
83.789699999999996
 20
169.20500000000001
 30
0.0
 11
83.492199999999997
 21
169.16300000000001
 31
0.0
  0
LINE
  5
5F
  8
0
 62
     7
 10
89.010099999999994
 20
170.34800000000001
 30
0.0
 11
85.4405
 21
169.84299999999999
 31
0.0
  0
LINE
  5
60
  8
0
 62
     7
 10
84.052400000000006
 20
169.64599999999999
 30
0.0
 11
83.457400000000007
 21
169.56200000000001
 31
0.0
  0
LINE
  5
61
  8
0
 62
     7
 10
88.975099999999998
 20
170.74700000000001
 30
0.0
 11
85.770700000000005
 21
170.29300000000001
 31
0.0
  0
LINE
  5
62
  8
0
 62
     7
 10
83.675899999999984
 20
169.99600000000001
 30
0.0
 11
83.422700000000006
 21
169.96000000000001
 31
0.0
  0
LINE
  5
63
  8
0
 62
     7
 10
88.940399999999997
 20
171.14500000000001
 30
0.0
 11
85.819199999999995
 21
170.703
 31
0.0
  0
LINE
  5
64
  8
0
 62
     7
 10
83.559299999999979
 20
170.38300000000001
 30
0.0
 11
83.387699999999995
 21
170.35900000000001
 31
0.0
  0
LINE
  5
65
  8
0
 62
     7
 10
88.905600000000007
 20
171.54400000000001
 30
0.0
 11
85.867999999999995
 21
171.113
 31
0.0
  0
LINE
  5
66
  8
0
 62
     7
 10
83.442800000000005
 20
170.77000000000001
 30
0.0
 11
83.352900000000005
 21
170.75700000000001
 31
0.0
  0
LINE
  5
67
  8
0
 62
     7
 10
88.870800000000003
 20
171.94200000000001
 30
0.0
 11
85.916700000000006
 21
171.524
 31
0.0
  0
LINE
  5
69
  8
0
 62
     7
 10
83.449900000000014
 20
167.35299999999989
 30
0.0
 11
83.362700000000004
 21
168.34899999999999
 31
0.0
  0
LINE
  5
6A
  8
0
 62
     7
 10
89.400800000000004
 20
168.17400000000001
 30
0.0
 11
89.339799999999997
 21
168.87100000000001
 31
0.0
  0
LINE
  5
6B
  8
0
 62
     7
 10
89.723100000000002
 20
164.488
 30
0.0
 11
89.400800000000004
 21
168.17400000000001
 31
0.0
  0
LINE
  5
6C
  8
0
 62
     7
 10
83.745999999999995
 20
163.96600000000001
 30
0.0
 11
83.449900000000014
 21
167.35299999999989
 31
0.0
  0
LINE
  5
6D
  8
0
 62
     7
 10
83.562000000000012
 20
168.36600000000001
 30
0.0
 11
83.314599999999984
 21
171.19499999999999
 31
0.0
  0
LINE
  5
6E
  8
0
 62
     7
 10
88.717999999999975
 20
169.09700000000001
 30
0.0
 11
88.683199999999999
 21
169.495
 31
0.0
  0
LINE
  5
6F
  8
0
 62
     7
 10
88.648199999999989
 20
169.89400000000001
 30
0.0
 11
88.613399999999999
 21
170.292
 31
0.0
  0
LINE
  5
70
  8
0
 62
     7
 10
88.578599999999994
 20
170.69099999999989
 30
0.0
 11
88.543800000000005
 21
171.089
 31
0.0
  0
LINE
  5
71
  8
0
 62
     7
 10
88.508899999999997
 20
171.488
 30
0.0
 11
88.474100000000007
 21
171.886
 31
0.0
  0
LINE
  5
73
  8
0
 62
     7
 10
89.140699999999995
 20
168.85400000000001
 30
0.0
 11
88.792400000000015
 21
172.839
 31
0.0
  0
LINE
  5
74
  8
0
 62
     7
 10
83.693600000000004
 20
164.56299999999999
 30
0.0
 11
84.487199999999987
 21
164.673
 31
0.0
  0
LINE
  5
75
  8
0
 62
     7
 10
85.875699999999995
 20
164.864
 30
0.0
 11
89.6447
 21
165.38499999999999
 31
0.0
  0
LINE
  5
76
  8
0
 62
     7
 10
83.658799999999999
 20
164.96199999999999
 30
0.0
 11
84.452200000000005
 21
165.071
 31
0.0
  0
LINE
  5
77
  8
0
 62
     7
 10
85.925200000000004
 20
165.27500000000001
 30
0.0
 11
89.609899999999996
 21
165.78299999999999
 31
0.0
  0
LINE
  5
78
  8
0
 62
     7
 10
83.623999999999995
 20
165.36000000000001
 30
0.0
 11
84.119900000000015
 21
165.429
 31
0.0
  0
LINE
  5
79
  8
0
 62
     7
 10
86.1036
 20
165.702
 30
0.0
 11
89.575100000000006
 21
166.18199999999999
 31
0.0
  0
LINE
  5
7A
  8
0
 62
     7
 10
83.589200000000005
 20
165.75899999999999
 30
0.0
 11
84.084999999999994
 21
165.827
 31
0.0
  0
LINE
  5
7B
  8
0
 62
     7
 10
86.068700000000007
 20
166.101
 30
0.0
 11
89.540099999999995
 21
166.58000000000001
 31
0.0
  0
LINE
  5
7C
  8
0
 62
     7
 10
83.554299999999998
 20
166.15700000000001
 30
0.0
 11
84.347800000000007
 21
166.267
 31
0.0
  0
LINE
  5
7D
  8
0
 62
     7
 10
85.736400000000003
 20
166.458
 30
0.0
 11
89.505399999999995
 21
166.97900000000001
 31
0.0
  0
LINE
  5
7E
  8
0
 62
     7
 10
83.519499999999994
 20
166.55600000000001
 30
0.0
 11
84.0154
 21
166.624
 31
0.0
  0
LINE
  5
7F
  8
0
 62
     7
 10
85.999099999999984
 20
166.898
 30
0.0
 11
89.470600000000005
 21
167.37700000000001
 31
0.0
  0
LINE
  5
80
  8
0
 62
     7
 10
83.484700000000004
 20
166.95400000000001
 30
0.0
 11
83.980599999999995
 21
167.023
 31
0.0
  0
LINE
  5
81
  8
0
 62
     7
 10
85.964299999999994
 20
167.29599999999999
 30
0.0
 11
89.4358
 21
167.77600000000001
 31
0.0
  0
LINE
  5
82
  8
0
 62
     7
 10
83.449900000000014
 20
167.35299999999989
 30
0.0
 11
83.945599999999999
 21
167.42099999999999
 31
0.0
  0
LINE
  5
83
  8
0
 62
     7
 10
85.929500000000004
 20
167.69499999999999
 30
0.0
 11
89.400800000000004
 21
168.17400000000001
 31
0.0
  0
LINE
  5
84
  8
0
 62
     7
 10
83.745999999999995
 20
163.96600000000001
 30
0.0
 11
84.5428
 21
164.035
 31
0.0
  0
LINE
  5
85
  8
0
 62
     7
 10
85.937399999999997
 20
164.15700000000001
 30
0.0
 11
89.723100000000002
 21
164.488
 31
0.0
  0
LINE
  5
86
  8
0
 62
     7
 10
86.002899999999997
 20
172.595
 30
0.0
 11
88.792400000000015
 21
172.839
 31
0.0
  0
LINE
  5
87
  8
0
 62
     7
 10
83.846599999999995
 20
167.40700000000001
 30
0.0
 11
83.881399999999985
 21
167.00899999999999
 31
0.0
  0
LINE
  5
88
  8
0
 62
     7
 10
83.916200000000003
 20
166.61099999999999
 30
0.0
 11
83.951000000000008
 21
166.21199999999999
 31
0.0
  0
LINE
  5
89
  8
0
 62
     7
 10
83.985900000000001
 20
165.81299999999999
 30
0.0
 11
84.020700000000005
 21
165.41499999999999
 31
0.0
  0
LINE
  5
8A
  8
0
 62
     7
 10
84.055499999999995
 20
165.01599999999999
 30
0.0
 11
84.090299999999985
 21
164.61799999999999
 31
0.0
  0
LINE
  5
8B
  8
0
 62
     7
 10
83.945099999999996
 20
163.983
 30
0.0
 11
84.032300000000006
 21
162.98699999999999
 31
0.0
  0
LINE
  5
8C
  8
0
 62
     7
 10
84.084500000000006
 20
162.38900000000001
 30
0.0
 11
85.700699999999983
 21
143.90299999999999
 31
0.0
  0
LINE
  5
8D
  8
0
 62
     7
 10
89.004099999999994
 20
168.119
 30
0.0
 11
89.038899999999998
 21
167.721
 31
0.0
  0
LINE
  5
8E
  8
0
 62
     7
 10
89.073899999999995
 20
167.322
 30
0.0
 11
89.108599999999996
 21
166.92400000000001
 31
0.0
  0
LINE
  5
8F
  8
0
 62
     7
 10
89.143400000000014
 20
166.52500000000001
 30
0.0
 11
89.178200000000004
 21
166.12700000000001
 31
0.0
  0
LINE
  5
90
  8
0
 62
     7
 10
89.213199999999986
 20
165.72800000000001
 30
0.0
 11
89.24799999999999
 21
165.33000000000001
 31
0.0
  0
LINE
  5
91
  8
0
 62
     7
 10
89.524000000000001
 20
164.471
 30
0.0
 11
89.610900000000001
 21
163.47399999999999
 31
0.0
  0
LINE
  5
92
  8
0
 62
     7
 10
89.663300000000007
 20
162.87700000000001
 30
0.0
 11
91.279399999999995
 21
144.38999999999999
 31
0.0
  0
ARC
  5
93
  8
0
 62
     7
 10
84.912396999999984
 20
176.813481
 30
0.0
 40
0.7189560000000002
 50
5.2041300000000001
 51
43.444121000000003
  0
ARC
  5
94
  8
0
 62
     7
 10
84.634073000000001
 20
176.58952500000001
 30
0.0
 40
1.07542
 50
41.910241999999997
 51
60.983696999999999
  0
ARC
  5
95
  8
0
 62
     7
 10
84.360664999999997
 20
176.13955300000001
 30
0.0
 40
1.6016669999999991
 50
60.238650999999997
 51
81.371492000000003
  0
ARC
  5
96
  8
0
 62
     7
 10
84.243177000000017
 20
175.62191300000001
 30
0.0
 40
2.131422999999999
 50
80.336546999999996
 51
95.283463999999995
  0
ARC
  5
97
  8
0
 62
     7
 10
85.740127999999999
 20
180.366691
 30
0.0
 40
0.4153150000000001
 50
187.07418799999999
 51
272.90807799999999
  0
ARC
  5
98
  8
0
 62
     7
 10
85.072401999999997
 20
188.00714500000001
 30
0.0
 40
0.415707
 50
97.100684999999984
 51
182.85483600000001
  0
ARC
  5
99
  8
0
 62
     7
 10
81.817902000000004
 20
190.78462400000001
 30
0.0
 40
0.415311
 50
97.073693000000006
 51
182.90855300000001
  0
ARC
  5
9A
  8
0
 62
     7
 10
89.189008000000015
 20
177.39834500000001
 30
0.0
 40
0.207747
 50
277.11975799999999
 51
2.9116529999999989
  0
ARC
  5
9B
  8
0
 62
     7
 10
88.424779000000001
 20
177.13100700000001
 30
0.0
 40
0.207956
 50
187.12582499999999
 51
272.852149
  0
ARC
  5
9C
  8
0
 62
     7
 10
87.953755999999984
 20
191.52936299999999
 30
0.0
 40
0.207702
 50
7.1083339999999993
 51
92.923057000000014
  0
ARC
  5
9D
  8
0
 62
     7
 10
87.15455
 20
191.66030599999999
 30
0.0
 40
0.207808
 50
97.135253000000006
 51
182.89615800000001
  0
ARC
  5
9E
  8
0
 62
     7
 10
87.232754
 20
190.76369600000001
 30
0.0
 40
0.207634
 50
97.093103999999997
 51
182.893438
  0
LINE
  5
9F
  8
0
 62
     7
 10
84.657200000000003
 20
187.98599999999999
 30
0.0
 11
85.327999999999989
 21
180.316
 31
0.0
  0
LINE
  5
A0
  8
0
 62
     7
 10
85.761200000000017
 20
179.952
 30
0.0
 11
87.952999999999989
 21
180.14400000000001
 31
0.0
  0
LINE
  5
A1
  8
0
 62
     7
 10
85.021000000000001
 20
188.41999999999999
 30
0.0
 11
87.212599999999995
 21
188.61099999999999
 31
0.0
  0
LINE
  5
A2
  8
0
 62
     7
 10
87.506
 20
190.99600000000001
 30
0.0
 11
87.444999999999993
 21
191.6929999999999
 31
0.0
  0
LINE
  5
A3
  8
0
 62
     7
 10
87.207099999999997
 20
190.97
 30
0.0
 11
87.506
 21
190.99600000000001
 31
0.0
  0
LINE
  5
A4
  8
0
 62
     7
 10
85.628399999999985
 20
176.87899999999999
 30
0.0
 11
88.218599999999995
 21
177.10499999999999
 31
0.0
  0
LINE
  5
A5
  8
0
 62
     7
 10
84.146600000000007
 20
177.75299999999999
 30
0.0
 11
88.131399999999999
 21
178.101
 31
0.0
  0
LINE
  5
A6
  8
0
 62
     7
 10
81.766800000000003
 20
191.197
 30
0.0
 11
87.444999999999993
 21
191.6929999999999
 31
0.0
  0
LINE
  5
A7
  8
0
 62
     7
 10
88.435100000000006
 20
176.923
 30
0.0
 11
89.232200000000006
 21
176.99299999999999
 31
0.0
  0
LINE
  5
A8
  8
0
 62
     7
 10
87.128699999999995
 20
191.86699999999999
 30
0.0
 11
87.925799999999995
 21
191.93599999999989
 31
0.0
  0
LINE
  5
A9
  8
0
 62
     7
 10
81.403099999999995
 20
190.76400000000001
 30
0.0
 11
83.031599999999997
 21
172.13399999999999
 31
0.0
  0
LINE
  5
AA
  8
0
 62
     7
 10
87.025400000000005
 20
190.75299999999999
 30
0.0
 11
88.218599999999995
 21
177.10499999999999
 31
0.0
  0
LINE
  5
AB
  8
0
 62
     7
 10
87.925799999999995
 20
191.93599999999989
 30
0.0
 11
89.232200000000006
 21
176.99299999999999
 31
0.0
  0
LINE
  5
AC
  8
0
 62
     7
 10
88.159899999999993
 20
191.55500000000001
 30
0.0
 11
89.396500000000003
 21
177.40899999999999
 31
0.0
  0
LINE
  5
AD
  8
0
 62
     7
 10
86.879699999999985
 20
173.47499999999999
 30
0.0
 11
86.875200000000007
 21
173.52500000000001
 31
0.0
  0
ARC
  5
AE
  8
0
 62
     7
 10
86.775885000000002
 20
173.469506
 30
0.0
 40
0.103903
 50
277.087424
 51
2.89053
  0
LINE
  5
AF
  8
0
 62
     7
 10
86.844700000000003
 20
173.87299999999999
 30
0.0
 11
86.849199999999996
 21
173.82299999999989
 31
0.0
  0
ARC
  5
B0
  8
0
 62
     7
 10
84.406894999999992
 20
174.15826899999999
 30
0.0
 40
0.103822
 50
7.0455639999999988
 51
92.932369999999963
  0
ARC
  5
B1
  8
0
 62
     7
 10
84.528196999999992
 20
172.77094299999999
 30
0.0
 40
0.103828
 50
277.04905600000001
 51
2.9288979999999989
  0
ARC
  5
B2
  8
0
 62
     7
 10
83.645443
 20
173.19571999999999
 30
0.0
 40
0.103861
 50
187.06563499999999
 51
272.91233799999998
  0
ARC
  5
B3
  8
0
 62
     7
 10
86.741823999999994
 20
173.860635
 30
0.0
 40
0.103626
 50
6.9497590000000002
 51
92.938379000000012
  0
ARC
  5
B4
  8
0
 62
     7
 10
83.611241000000007
 20
173.58672100000001
 30
0.0
 40
0.103803
 50
97.131170999999995
 51
182.9537399999999
  0
ARC
  5
B5
  8
0
 62
     7
 10
84.314891999999986
 20
174.15001599999999
 30
0.0
 40
0.103954
 50
97.113309000000001
 51
182.864645
  0
ARC
  5
B6
  8
0
 62
     7
 10
84.436083999999994
 20
172.76302200000001
 30
0.0
 40
0.10387
 50
187.165538
 51
272.91939200000002
  0
LINE
  5
B7
  8
0
 62
     7
 10
84.298199999999994
 20
173.149
 30
0.0
 11
83.650700000000015
 21
173.09200000000001
 31
0.0
  0
LINE
  5
B8
  8
0
 62
     7
 10
83.542400000000001
 20
173.18299999999999
 30
0.0
 11
83.507599999999996
 21
173.58099999999999
 31
0.0
  0
LINE
  5
B9
  8
0
 62
     7
 10
83.598399999999998
 20
173.69
 30
0.0
 11
84.245900000000006
 21
173.74600000000001
 31
0.0
  0
LINE
  5
BA
  8
0
 62
     7
 10
86.788700000000006
 20
173.36600000000001
 30
0.0
 11
84.597099999999983
 21
173.17500000000001
 31
0.0
  0
LINE
  5
BB
  8
0
 62
     7
 10
84.597099999999983
 20
173.17500000000001
 30
0.0
 11
84.544700000000006
 21
173.773
 31
0.0
  0
LINE
  5
BC
  8
0
 62
     7
 10
84.544700000000006
 20
173.773
 30
0.0
 11
86.736500000000007
 21
173.964
 31
0.0
  0
LINE
  5
BD
  8
0
 62
     7
 10
87.672200000000004
 20
173.59399999999999
 30
0.0
 11
85.480599999999995
 21
173.40299999999999
 31
0.0
  0
LINE
  5
BE
  8
0
 62
     7
 10
85.480599999999995
 20
173.40299999999999
 30
0.0
 11
85.454400000000007
 21
173.70099999999999
 31
0.0
  0
LINE
  5
BF
  8
0
 62
     7
 10
85.454400000000007
 20
173.70099999999999
 30
0.0
 11
87.646199999999979
 21
173.893
 31
0.0
  0
LINE
  5
C0
  8
0
 62
     7
 10
87.646199999999979
 20
173.893
 30
0.0
 11
87.672200000000004
 21
173.59399999999999
 31
0.0
  0
ARC
  5
C1
  8
0
 62
     7
 10
84.231858000000003
 20
165.313457
 30
0.0
 40
0.10149
 50
185.271185
 51
221.895669
  0
ARC
  5
C2
  8
0
 62
     7
 10
84.307296999999977
 20
165.37248399999999
 30
0.0
 40
0.197166
 50
220.02402900000001
 51
234.045794
  0
ARC
  5
C3
  8
0
 62
     7
 10
84.402622999999977
 20
165.504301
 30
0.0
 40
0.35984
 50
234.082323
 51
245.20103599999999
  0
ARC
  5
C4
  8
0
 62
     7
 10
84.528875999999997
 20
165.772942
 30
0.0
 40
0.656666
 50
245.03247799999991
 51
253.00984099999999
  0
ARC
  5
C5
  8
0
 62
     7
 10
84.664073000000002
 20
166.20829699999999
 30
0.0
 40
1.112527
 50
252.902548
 51
258.89506899999998
  0
ARC
  5
C6
  8
0
 62
     7
 10
84.817980000000006
 20
167.00945200000001
 30
0.0
 40
1.9283279999999989
 50
258.99261799999999
 51
268.71250600000002
  0
ARC
  5
C7
  8
0
 62
     7
 10
84.876460999999992
 20
168.145456
 30
0.0
 40
3.0655359999999998
 50
268.09680900000001
 51
275.178179
  0
LINE
  5
C8
  8
0
 62
     7
 10
83.738699999999994
 20
169.78700000000001
 30
0.0
 11
83.031599999999997
 21
172.13399999999999
 31
0.0
  0
LINE
  5
C9
  8
0
 62
     7
 10
84.540899999999979
 20
172.66800000000001
 30
0.0
 11
84.441400000000002
 21
172.65899999999999
 31
0.0
  0
LINE
  5
CA
  8
0
 62
     7
 10
84.401600000000002
 20
174.262
 30
0.0
 11
84.302000000000007
 21
174.25299999999999
 31
0.0
  0
LINE
  5
CB
  8
0
 62
     7
 10
84.332999999999998
 20
172.75
 30
0.0
 11
84.211100000000002
 21
174.14500000000001
 31
0.0
  0
LINE
  5
CC
  8
0
 62
     7
 10
84.631900000000002
 20
172.77600000000001
 30
0.0
 11
84.509900000000002
 21
174.17099999999999
 31
0.0
  0
LINE
  5
CD
  8
0
 62
     7
 10
84.526000000000025
 20
172.2649999999999
 30
0.0
 11
83.031599999999997
 21
172.13399999999999
 31
0.0
  0
LINE
  5
CE
  8
0
 62
     7
 10
84.735100000000003
 20
169.874
 30
0.0
 11
83.738699999999994
 21
169.78700000000001
 31
0.0
  0
LINE
  5
CF
  8
0
 62
     7
 10
84.769900000000007
 20
169.476
 30
0.0
 11
83.773700000000005
 21
169.38900000000001
 31
0.0
  0
LINE
  5
D0
  8
0
 62
     7
 10
84.874399999999994
 20
168.28
 30
0.0
 11
83.878099999999989
 21
168.19300000000001
 31
0.0
  0
LINE
  5
D1
  8
0
 62
     7
 10
83.773700000000005
 20
169.38900000000001
 30
0.0
 11
83.878099999999989
 21
168.19300000000001
 31
0.0
  0
LINE
  5
D2
  8
0
 62
     7
 10
84.037800000000004
 20
169.81299999999999
 30
0.0
 11
84.072599999999994
 21
169.41499999999999
 31
0.0
  0
LINE
  5
D3
  8
0
 62
     7
 10
84.177099999999996
 20
168.21899999999999
 30
0.0
 11
84.211900000000014
 21
167.821
 31
0.0
  0
LINE
  5
D4
  8
0
 62
     7
 10
84.909199999999998
 20
167.88200000000001
 30
0.0
 11
83.9131
 21
167.79499999999999
 31
0.0
  0
LINE
  5
D5
  8
0
 62
     7
 10
85.013800000000003
 20
166.68599999999989
 30
0.0
 11
84.017499999999984
 21
166.59899999999999
 31
0.0
  0
LINE
  5
D6
  8
0
 62
     7
 10
85.048599999999979
 20
166.28800000000001
 30
0.0
 11
84.052400000000006
 21
166.20099999999999
 31
0.0
  0
LINE
  5
D7
  8
0
 62
     7
 10
83.9131
 20
167.79499999999999
 30
0.0
 11
84.017499999999984
 21
166.59899999999999
 31
0.0
  0
LINE
  5
D8
  8
0
 62
     7
 10
84.052400000000006
 20
166.20099999999999
 30
0.0
 11
84.130799999999994
 21
165.304
 31
0.0
  0
LINE
  5
D9
  8
0
 62
     7
 10
84.316500000000005
 20
166.625
 30
0.0
 11
84.351299999999995
 21
166.227
 31
0.0
  0
LINE
  5
DA
  8
0
 62
     7
 10
84.448300000000003
 20
165.11699999999999
 30
0.0
 11
86.134500000000003
 21
145.83099999999999
 31
0.0
  0
ARC
  5
DB
  8
0
 62
     7
 10
86.021945000000017
 20
165.47002900000001
 30
0.0
 40
0.101514
 50
328.11753499999998
 51
4.7616849999999991
  0
ARC
  5
DC
  8
0
 62
     7
 10
85.938424999999995
 20
165.51422700000001
 30
0.0
 40
0.195888
 50
315.92462699999999
 51
330.04348999999991
  0
ARC
  5
DD
  8
0
 62
     7
 10
85.820969999999988
 20
165.627793
 30
0.0
 40
0.359268
 50
304.803245
 51
315.94268699999998
  0
ARC
  5
DE
  8
0
 62
     7
 10
85.650644999999997
 20
165.86916099999999
 30
0.0
 40
0.6546770000000001
 50
296.98387100000002
 51
304.98649499999999
  0
ARC
  5
DF
  8
0
 62
     7
 10
85.441958
 20
166.27380700000001
 30
0.0
 40
1.1099629999999989
 50
291.09906000000001
 51
297.10593299999999
  0
ARC
  5
E0
  8
0
 62
     7
 10
85.150563000000005
 20
167.037824
 30
0.0
 40
1.927659
 50
281.28178000000003
 51
291.00476600000002
  0
ARC
  5
E1
  8
0
 62
     7
 10
84.896060000000006
 20
168.1468689999999
 30
0.0
 40
3.0652369999999989
 50
274.810947
 51
281.89149300000003
  0
LINE
  5
E2
  8
0
 62
     7
 10
85.731200000000015
 20
169.96100000000001
 30
0.0
 11
86.020300000000006
 21
172.39599999999999
 31
0.0
  0
LINE
  5
E3
  8
0
 62
     7
 10
86.020300000000006
 20
172.39599999999999
 30
0.0
 11
85.941900000000004
 21
173.292
 31
0.0
  0
LINE
  5
E4
  8
0
 62
     7
 10
85.889700000000005
 20
173.88999999999999
 30
0.0
 11
85.628399999999985
 21
176.87899999999999
 31
0.0
  0
LINE
  5
E5
  8
0
 62
     7
 10
84.526000000000025
 20
172.2649999999999
 30
0.0
 11
86.020300000000006
 21
172.39599999999999
 31
0.0
  0
LINE
  5
E6
  8
0
 62
     7
 10
84.735100000000003
 20
169.874
 30
0.0
 11
85.731200000000015
 21
169.96100000000001
 31
0.0
  0
LINE
  5
E7
  8
0
 62
     7
 10
84.769900000000007
 20
169.476
 30
0.0
 11
85.766000000000005
 21
169.56299999999999
 31
0.0
  0
LINE
  5
E8
  8
0
 62
     7
 10
84.874399999999994
 20
168.28
 30
0.0
 11
85.870599999999996
 21
168.36699999999999
 31
0.0
  0
LINE
  5
E9
  8
0
 62
     7
 10
85.766000000000005
 20
169.56299999999999
 30
0.0
 11
85.870599999999996
 21
168.36699999999999
 31
0.0
  0
LINE
  5
EA
  8
0
 62
     7
 10
85.432400000000001
 20
169.935
 30
0.0
 11
85.467200000000005
 21
169.53700000000001
 31
0.0
  0
LINE
  5
EB
  8
0
 62
     7
 10
85.571700000000007
 20
168.34100000000001
 30
0.0
 11
85.606499999999997
 21
167.94300000000001
 31
0.0
  0
LINE
  5
EC
  8
0
 62
     7
 10
84.909199999999998
 20
167.88200000000001
 30
0.0
 11
85.9054
 21
167.96899999999999
 31
0.0
  0
LINE
  5
ED
  8
0
 62
     7
 10
85.013800000000003
 20
166.68599999999989
 30
0.0
 11
86.009900000000016
 21
166.773
 31
0.0
  0
LINE
  5
EE
  8
0
 62
     7
 10
85.048599999999979
 20
166.28800000000001
 30
0.0
 11
86.044700000000006
 21
166.375
 31
0.0
  0
LINE
  5
EF
  8
0
 62
     7
 10
85.9054
 20
167.96899999999999
 30
0.0
 11
86.009900000000016
 21
166.773
 31
0.0
  0
LINE
  5
F0
  8
0
 62
     7
 10
86.044700000000006
 20
166.375
 30
0.0
 11
86.123099999999994
 21
165.47800000000001
 31
0.0
  0
LINE
  5
F1
  8
0
 62
     7
 10
85.711100000000002
 20
166.74700000000001
 30
0.0
 11
85.745900000000006
 21
166.34899999999999
 31
0.0
  0
LINE
  5
F2
  8
0
 62
     7
 10
85.842799999999997
 20
165.239
 30
0.0
 11
87.529099999999985
 21
145.953
 31
0.0
  0
LINE
  5
F3
  8
0
 62
     7
 10
85.461299999999994
 20
139.66499999999999
 30
0.0
 11
85.094899999999996
 21
143.84899999999999
 31
0.0
  0
LINE
  5
F4
  8
0
 62
     7
 10
85.094899999999996
 20
143.84899999999999
 30
0.0
 11
86.209900000000005
 21
143.947
 31
0.0
  0
LINE
  5
F5
  8
0
 62
     7
 10
87.596900000000005
 20
144.06800000000001
 30
0.0
 11
88.482000000000014
 21
144.14599999999999
 31
0.0
  0
LINE
  5
F6
  8
0
 62
     7
 10
86.438299999999984
 20
134.12899999999999
 30
0.0
 11
89.335999999999999
 21
134.38300000000001
 31
0.0
  0
LINE
  5
F7
  8
0
 62
     7
 10
85.420500000000004
 20
135.53700000000001
 30
0.0
 11
85.062399999999997
 21
139.631
 31
0.0
  0
LINE
  5
F8
  8
0
 62
     7
 10
85.062399999999997
 20
139.631
 30
0.0
 11
86.013400000000004
 21
139.714
 31
0.0
  0
LINE
  5
F9
  8
0
 62
     7
 10
87.356800000000007
 20
139.83099999999999
 30
0.0
 11
88.847899999999996
 21
139.96199999999999
 31
0.0
  0
LINE
  5
FA
  8
0
 62
     7
 10
88.482000000000014
 20
144.14599999999999
 30
0.0
 11
91.868899999999996
 21
144.44200000000001
 31
0.0
  0
LINE
  5
FB
  8
0
 62
     7
 10
163.898
 20
197.54499999999999
 30
0.0
 11
164.19300000000001
 21
197.57499999999999
 31
0.0
  0
LINE
  5
FC
  8
0
 62
     7
 10
162.63999999999999
 20
198.13099999999989
 30
0.0
 11
162.47300000000001
 21
198.37700000000001
 31
0.0
  0
LINE
  5
FD
  8
0
 62
     7
 10
166.78599999999989
 20
194.65199999999999
 30
0.0
 11
167.05600000000001
 21
194.53100000000001
 31
0.0
  0
LINE
  5
FE
  8
0
 62
     7
 10
165.99000000000001
 20
195.78899999999999
 30
0.0
 11
165.96899999999999
 21
196.08500000000001
 31
0.0
  0
LINE
  5
FF
  8
0
 62
     7
 10
167.84099999999989
 20
190.703
 30
0.0
 11
168.01499999999999
 21
190.46199999999999
 31
0.0
  0
LINE
  5
100
  8
0
 62
     7
 10
167.72
 20
192.08500000000001
 30
0.0
 11
167.84999999999999
 21
192.352
 31
0.0
  0
LINE
  5
101
  8
0
 62
     7
 10
166.78
 20
186.755
 30
0.0
 11
166.81099999999989
 21
186.46000000000001
 31
0.0
  0
LINE
  5
102
  8
0
 62
     7
 10
167.36699999999999
 20
188.01300000000001
 30
0.0
 11
167.61199999999999
 21
188.179
 31
0.0
  0
LINE
  5
103
  8
0
 62
     7
 10
163.88800000000001
 20
183.86699999999999
 30
0.0
 11
163.76599999999999
 21
183.596
 31
0.0
  0
LINE
  5
104
  8
0
 62
     7
 10
165.02500000000001
 20
184.66300000000001
 30
0.0
 11
165.31999999999999
 21
184.684
 31
0.0
  0
LINE
  5
105
  8
0
 62
     7
 10
159.93899999999999
 20
182.81200000000001
 30
0.0
 11
159.69800000000001
 21
182.63800000000001
 31
0.0
  0
LINE
  5
106
  8
0
 62
     7
 10
161.321
 20
182.93199999999999
 30
0.0
 11
161.58799999999999
 21
182.803
 31
0.0
  0
LINE
  5
107
  8
0
 62
     7
 10
155.99100000000001
 20
183.87200000000001
 30
0.0
 11
155.696
 21
183.84200000000001
 31
0.0
  0
LINE
  5
108
  8
0
 62
     7
 10
157.249
 20
183.28599999999989
 30
0.0
 11
157.41499999999999
 21
183.03999999999999
 31
0.0
  0
LINE
  5
109
  8
0
 62
     7
 10
153.10300000000001
 20
186.76499999999999
 30
0.0
 11
152.83199999999999
 21
186.886
 31
0.0
  0
LINE
  5
10A
  8
0
 62
     7
 10
153.899
 20
185.62799999999999
 30
0.0
 11
153.91999999999999
 21
185.33199999999999
 31
0.0
  0
LINE
  5
10B
  8
0
 62
     7
 10
152.047
 20
190.714
 30
0.0
 11
151.874
 21
190.95400000000001
 31
0.0
  0
LINE
  5
10C
  8
0
 62
     7
 10
152.16800000000001
 20
189.33199999999999
 30
0.0
 11
152.03899999999999
 21
189.06399999999999
 31
0.0
  0
LINE
  5
10D
  8
0
 62
     7
 10
153.108
 20
194.66200000000001
 30
0.0
 11
153.078
 21
194.95699999999999
 31
0.0
  0
LINE
  5
10E
  8
0
 62
     7
 10
152.52199999999999
 20
193.404
 30
0.0
 11
152.27600000000001
 21
193.23699999999999
 31
0.0
  0
LINE
  5
10F
  8
0
 62
     7
 10
156.0
 20
197.55000000000001
 30
0.0
 11
156.12200000000001
 21
197.821
 31
0.0
  0
LINE
  5
110
  8
0
 62
     7
 10
154.864
 20
196.75399999999999
 30
0.0
 11
154.56800000000001
 21
196.733
 31
0.0
  0
LINE
  5
111
  8
0
 62
     7
 10
159.94999999999999
 20
198.60499999999999
 30
0.0
 11
160.19
 21
198.779
 31
0.0
  0
LINE
  5
112
  8
0
 62
     7
 10
158.56700000000001
 20
198.48400000000001
 30
0.0
 11
158.30099999999999
 21
198.614
 31
0.0
  0
LINE
  5
113
  8
0
  6
AIGENLINE001
 62
     7
 10
160.798
 20
180.94399999999999
 30
0.0
 11
159.065
 21
200.75899999999999
 31
0.0
  0
LINE
  5
114
  8
0
 62
     7
 10
162.08000000000001
 20
198.53299999999999
 30
0.0
 11
162.238
 21
198.536
 31
0.0
  0
ARC
  5
115
  8
0
 62
     7
 10
162.25256999999999
 20
197.772582
 30
0.0
 40
0.7638050000000001
 50
77.676831000000007
 51
91.081668000000022
  0
ARC
  5
116
  8
0
 62
     7
 10
162.16054500000001
 20
197.27074099999999
 30
0.0
 40
1.273841
 50
69.923507999999998
 51
78.450517000000005
  0
ARC
  5
117
  8
0
 62
     7
 10
161.967578
 20
202.194141
 30
0.0
 40
3.662726999999999
 50
260.030373
 51
271.76460800000001
  0
ARC
  5
118
  8
0
 62
     7
 10
156.26076599999999
 20
180.80068499999999
 30
0.0
 40
18.366517999999999
 50
68.609116
 51
68.929645999999991
  0
ARC
  5
119
  8
0
 62
     7
 10
162.70081200000001
 20
197.518193
 30
0.0
 40
0.451462
 50
68.839102000000011
 51
76.159160000000014
  0
ARC
  5
11A
  8
0
 62
     7
 10
162.50886600000001
 20
196.770082
 30
0.0
 40
1.2237910000000001
 50
75.812441000000007
 51
81.457262999999983
  0
ARC
  5
11B
  8
0
 62
     7
 10
162.22473099999999
 20
194.96511000000001
 30
0.0
 40
3.0509719999999998
 50
81.215755999999985
 51
84.277972999999989
  0
LINE
  5
11C
  8
0
 62
     7
 10
161.26400000000001
 20
198.19300000000001
 30
0.0
 11
161.51900000000001
 21
198.124
 31
0.0
  0
ARC
  5
11D
  8
0
 62
     7
 10
161.862942
 20
199.399126
 30
0.0
 40
1.321204
 50
254.90220600000001
 51
258.996917
  0
ARC
  5
11E
  8
0
 62
     7
 10
162.22621899999999
 20
201.23985500000001
 30
0.0
 40
3.197435
 50
258.90241099999997
 51
262.36705699999999
  0
ARC
  5
11F
  8
0
 62
     7
 10
162.82615000000001
 20
205.63339199999999
 30
0.0
 40
7.6317369999999993
 50
262.28419200000002
 51
264.58455600000002
  0
ARC
  5
120
  8
0
 62
     7
 10
163.63933900000001
 20
214.06983299999999
 30
0.0
 40
16.107275000000001
 50
264.53705100000002
 51
266.04695800000002
  0
LINE
  5
121
  8
0
 62
     7
 10
159.571
 20
198.5
 30
0.0
 11
159.67400000000001
 21
198.50200000000001
 31
0.0
  0
ARC
  5
122
  8
0
 62
     7
 10
159.67092
 20
197.78379799999999
 30
0.0
 40
0.717836
 50
80.946870999999987
 51
89.758075000000005
  0
ARC
  5
123
  8
0
 62
     7
 10
159.424229
 20
196.21960899999999
 30
0.0
 40
2.301358
 50
75.266831999999994
 51
81.009298999999999
  0
ARC
  5
124
  8
0
 62
     7
 10
155.400372
 20
185.497863
 30
0.0
 40
14.279562
 50
68.586520999999991
 51
69.222142000000005
  0
ARC
  5
125
  8
0
 62
     7
 10
160.18680800000001
 20
198.119957
 30
0.0
 40
0.7804090000000001
 50
69.039197999999999
 51
81.957871999999995
  0
ARC
  5
126
  8
0
 62
     7
 10
160.10592299999999
 20
197.63276200000001
 30
0.0
 40
1.2741849999999999
 50
81.421420999999995
 51
90.075435999999982
  0
ARC
  5
127
  8
0
 62
     7
 10
171.06834900000001
 20
317.90419600000001
 30
0.0
 40
120.11205
 50
265.19188800000001
 51
265.31804
  0
ARC
  5
128
  8
0
 62
     7
 10
161.096485
 20
199.38956400000001
 30
0.0
 40
1.178644
 50
260.75403799999998
 51
265.33689900000002
  0
ARC
  5
129
  8
0
 62
     7
 10
161.401815
 20
201.38403500000001
 30
0.0
 40
3.1963169999999992
 50
257.63260700000001
 51
261.09633100000002
  0
ARC
  5
12A
  8
0
 62
     7
 10
162.32391899999999
 20
205.644689
 30
0.0
 40
7.555604999999999
 50
255.398279
 51
257.72238700000003
  0
ARC
  5
12B
  8
0
 62
     7
 10
164.41683499999999
 20
213.735601
 30
0.0
 40
15.912820999999999
 50
253.920727
 51
255.45009099999999
  0
ARC
  5
12C
  8
0
 62
     7
 10
161.95929899999999
 20
202.153087
 30
0.0
 40
3.6207410000000002
 50
248.196519
 51
260.05766499999999
  0
ARC
  5
12D
  8
0
 62
     7
 10
89.400710000000004
 20
58.046201000000011
 30
0.0
 40
158.01588699999999
 50
61.067748999999999
 51
61.125253999999991
  0
ARC
  5
12E
  8
0
 62
     7
 10
165.467037
 20
195.660121
 30
0.0
 40
0.7782420000000001
 50
48.011553000000013
 51
60.957216000000003
  0
ARC
  5
12F
  8
0
 62
     7
 10
165.14335600000001
 20
195.281576
 30
0.0
 40
1.276206999999999
 50
39.940933999999999
 51
48.579658999999999
  0
ARC
  5
130
  8
0
 62
     7
 10
167.442578
 20
199.64645200000001
 30
0.0
 40
3.6667469999999991
 50
230.01910799999999
 51
241.73788999999999
  0
ARC
  5
131
  8
0
 62
     7
 10
141.347264
 20
175.58840599999999
 30
0.0
 40
31.764873999999999
 50
38.656828999999988
 51
38.842483000000001
  0
ARC
  5
132
  8
0
 62
     7
 10
165.733643
 20
195.225044
 30
0.0
 40
0.455242
 50
38.872487
 51
46.392111999999997
  0
ARC
  5
133
  8
0
 62
     7
 10
165.17225400000001
 20
194.64942300000001
 30
0.0
 40
1.259272999999999
 50
45.961139000000003
 51
51.478382000000003
  0
ARC
  5
134
  8
0
 62
     7
 10
164.05566999999999
 20
193.265953
 30
0.0
 40
3.0371060000000001
 50
51.253007999999987
 51
54.275594999999988
  0
ARC
  5
135
  8
0
 62
     7
 10
361.80422199999998
 20
391.32964099999998
 30
0.0
 40
277.03029600000002
 50
224.681881
 51
224.73647099999999
  0
ARC
  5
136
  8
0
 62
     7
 10
165.92910499999999
 20
197.250325
 30
0.0
 40
1.287949
 50
224.802921
 51
229.23983799999999
  0
ARC
  5
137
  8
0
 62
     7
 10
167.236537
 20
198.75037399999999
 30
0.0
 40
3.2777929999999991
 50
229.048631
 51
232.46108000000001
  0
ARC
  5
138
  8
0
 62
     7
 10
170.038984
 20
202.381552
 30
0.0
 40
7.8646349999999998
 50
232.39046300000001
 51
234.70878200000001
  0
ARC
  5
139
  8
0
 62
     7
 10
175.14916700000001
 20
209.57127
 30
0.0
 40
16.685399
 50
234.64927499999999
 51
236.04219699999999
  0
ARC
  5
13A
  8
0
 62
     7
 10
150.30619799999999
 20
173.675082
 30
0.0
 40
27.366776000000002
 50
60.921742000000009
 51
61.136921999999998
  0
ARC
  5
13B
  8
0
 62
     7
 10
163.38023799999999
 20
197.18173999999999
 30
0.0
 40
0.468945
 50
53.849617000000002
 51
61.144553000000002
  0
ARC
  5
13C
  8
0
 62
     7
 10
162.925005
 20
196.549069
 30
0.0
 40
1.248367
 50
48.543769999999988
 51
54.107984999999999
  0
ARC
  5
13D
  8
0
 62
     7
 10
161.74816799999999
 20
195.20036899999999
 30
0.0
 40
3.0383079999999998
 50
45.728952999999997
 51
48.749502
  0
ARC
  5
13E
  8
0
 62
     7
 10
129.44720599999999
 20
169.08622
 30
0.0
 40
45.094321000000001
 50
38.851166999999997
 51
39.052391999999998
  0
ARC
  5
13F
  8
0
 62
     7
 10
163.89326199999999
 20
197.04021
 30
0.0
 40
0.7326930000000002
 50
38.570948000000001
 51
52.333354
  0
ARC
  5
140
  8
0
 62
     7
 10
163.55316400000001
 20
196.632599
 30
0.0
 40
1.263331999999999
 50
51.42004
 51
60.154057999999992
  0
ARC
  5
141
  8
0
 62
     7
 10
98.501886999999996
 20
100.989632
 30
0.0
 40
116.307294
 50
55.230266
 51
55.360530000000011
  0
ARC
  5
142
  8
0
 62
     7
 10
165.28357099999999
 20
197.651927
 30
0.0
 40
1.180545999999999
 50
230.76102
 51
235.339629
  0
ARC
  5
143
  8
0
 62
     7
 10
166.55018999999999
 20
199.231897
 30
0.0
 40
3.2055159999999989
 50
227.63540800000001
 51
231.09001699999999
  0
ARC
  5
144
  8
0
 62
     7
 10
169.524057
 20
202.50738899999999
 30
0.0
 40
7.6296200000000001
 50
225.408345
 51
227.70953600000001
  0
ARC
  5
145
  8
0
 62
     7
 10
175.54930300000001
 20
208.633792
 30
0.0
 40
16.222429000000002
 50
223.94510199999999
 51
225.444693
  0
ARC
  5
146
  8
0
 62
     7
 10
167.50100699999999
 20
199.698714
 30
0.0
 40
3.744526
 50
218.38942900000001
 51
229.856976
  0
ARC
  5
147
  8
0
 62
     7
 10
159.96875800000001
 20
190.76352700000001
 30
0.0
 40
7.7396060000000002
 50
62.727218999999977
 51
67.275863000000001
  0
ARC
  5
148
  8
0
 62
     7
 10
159.93005500000001
 20
190.67785699999999
 30
0.0
 40
8.2335390000000004
 50
58.917059000000002
 51
71.104395999999994
  0
ARC
  5
149
  8
0
 62
     7
 10
98.715760000000003
 20
150.77940100000001
 30
0.0
 40
80.835303999999994
 50
31.18469000000001
 51
31.297218000000001
  0
ARC
  5
14A
  8
0
 62
     7
 10
167.19950900000001
 20
192.234534
 30
0.0
 40
0.7818830000000001
 50
17.984307000000001
 51
30.877427999999998
  0
ARC
  5
14B
  8
0
 62
     7
 10
166.74708899999999
 20
192.07548199999999
 30
0.0
 40
1.26136
 50
9.7796979999999998
 51
18.510928
  0
ARC
  5
14C
  8
0
 62
     7
 10
170.896638
 20
194.69617199999999
 30
0.0
 40
3.6559870000000001
 50
200.02309
 51
211.774373
  0
ARC
  5
14D
  8
0
 62
     7
 10
178.375597
 20
193.407827
 30
0.0
 40
10.830318999999999
 50
188.56045399999999
 51
189.10641299999989
  0
ARC
  5
14E
  8
0
 62
     7
 10
167.22366299999999
 20
191.72710599999999
 30
0.0
 40
0.4475590000000001
 50
8.8169820000000012
 51
16.168343
  0
ARC
  5
14F
  8
0
 62
     7
 10
166.46931599999999
 20
191.516156
 30
0.0
 40
1.2308339999999991
 50
15.821535000000001
 51
21.427531999999999
  0
ARC
  5
150
  8
0
 62
     7
 10
164.77302299999999
 20
190.86103299999999
 30
0.0
 40
3.0492279999999989
 50
21.242339000000001
 51
24.309085
  0
ARC
  5
151
  8
0
 62
     7
 10
138.97305299999999
 20
185.78301300000001
 30
0.0
 40
29.102356
 50
14.464373999999999
 51
14.984736
  0
ARC
  5
152
  8
0
 62
     7
 10
168.37938
 20
193.37791100000001
 30
0.0
 40
1.2689539999999999
 50
194.87571800000001
 51
199.13653400000001
  0
ARC
  5
153
  8
0
 62
     7
 10
170.22748300000001
 20
194.00754599999999
 30
0.0
 40
3.2213560000000001
 50
198.940819
 51
202.378995
  0
ARC
  5
154
  8
0
 62
     7
 10
174.389511
 20
195.709305
 30
0.0
 40
7.7178449999999987
 50
202.29717400000001
 51
204.64173500000001
  0
ARC
  5
155
  8
0
 62
     7
 10
182.39372700000001
 20
199.36417299999999
 30
0.0
 40
16.517016999999999
 50
204.588764
 51
206.02824799999999
  0
ARC
  5
156
  8
0
 62
     7
 10
173.639477
 20
199.19513699999999
 30
0.0
 40
8.3136949999999992
 50
210.88849500000001
 51
211.59802999999991
  0
ARC
  5
157
  8
0
 62
     7
 10
166.18413699999999
 20
194.61243999999999
 30
0.0
 40
0.4374979999999999
 50
23.668500000000002
 51
31.20729
  0
ARC
  5
158
  8
0
 62
     7
 10
165.45262600000001
 20
194.27967899999999
 30
0.0
 40
1.2411119999999991
 50
18.622115999999998
 51
24.181367999999999
  0
ARC
  5
159
  8
0
 62
     7
 10
163.77187499999999
 20
193.703081
 30
0.0
 40
3.018005
 50
15.706927
 51
18.806353999999999
  0
ARC
  5
15A
  8
0
 62
     7
 10
147.87402399999999
 20
191.218861
 30
0.0
 40
19.628499000000001
 50
8.6474329999999995
 51
9.1100380000000012
  0
ARC
  5
15B
  8
0
 62
     7
 10
166.50563600000001
 20
194.209507
 30
0.0
 40
0.7583979999999999
 50
8.8864909999999995
 51
22.3964
  0
ARC
  5
15C
  8
0
 62
     7
 10
166.019295
 20
194.029156
 30
0.0
 40
1.2769049999999991
 50
21.563794999999999
 51
30.068725000000001
  0
ARC
  5
15D
  8
0
 62
     7
 10
9.6637310000000003
 20
119.332787
 30
0.0
 40
173.936691
 50
25.169481999999999
 51
25.256595999999998
  0
ARC
  5
15E
  8
0
 62
     7
 10
168.11560800000001
 20
194.08448899999999
 30
0.0
 40
1.262664
 50
200.92328000000001
 51
205.20062799999999
  0
ARC
  5
15F
  8
0
 62
     7
 10
169.92139499999999
 20
194.78473700000001
 30
0.0
 40
3.199460999999999
 50
197.627792
 51
201.087952
  0
ARC
  5
160
  8
0
 62
     7
 10
174.15175300000001
 20
196.13913199999999
 30
0.0
 40
7.6413380000000002
 50
195.40324699999999
 51
197.700604
  0
ARC
  5
161
  8
0
 62
     7
 10
182.48296500000001
 20
198.44670600000001
 30
0.0
 40
16.286218000000002
 50
193.95146700000001
 51
195.4448669999999
  0
ARC
  5
162
  8
0
 62
     7
 10
170.87348399999999
 20
194.688019
 30
0.0
 40
3.631294
 50
188.208416
 51
200.03683899999999
  0
ARC
  5
163
  8
0
 62
     7
 10
160.28899699999999
 20
190.94727499999999
 30
0.0
 40
7.3808429999999987
 50
32.639830000000003
 51
37.412605999999997
  0
ARC
  5
164
  8
0
 62
     7
 10
159.95028600000001
 20
190.710048
 30
0.0
 40
8.1941070000000007
 50
28.898827000000001
 51
41.149016000000003
  0
ARC
  5
165
  8
0
 62
     7
 10
152.64535900000001
 20
188.19763599999999
 30
0.0
 40
15.128235999999999
 50
0.8207019999999999
 51
1.4210199999999999
  0
ARC
  5
166
  8
0
 62
     7
 10
167.00630799999999
 20
188.39986399999989
 30
0.0
 40
0.765871
 50
347.922214
 51
1.081836
  0
ARC
  5
167
  8
0
 62
     7
 10
166.50952599999999
 20
188.491004
 30
0.0
 40
1.270813999999999
 50
339.926402
 51
348.59060099999999
  0
ARC
  5
168
  8
0
 62
     7
 10
171.4264179999999
 20
188.684371
 30
0.0
 40
3.659187999999999
 50
170.012216
 51
181.752668
  0
ARC
  5
169
  8
0
 62
     7
 10
58.259988999999997
 20
229.743878
 30
0.0
 40
116.71621500000001
 50
338.88228600000002
 51
338.93304000000001
  0
ARC
  5
16A
  8
0
 62
     7
 10
166.76412099999999
 20
187.949411
 30
0.0
 40
0.44101
 50
338.69918200000001
 51
346.43695700000001
  0
ARC
  5
16B
  8
0
 62
     7
 10
165.97617500000001
 20
188.15106900000001
 30
0.0
 40
1.2543239999999991
 50
345.92314099999999
 51
351.456996
  0
ARC
  5
16C
  8
0
 62
     7
 10
164.27029300000001
 20
188.417778
 30
0.0
 40
2.9809169999999989
 50
351.25827900000002
 51
354.33891399999999
  0
ARC
  5
16D
  8
0
 62
     7
 10
248.23210399999999
 20
167.194548
 30
0.0
 40
83.795777999999984
 50
164.641414
 51
164.82210799999999
  0
ARC
  5
16E
  8
0
 62
     7
 10
168.55448899999999
 20
188.80702600000001
 30
0.0
 40
1.239001999999999
 50
164.71435299999999
 51
169.073656
  0
ARC
  5
16F
  8
0
 62
     7
 10
170.43757299999999
 20
188.43218100000001
 30
0.0
 40
3.1590189999999989
 50
168.872017
 51
172.377523
  0
ARC
  5
170
  8
0
 62
     7
 10
174.82651799999999
 20
187.83274599999999
 30
0.0
 40
7.5887029999999989
 50
172.28717399999999
 51
174.60119399999999
  0
ARC
  5
171
  8
0
 62
     7
 10
183.529347
 20
186.99608599999999
 30
0.0
 40
16.331651000000001
 50
174.55164400000001
 51
176.04075800000001
  0
ARC
  5
172
  8
0
 62
     7
 10
229.95848599999999
 20
192.2766389999999
 30
0.0
 40
62.234778000000013
 50
181.100189
 51
181.195201
  0
ARC
  5
173
  8
0
 62
     7
 10
167.296055
 20
190.968096
 30
0.0
 40
0.441316
 50
353.89536900000002
 51
1.354214
  0
ARC
  5
174
  8
0
 62
     7
 10
166.52219400000001
 20
191.04260099999999
 30
0.0
 40
1.218739999999999
 50
348.62049300000001
 51
354.28148800000002
  0
ARC
  5
175
  8
0
 62
     7
 10
164.72872100000001
 20
191.391389
 30
0.0
 40
3.0457969999999999
 50
345.77217200000001
 51
348.84495600000002
  0
ARC
  5
176
  8
0
 62
     7
 10
293.05815999999999
 20
141.508679
 30
0.0
 40
134.11881
 50
158.718785
 51
158.786607
  0
ARC
  5
177
  8
0
 62
     7
 10
167.35230000000001
 20
190.46582699999999
 30
0.0
 40
0.78401
 50
339.12752999999998
 51
351.98172099999999
  0
ARC
  5
178
  8
0
 62
     7
 10
166.874898
 20
190.54500100000001
 30
0.0
 40
1.2678439999999991
 50
351.44812000000002
 51
0.138153
  0
ARC
  5
179
  8
0
 62
     7
 10
100.401133
 20
195.12882500000001
 30
0.0
 40
67.272779
 50
355.10514000000001
 51
355.33038900000003
  0
ARC
  5
17A
  8
0
 62
     7
 10
168.70475400000001
 20
189.54645300000001
 30
0.0
 40
1.2585869999999999
 50
170.64435599999999
 51
175.18234699999999
  0
ARC
  5
17B
  8
0
 62
     7
 10
170.71762000000001
 20
189.231188
 30
0.0
 40
3.2959679999999998
 50
167.53269499999999
 51
170.92499599999999
  0
ARC
  5
17C
  8
0
 62
     7
 10
175.15451899999999
 20
188.26273599999999
 30
0.0
 40
7.8373229999999987
 50
165.29705300000001
 51
167.622118
  0
ARC
  5
17D
  8
0
 62
     7
 10
183.64582999999999
 20
186.051875
 30
0.0
 40
16.611726000000001
 50
163.95652000000001
 51
165.354623
  0
ARC
  5
17E
  8
0
 62
     7
 10
171.44919300000001
 20
188.67609400000001
 30
0.0
 40
3.6829949999999991
 50
158.29477199999999
 51
169.952135
  0
ARC
  5
17F
  8
0
 62
     7
 10
159.340677
 20
190.66798899999989
 30
0.0
 40
8.4047429999999999
 50
2.8285419999999988
 51
4.9154210000000003
  0
ARC
  5
180
  8
0
 62
     7
 10
158.90116599999999
 20
190.60245399999999
 30
0.0
 40
8.8482960000000013
 50
5.0943610000000001
 51
7.0911809999999988
  0
ARC
  5
181
  8
0
 62
     7
 10
160.09360599999999
 20
190.716927
 30
0.0
 40
8.0505370000000003
 50
358.80542300000002
 51
5.0324330000000002
  0
ARC
  5
182
  8
0
 62
     7
 10
159.87994800000001
 20
190.69923399999999
 30
0.0
 40
8.2649229999999996
 50
5.024691999999999
 51
11.104957000000001
  0
ARC
  5
183
  8
0
 62
     7
 10
119.50204100000001
 20
210.27941100000001
 30
0.0
 40
52.646433999999999
 50
331.06476500000002
 51
331.23727400000001
  0
ARC
  5
184
  8
0
 62
     7
 10
164.90248299999999
 20
185.180364
 30
0.0
 40
0.7700199999999999
 50
317.75287500000002
 51
331.07867599999997
  0
ARC
  5
185
  8
0
 62
     7
 10
164.54246000000001
 20
185.48602199999999
 30
0.0
 40
1.242130999999999
 50
309.74773900000002
 51
318.48123399999997
  0
ARC
  5
186
  8
0
 62
     7
 10
168.88224399999999
 20
183.20989800000001
 30
0.0
 40
3.6667469999999991
 50
140.01907800000001
 51
151.73786100000001
  0
ARC
  5
187
  8
0
 62
     7
 10
194.95759699999999
 20
146.73856699999999
 30
0.0
 40
48.409731000000001
 50
128.61393899999999
 51
128.73563100000001
  0
ARC
  5
188
  8
0
 62
     7
 10
164.46139199999999
 20
184.918778
 30
0.0
 40
0.4548510000000001
 50
308.82222100000001
 51
316.36584800000003
  0
ARC
  5
189
  8
0
 62
     7
 10
163.889848
 20
185.47649799999999
 30
0.0
 40
1.2534019999999999
 50
315.94251800000001
 51
321.49049200000002
  0
ARC
  5
18A
  8
0
 62
     7
 10
162.60775899999999
 20
186.51003800000001
 30
0.0
 40
2.9001899999999998
 50
321.28375199999999
 51
324.44984699999998
  0
ARC
  5
18B
  8
0
 62
     7
 10
94.019615999999985
 20
257.91281400000003
 30
0.0
 40
101.70774900000001
 50
314.7144540000001
 51
314.86349000000001
  0
ARC
  5
18C
  8
0
 62
     7
 10
166.424406
 20
184.78201300000001
 30
0.0
 40
1.2027339999999991
 50
134.69139100000001
 51
139.18512699999999
  0
ARC
  5
18D
  8
0
 62
     7
 10
167.93614400000001
 20
183.454475
 30
0.0
 40
3.214601
 50
138.88894500000001
 51
142.333664
  0
ARC
  5
18E
  8
0
 62
     7
 10
171.33112600000001
 20
180.82026999999999
 30
0.0
 40
7.5116800000000001
 50
142.25245000000001
 51
144.58924999999999
  0
ARC
  5
18F
  8
0
 62
     7
 10
178.09119799999999
 20
175.99639500000001
 30
0.0
 40
15.816393
 50
144.53658999999999
 51
146.074173
  0
ARC
  5
190
  8
0
 62
     7
 10
93.629594999999995
 20
227.25936300000001
 30
0.0
 40
83.517682999999991
 50
331.21670799999998
 51
331.28746999999998
  0
ARC
  5
191
  8
0
 62
     7
 10
166.42451299999999
 20
187.26880600000001
 30
0.0
 40
0.4614100000000001
 50
323.935384
 51
331.09102100000001
  0
ARC
  5
192
  8
0
 62
     7
 10
165.79548299999999
 20
187.72011699999999
 30
0.0
 40
1.2355860000000001
 50
318.60571900000002
 51
324.18991399999999
  0
ARC
  5
193
  8
0
 62
     7
 10
164.41830300000001
 20
188.919239
 30
0.0
 40
3.0616389999999991
 50
315.75985800000001
 51
318.81324999999998
  0
ARC
  5
194
  8
0
 62
     7
 10
178.77571
 20
171.12644299999999
 30
0.0
 40
19.282634000000002
 50
128.646871
 51
129.11897400000001
  0
ARC
  5
195
  8
0
 62
     7
 10
166.25512599999999
 20
186.77930000000001
 30
0.0
 40
0.7617470000000001
 50
308.88701600000002
 51
322.10318599999999
  0
ARC
  5
196
  8
0
 62
     7
 10
165.884289
 20
187.08723599999999
 30
0.0
 40
1.243620999999999
 50
321.40216700000002
 51
330.26517200000001
  0
ARC
  5
197
  8
0
 62
     7
 10
202.54969
 20
160.37043700000001
 30
0.0
 40
44.731115000000003
 50
144.97969800000001
 51
145.31793099999999
  0
ARC
  5
198
  8
0
 62
     7
 10
166.97707500000001
 20
185.30474799999999
 30
0.0
 40
1.290011
 50
141.06124399999999
 51
145.24607599999999
  0
ARC
  5
199
  8
0
 62
     7
 10
168.38185799999999
 20
184.17798400000001
 30
0.0
 40
3.090841999999999
 50
137.73193499999999
 51
141.18124299999999
  0
ARC
  5
19A
  8
0
 62
     7
 10
171.531992
 20
181.330499
 30
0.0
 40
7.3371889999999986
 50
135.44747599999999
 51
137.822699
  0
ARC
  5
19B
  8
0
 62
     7
 10
177.642055
 20
175.33490599999999
 30
0.0
 40
15.897557000000001
 50
133.93466799999999
 51
135.49824100000001
  0
ARC
  5
19C
  8
0
 62
     7
 10
168.83952600000001
 20
183.24804599999999
 30
0.0
 40
3.609767999999999
 50
128.15755899999999
 51
140.05089799999999
  0
ARC
  5
19D
  8
0
 62
     7
 10
160.08145500000001
 20
190.64114799999999
 30
0.0
 40
7.647405
 50
332.72702700000002
 51
337.332337
  0
ARC
  5
19E
  8
0
 62
     7
 10
159.94825800000001
 20
190.70719700000001
 30
0.0
 40
8.1958660000000005
 50
328.87834400000003
 51
341.12674299999998
  0
ARC
  5
19F
  8
0
 62
     7
 10
147.196674
 20
207.280835
 30
0.0
 40
28.557407999999999
 50
300.92224399999998
 51
301.24023099999999
  0
ARC
  5
1A0
  8
0
 62
     7
 10
161.46894699999999
 20
183.45241100000001
 30
0.0
 40
0.7816720000000001
 50
287.90229199999999
 51
301.00452300000001
  0
ARC
  5
1A1
  8
0
 62
     7
 10
161.30718300000001
 20
183.91261900000001
 30
0.0
 40
1.2693840000000001
 50
279.91256299999998
 51
288.46499899999998
  0
ARC
  5
1A2
  8
0
 62
     7
 10
163.91182900000001
 20
179.79360600000001
 30
0.0
 40
3.6133329999999999
 50
109.92393300000001
 51
121.81450700000001
  0
ARC
  5
1A3
  8
0
 62
     7
 10
165.05470800000001
 20
156.850615
 30
0.0
 40
26.443795000000001
 50
98.751440000000002
 51
98.974304999999987
  0
ARC
  5
1A4
  8
0
 62
     7
 10
160.94811000000001
 20
183.499945
 30
0.0
 40
0.520103
 50
279.20693999999997
 51
286.98161800000003
  0
ARC
  5
1A5
  8
0
 62
     7
 10
160.68775400000001
 20
184.37663699999999
 30
0.0
 40
1.434628
 50
286.70020099999999
 51
291.94641300000001
  0
ARC
  5
1A6
  8
0
 62
     7
 10
160.050591
 20
185.986087
 30
0.0
 40
3.1655969999999991
 50
291.75591500000002
 51
294.27591799999999
  0
ARC
  5
1A7
  8
0
 62
     7
 10
174.62032199999999
 20
137.21247600000001
 30
0.0
 40
47.901546000000003
 50
104.60255600000001
 51
104.918752
  0
ARC
  5
1A8
  8
0
 62
     7
 10
162.631596
 20
182.2101209999999
 30
0.0
 40
1.3342009999999991
 50
104.918841
 51
109.197354
  0
ARC
  5
1A9
  8
0
 62
     7
 10
163.26800299999999
 20
180.35598400000001
 30
0.0
 40
3.2945089999999988
 50
109.046638
 51
112.439943
  0
ARC
  5
1AA
  8
0
 62
     7
 10
164.977161
 20
176.18751
 30
0.0
 40
7.7997659999999991
 50
112.35598899999999
 51
114.69337299999999
  0
ARC
  5
1AB
  8
0
 62
     7
 10
168.51145700000001
 20
168.45650800000001
 30
0.0
 40
16.300322999999999
 50
114.627948
 51
116.053963
  0
ARC
  5
1AC
  8
0
 62
     7
 10
96.269381999999993
 20
295.74443400000001
 30
0.0
 40
130.62695099999999
 50
301.27049899999997
 51
301.31559199999998
  0
ARC
  5
1AD
  8
0
 62
     7
 10
163.82873699999999
 20
184.50689
 30
0.0
 40
0.480671
 50
293.71324300000009
 51
300.83139799999998
  0
ARC
  5
1AE
  8
0
 62
     7
 10
163.50124400000001
 20
185.23946699999999
 30
0.0
 40
1.283112
 50
288.53628900000001
 51
293.94680599999998
  0
ARC
  5
1AF
  8
0
 62
     7
 10
162.88361
 20
187.049252
 30
0.0
 40
3.195374999999999
 50
285.84516300000001
 51
288.72013600000002
  0
ARC
  5
1B0
  8
0
 62
     7
 10
169.15348899999989
 20
147.637789
 30
0.0
 40
36.194535999999999
 50
98.886150999999998
 51
99.136838999999995
  0
ARC
  5
1B1
  8
0
 62
     7
 10
163.44217399999999
 20
184.163624
 30
0.0
 40
0.775124
 50
278.92696100000001
 51
291.930927
  0
ARC
  5
1B2
  8
0
 62
     7
 10
163.26985099999999
 20
184.62380200000001
 30
0.0
 40
1.2664189999999991
 50
291.38719200000003
 51
300.09609599999999
  0
ARC
  5
1B3
  8
0
 62
     7
 10
89.457049999999995
 20
339.00363700000003
 30
0.0
 40
171.76235
 50
295.18298800000002
 51
295.27102400000001
  0
ARC
  5
1B4
  8
0
 62
     7
 10
163.325996
 20
182.52413100000001
 30
0.0
 40
1.27654
 50
110.96081100000001
 51
115.199579
  0
ARC
  5
1B5
  8
0
 62
     7
 10
164.023506
 20
180.72667100000001
 30
0.0
 40
3.2045849999999989
 50
107.652485
 51
111.110057
  0
ARC
  5
1B6
  8
0
 62
     7
 10
165.353148
 20
176.58126100000001
 30
0.0
 40
7.5580119999999988
 50
105.404749
 51
107.728039
  0
ARC
  5
1B7
  8
0
 62
     7
 10
167.56127799999999
 20
168.61052000000001
 30
0.0
 40
15.828954
 50
103.90986700000001
 51
105.44631
  0
ARC
  5
1B8
  8
0
 62
     7
 10
163.923709
 20
179.77774600000001
 30
0.0
 40
3.6324139999999989
 50
98.193219999999997
 51
110.0199649999999
  0
ARC
  5
1B9
  8
0
 62
     7
 10
160.220698
 20
190.313963
 30
0.0
 40
7.3188519999999997
 50
302.6008470000001
 51
307.409539
  0
ARC
  5
1BA
  8
0
 62
     7
 10
159.915076
 20
190.75121299999989
 30
0.0
 40
8.2516590000000001
 50
298.92087500000002
 51
311.08352500000001
  0
ARC
  5
1BB
  8
0
 62
     7
 10
157.994867
 20
167.667933
 30
0.0
 40
15.216566
 50
90.700752000000037
 51
91.296263999999994
  0
ARC
  5
1BC
  8
0
 62
     7
 10
157.63601399999999
 20
183.655372
 30
0.0
 40
0.7749050000000001
 50
258.061665
 51
271.08099199999998
  0
ARC
  5
1BD
  8
0
 62
     7
 10
157.72359900000001
 20
184.12868800000001
 30
0.0
 40
1.2561599999999991
 50
249.83737300000001
 51
258.61899
  0
ARC
  5
1BE
  8
0
 62
     7
 10
157.92185000000001
 20
179.23468299999999
 30
0.0
 40
3.6504300000000001
 50
80.012164999999996
 51
91.775226000000004
  0
ARC
  5
1BF
  8
0
 62
     7
 10
151.44152700000001
 20
169.19608500000001
 30
0.0
 40
15.333892000000001
 50
68.646170999999995
 51
69.031294000000003
  0
ARC
  5
1C0
  8
0
 62
     7
 10
157.193735
 20
183.91686200000001
 30
0.0
 40
0.4708370000000001
 50
248.999686
 51
256.78068400000001
  0
ARC
  5
1C1
  8
0
 62
     7
 10
157.40145899999999
 20
184.75451100000001
 30
0.0
 40
1.3338350000000001
 50
256.32249100000001
 51
261.72026099999999
  0
ARC
  5
1C2
  8
0
 62
     7
 10
157.70461900000001
 20
186.75447299999999
 30
0.0
 40
3.3566289999999999
 50
261.51555000000002
 51
264.09894500000001
  0
ARC
  5
1C3
  8
0
 62
     7
 10
167.00556599999999
 20
214.54701900000001
 30
0.0
 40
32.425041
 50
254.55369200000001
 51
255.021165
  0
ARC
  5
1C4
  8
0
 62
     7
 10
158.023077
 20
182.00852699999999
 30
0.0
 40
1.330554
 50
74.902814000000006
 51
78.963768000000002
  0
ARC
  5
1C5
  8
0
 62
     7
 10
157.66419200000001
 20
180.192815
 30
0.0
 40
3.1813919999999989
 50
78.879723999999996
 51
82.361399000000006
  0
ARC
  5
1C6
  8
0
 62
     7
 10
157.06836000000001
 20
175.828587
 30
0.0
 40
7.5861000000000001
 50
82.282589000000002
 51
84.597340000000003
  0
ARC
  5
1C7
  8
0
 62
     7
 10
156.26362700000001
 20
167.43106
 30
0.0
 40
16.022093999999999
 50
84.559813000000005
 51
86.077960000000004
  0
ARC
  5
1C8
  8
0
 62
     7
 10
160.40818300000001
 20
175.83033499999999
 30
0.0
 40
7.0873679999999988
 50
90.733122999999992
 51
91.566043999999991
  0
ARC
  5
1C9
  8
0
 62
     7
 10
160.20419100000001
 20
183.35092900000001
 30
0.0
 40
0.435995
 50
263.5128279999999
 51
271.35348099999999
  0
ARC
  5
1CA
  8
0
 62
     7
 10
160.28424200000001
 20
184.160673
 30
0.0
 40
1.2496549999999991
 50
258.50280900000001
 51
264.06062200000002
  0
ARC
  5
1CB
  8
0
 62
     7
 10
160.62389300000001
 20
185.89146500000001
 30
0.0
 40
3.0134419999999991
 50
255.687443
 51
258.733744
  0
ARC
  5
1CC
  8
0
 62
     7
 10
147.46545699999999
 20
151.79391699999999
 30
0.0
 40
33.015484000000001
 50
68.766874999999999
 51
69.041786999999999
  0
ARC
  5
1CD
  8
0
 62
     7
 10
159.70285200000001
 20
183.300095
 30
0.0
 40
0.7838300000000001
 50
249.03952899999999
 51
261.90316999999999
  0
ARC
  5
1CE
  8
0
 62
     7
 10
159.782635
 20
183.77794399999999
 30
0.0
 40
1.268206999999999
 50
261.37526400000002
 51
270.07044400000001
  0
LINE
  5
1CF
  8
0
 62
     7
 10
158.625
 20
183.22399999999999
 30
0.0
 11
158.88800000000001
 21
183.202
 31
0.0
  0
ARC
  5
1D0
  8
0
 62
     7
 10
158.79264900000001
 20
182.0282
 30
0.0
 40
1.1775379999999991
 50
80.757178999999994
 51
85.349549999999994
  0
ARC
  5
1D1
  8
0
 62
     7
 10
158.48547500000001
 20
180.02181300000001
 30
0.0
 40
3.2072699999999998
 50
77.645803999999984
 51
81.098001999999994
  0
ARC
  5
1D2
  8
0
 62
     7
 10
157.548709
 20
175.70405099999999
 30
0.0
 40
7.6254789999999986
 50
75.409921999999995
 51
77.711396999999991
  0
ARC
  5
1D3
  8
0
 62
     7
 10
155.44823299999999
 20
167.591846
 30
0.0
 40
16.005206000000001
 50
73.92896300000001
 51
75.448355000000006
  0
ARC
  5
1D4
  8
0
 62
     7
 10
157.92053999999999
 20
179.24085600000001
 30
0.0
 40
3.6448580000000002
 50
68.196704999999994
 51
79.981325999999996
  0
ARC
  5
1D5
  8
0
 62
     7
 10
159.92120700000001
 20
191.00189
 30
0.0
 40
8.0943520000000007
 50
272.81359800000001
 51
277.16209700000002
  0
ARC
  5
1D6
  8
0
 62
     7
 10
159.94571500000001
 20
190.70874599999991
 30
0.0
 40
8.2004130000000011
 50
268.876214
 51
281.11609700000002
  0
ARC
  5
1D7
  8
0
 62
     7
 10
137.66994600000001
 20
155.32226499999999
 30
0.0
 40
33.961621000000001
 50
60.908199999999987
 51
61.175899999999992
  0
ARC
  5
1D8
  8
0
 62
     7
 10
154.421775
 20
185.75722999999999
 30
0.0
 40
0.779007
 50
228.029641
 51
240.95717400000001
  0
ARC
  5
1D9
  8
0
 62
     7
 10
154.728432
 20
186.11629199999999
 30
0.0
 40
1.251101
 50
219.78002499999999
 51
228.58491000000001
  0
ARC
  5
1DA
  8
0
 62
     7
 10
152.47404299999999
 20
181.81034099999999
 30
0.0
 40
3.6177769999999989
 50
49.951175999999997
 51
61.827612999999999
  0
ARC
  5
1DB
  8
0
 62
     7
 10
148.76863499999999
 20
181.90321900000001
 30
0.0
 40
6.4298960000000003
 50
38.500122999999988
 51
39.418025
  0
ARC
  5
1DC
  8
0
 62
     7
 10
154.136551
 20
186.17423099999999
 30
0.0
 40
0.429848
 50
218.62100100000001
 51
226.302537
  0
ARC
  5
1DD
  8
0
 62
     7
 10
154.69782499999999
 20
186.745103
 30
0.0
 40
1.2303959999999989
 50
225.771097
 51
231.37254899999999
  0
ARC
  5
1DE
  8
0
 62
     7
 10
155.86054899999999
 20
188.18427500000001
 30
0.0
 40
3.080559
 50
231.187748
 51
234.22043400000001
  0
ARC
  5
1DF
  8
0
 62
     7
 10
175.09473499999999
 20
204.92393100000001
 30
0.0
 40
28.336081
 50
224.46875600000001
 51
225.00320600000001
  0
ARC
  5
1E0
  8
0
 62
     7
 10
154.00349399999999
 20
184.21035900000001
 30
0.0
 40
1.225611
 50
44.798186000000001
 51
49.212811000000002
  0
ARC
  5
1E1
  8
0
 62
     7
 10
152.688355
 20
182.709926
 30
0.0
 40
3.220804999999999
 50
48.935535999999992
 51
52.37565
  0
ARC
  5
1E2
  8
0
 62
     7
 10
150.024869
 20
179.27479600000001
 30
0.0
 40
7.5675520000000001
 50
52.281178999999987
 51
54.60142900000001
  0
ARC
  5
1E3
  8
0
 62
     7
 10
145.034481
 20
172.27896899999999
 30
0.0
 40
16.160889999999998
 50
54.546590000000009
 51
56.051694999999988
  0
ARC
  5
1E4
  8
0
 62
     7
 10
152.35001099999999
 20
176.53863100000001
 30
0.0
 40
8.2783920000000002
 50
60.933892999999998
 51
61.646178000000013
  0
ARC
  5
1E5
  8
0
 62
     7
 10
156.51496
 20
184.24195900000001
 30
0.0
 40
0.4788270000000001
 50
233.689446
 51
240.8252029999999
  0
ARC
  5
1E6
  8
0
 62
     7
 10
156.98752099999999
 20
184.8955959999999
 30
0.0
 40
1.2853879999999991
 50
228.56254100000001
 51
233.968481
  0
ARC
  5
1E7
  8
0
 62
     7
 10
158.13203100000001
 20
186.20778799999999
 30
0.0
 40
3.026567
 50
225.72105300000001
 51
228.7593839999999
  0
ARC
  5
1E8
  8
0
 62
     7
 10
165.90542099999999
 20
192.48411300000001
 30
0.0
 40
13.536807
 50
218.57720499999999
 51
219.24810500000001
  0
ARC
  5
1E9
  8
0
 62
     7
 10
155.99825999999999
 20
184.378939
 30
0.0
 40
0.73664
 50
218.57136199999999
 51
232.26320200000001
  0
ARC
  5
1EA
  8
0
 62
     7
 10
156.323746
 20
184.768158
 30
0.0
 40
1.2438029999999991
 50
231.37924899999999
 51
240.23188400000001
  0
ARC
  5
1EB
  8
0
 62
     7
 10
-91.969467000000009
 20
-171.22423599999999
 30
0.0
 40
433.402669
 50
55.21658399999999
 51
55.251567000000001
  0
ARC
  5
1EC
  8
0
 62
     7
 10
154.59798900000001
 20
183.754671
 30
0.0
 40
1.192612999999999
 50
50.809033999999997
 51
55.338599000000002
  0
ARC
  5
1ED
  8
0
 62
     7
 10
153.355897
 20
182.20731699999999
 30
0.0
 40
3.1768040000000002
 50
47.596747000000001
 51
51.08151500000001
  0
ARC
  5
1EE
  8
0
 62
     7
 10
150.29120399999999
 20
178.834542
 30
0.0
 40
7.7339849999999997
 50
45.342025999999997
 51
47.681121999999988
  0
ARC
  5
1EF
  8
0
 62
     7
 10
143.96456000000001
 20
172.40545499999999
 30
0.0
 40
16.753931000000001
 50
43.986719000000001
 51
45.405615000000012
  0
ARC
  5
1F0
  8
0
 62
     7
 10
152.456447
 20
181.78272100000001
 30
0.0
 40
3.6502879999999989
 50
38.257905999999998
 51
50.026323999999988
  0
ARC
  5
1F1
  8
0
 62
     7
 10
160.05106699999999
 20
190.94639699999999
 30
0.0
 40
8.060789999999999
 50
242.84518299999999
 51
247.21420000000001
  0
ARC
  5
1F2
  8
0
 62
     7
 10
159.96144799999999
 20
190.74574699999999
 30
0.0
 40
8.2408140000000003
 50
238.91710599999999
 51
251.094154
  0
ARC
  5
1F3
  8
0
 62
     7
 10
94.470710999999994
 20
154.028221
 30
0.0
 40
67.226857999999993
 50
30.992574000000001
 51
31.127451000000001
  0
ARC
  5
1F4
  8
0
 62
     7
 10
152.693016
 20
189.184202
 30
0.0
 40
0.7862350000000001
 50
197.83908
 51
210.87671499999999
  0
ARC
  5
1F5
  8
0
 62
     7
 10
153.16647800000001
 20
189.351438
 30
0.0
 40
1.288243
 50
190.043488
 51
198.468548
  0
ARC
  5
1F6
  8
0
 62
     7
 10
148.95875599999999
 20
186.70364499999999
 30
0.0
 40
3.692871999999999
 50
20.0959
 51
31.724568999999999
  0
ARC
  5
1F7
  8
0
 62
     7
 10
170.20011700000001
 20
192.467186
 30
0.0
 40
18.201495000000001
 50
188.67100400000001
 51
188.99586300000001
  0
ARC
  5
1F8
  8
0
 62
     7
 10
152.67309900000001
 20
189.692092
 30
0.0
 40
0.456144
 50
188.94745999999989
 51
196.44663199999999
  0
ARC
  5
1F9
  8
0
 62
     7
 10
153.46285599999999
 20
189.91480999999999
 30
0.0
 40
1.276681999999999
 50
195.998189
 51
201.43838700000001
  0
ARC
  5
1FA
  8
0
 62
     7
 10
155.09558200000001
 20
190.54552699999999
 30
0.0
 40
3.0269840000000001
 50
201.25509600000001
 51
204.289027
  0
ARC
  5
1FB
  8
0
 62
     7
 10
92.521662000000006
 20
172.403604
 30
0.0
 40
62.292972999999989
 50
14.603002999999999
 51
14.846107999999999
  0
ARC
  5
1FC
  8
0
 62
     7
 10
151.54205099999999
 20
188.050873
 30
0.0
 40
1.2336320000000001
 50
14.730017999999999
 51
19.111948000000002
  0
ARC
  5
1FD
  8
0
 62
     7
 10
149.69745700000001
 20
187.42524599999999
 30
0.0
 40
3.1814189999999991
 50
18.881349
 51
22.36224
  0
ARC
  5
1FE
  8
0
 62
     7
 10
145.63090199999999
 20
185.76580999999999
 30
0.0
 40
7.5735179999999991
 50
22.267485000000001
 51
24.58546200000001
  0
ARC
  5
1FF
  8
0
 62
     7
 10
137.85060799999999
 20
182.22077899999999
 30
0.0
 40
16.123380000000001
 50
24.538031
 51
26.04589
  0
ARC
  5
200
  8
0
 62
     7
 10
144.30054199999989
 20
181.09632500000001
 30
0.0
 40
10.563478
 50
30.700648000000001
 51
31.259701
  0
ARC
  5
201
  8
0
 62
     7
 10
153.71295900000001
 20
186.811071
 30
0.0
 40
0.4479670000000001
 50
204.01141899999999
 51
211.36569900000001
  0
ARC
  5
202
  8
0
 62
     7
 10
154.37707399999999
 20
187.11437599999999
 30
0.0
 40
1.178053
 50
198.62792200000001
 51
204.34299999999999
  0
ARC
  5
203
  8
0
 62
     7
 10
155.99524400000001
 20
187.67183499999999
 30
0.0
 40
2.8895390000000001
 50
195.5594679999999
 51
198.85353000000001
  0
ARC
  5
204
  8
0
 62
     7
 10
119.072391
 20
181.93312399999999
 30
0.0
 40
33.954976000000009
 50
8.7352799999999995
 51
9.0029869999999992
  0
ARC
  5
205
  8
0
 62
     7
 10
153.38221100000001
 20
187.20691099999999
 30
0.0
 40
0.757799
 50
188.88645
 51
202.403941
  0
ARC
  5
206
  8
0
 62
     7
 10
153.86027200000001
 20
187.384232
 30
0.0
 40
1.26749
 50
201.57809399999999
 51
210.134018
  0
ARC
  5
207
  8
0
 62
     7
 10
16.681286
 20
123.628806
 30
0.0
 40
150.62078299999999
 50
25.246169999999999
 51
25.346765999999999
  0
ARC
  5
208
  8
0
 62
     7
 10
151.777232
 20
187.33425700000001
 30
0.0
 40
1.257804999999999
 50
20.904188000000001
 51
25.200970000000002
  0
ARC
  5
209
  8
0
 62
     7
 10
149.95801599999999
 20
186.62852599999999
 30
0.0
 40
3.2091029999999989
 50
17.635952
 51
21.085777
  0
ARC
  5
20A
  8
0
 62
     7
 10
145.65919299999999
 20
185.25099800000001
 30
0.0
 40
7.7232389999999986
 50
15.370414
 51
17.712952999999999
  0
ARC
  5
20B
  8
0
 62
     7
 10
137.14632399999999
 20
182.89198099999999
 30
0.0
 40
16.556909999999998
 50
13.997468
 51
15.433515
  0
ARC
  5
20C
  8
0
 62
     7
 10
149.01218800000001
 20
186.72774699999999
 30
0.0
 40
3.6340910000000002
 50
8.2084229999999998
 51
20.030356999999999
  0
ARC
  5
20D
  8
0
 62
     7
 10
159.792182
 20
190.59847500000001
 30
0.0
 40
7.6123869999999991
 50
212.67107799999999
 51
217.29456200000001
  0
ARC
  5
20E
  8
0
 62
     7
 10
159.95223899999999
 20
190.715473
 30
0.0
 40
8.2105929999999994
 50
208.89890700000001
 51
221.12400700000001
  0
ARC
  5
20F
  8
0
 62
     7
 10
79.600422999999992
 20
191.50267099999999
 30
0.0
 40
72.531475999999998
 50
1.0595429999999999
 51
1.1846179999999991
  0
ARC
  5
210
  8
0
 62
     7
 10
152.881032
 20
193.016628
 30
0.0
 40
0.764772
 50
167.898145
 51
181.0819689999999
  0
ARC
  5
211
  8
0
 62
     7
 10
153.374517
 20
192.925545
 30
0.0
 40
1.266467
 50
159.839707
 51
168.54964000000001
  0
ARC
  5
212
  8
0
 62
     7
 10
148.46226100000001
 20
192.73227
 30
0.0
 40
3.6589449999999988
 50
350.01224999999999
 51
1.7507399999999991
  0
ARC
  5
213
  8
0
 62
     7
 10
145.77713800000001
 20
196.34310500000001
 30
0.0
 40
7.4488250000000003
 50
338.62163099999998
 51
339.41348299999999
  0
ARC
  5
214
  8
0
 62
     7
 10
153.13350199999999
 20
193.465215
 30
0.0
 40
0.45044
 50
158.83877100000001
 51
166.44575499999999
  0
ARC
  5
215
  8
0
 62
     7
 10
153.92118300000001
 20
193.26412199999999
 30
0.0
 40
1.2633589999999999
 50
165.952023
 51
171.45202499999999
  0
ARC
  5
216
  8
0
 62
     7
 10
155.61003299999999
 20
192.999808
 30
0.0
 40
2.9727540000000001
 50
171.25251
 51
174.34078199999999
  0
ARC
  5
217
  8
0
 62
     7
 10
79.624747999999997
 20
212.033458
 30
0.0
 40
75.532293999999993
 50
344.64131500000002
 51
344.841903
  0
ARC
  5
218
  8
0
 62
     7
 10
151.3382
 20
192.60850500000001
 30
0.0
 40
1.234599
 50
344.71403400000003
 51
349.091812
  0
ARC
  5
219
  8
0
 62
     7
 10
149.4455669999999
 20
192.98539600000001
 30
0.0
 40
3.1643799999999991
 50
348.875854
 51
352.37580500000001
  0
ARC
  5
21A
  8
0
 62
     7
 10
145.06069600000001
 20
193.584316
 30
0.0
 40
7.5899580000000002
 50
352.286248
 51
354.599401
  0
ARC
  5
21B
  8
0
 62
     7
 10
136.371241
 20
194.41967700000001
 30
0.0
 40
16.319468000000001
 50
354.550907
 51
356.04105800000008
  0
ARC
  5
21C
  8
0
 62
     7
 10
157.59041199999999
 20
190.49551299999999
 30
0.0
 40
5.4395220000000002
 50
180.604161
 51
181.691228
  0
ARC
  5
21D
  8
0
 62
     7
 10
152.60402099999999
 20
190.447272
 30
0.0
 40
0.45292
 50
173.60809900000001
 51
181.152939
  0
ARC
  5
21E
  8
0
 62
     7
 10
153.40035599999999
 20
190.36870999999999
 30
0.0
 40
1.2530959999999991
 50
168.55044799999999
 51
174.091905
  0
ARC
  5
21F
  8
0
 62
     7
 10
155.07533799999999
 20
190.04094599999999
 30
0.0
 40
2.9598299999999989
 50
165.66274000000001
 51
168.768235
  0
ARC
  5
220
  8
0
 62
     7
 10
113.060703
 20
206.18158
 30
0.0
 40
41.52814
 50
338.89769000000001
 51
339.11660799999999
  0
ARC
  5
221
  8
0
 62
     7
 10
152.51774599999999
 20
190.95527999999999
 30
0.0
 40
0.764868
 50
158.94903199999999
 51
172.122422
  0
ARC
  5
222
  8
0
 62
     7
 10
153.02947800000001
 20
190.86840599999999
 30
0.0
 40
1.283776
 50
171.41197399999999
 51
179.997839
  0
ARC
  5
223
  8
0
 62
     7
 10
66.419297999999984
 20
199.09814
 30
0.0
 40
86.330236999999997
 50
355.12694499999998
 51
355.30235699999997
  0
ARC
  5
224
  8
0
 62
     7
 10
151.19705500000001
 20
191.86582200000001
 30
0.0
 40
1.244554999999999
 50
350.98961700000001
 51
355.331593
  0
ARC
  5
225
  8
0
 62
     7
 10
149.36764600000001
 20
192.146153
 30
0.0
 40
3.0953080000000002
 50
347.72299199999998
 51
351.168024
  0
ARC
  5
226
  8
0
 62
     7
 10
145.17397700000001
 20
193.04772399999999
 30
0.0
 40
7.3847880000000004
 50
345.44746099999998
 51
347.80664200000001
  0
ARC
  5
227
  8
0
 62
     7
 10
136.59352799999999
 20
195.25982400000001
 30
0.0
 40
16.245792999999999
 50
343.97068100000001
 51
345.49986899999999
  0
ARC
  5
228
  8
0
 62
     7
 10
148.48282699999999
 20
192.729468
 30
0.0
 40
3.6382039999999991
 50
338.19665400000002
 51
349.99953700000009
  0
ARC
  5
229
  8
0
 62
     7
 10
159.666776
 20
190.686218
 30
0.0
 40
7.5217299999999998
 50
182.67783700000001
 51
187.35909799999999
  0
ARC
  5
22A
  8
0
 62
     7
 10
159.93068500000001
 20
190.70782700000001
 30
0.0
 40
8.1865559999999995
 50
178.876926
 51
191.13785799999999
  0
ARC
  5
22B
  8
0
 62
     7
 10
164.962568
 20
190.617456
 30
0.0
 40
12.219779000000001
 50
150.64024800000001
 51
151.383546
  0
ARC
  5
22C
  8
0
 62
     7
 10
154.97158099999999
 20
196.24774600000001
 30
0.0
 40
0.751616
 50
138.11320599999999
 51
151.298362
  0
ARC
  5
22D
  8
0
 62
     7
 10
155.36119600000001
 20
195.918373
 30
0.0
 40
1.261668
 50
129.92919900000001
 51
138.79092199999999
  0
ARC
  5
22E
  8
0
 62
     7
 10
150.97190599999999
 20
198.228523
 30
0.0
 40
3.7071040000000002
 50
320.10015199999998
 51
331.68570299999999
  0
ARC
  5
22F
  8
0
 62
     7
 10
161.65946099999999
 20
188.80018799999999
 30
0.0
 40
10.359233
 50
128.41887600000001
 51
128.99023700000001
  0
ARC
  5
230
  8
0
 62
     7
 10
155.43625700000001
 20
196.489554
 30
0.0
 40
0.4670850000000001
 50
129.11944700000001
 51
136.42122000000001
  0
ARC
  5
231
  8
0
 62
     7
 10
156.029169
 20
195.91288
 30
0.0
 40
1.2941689999999999
 50
136.021276
 51
141.38650100000001
  0
ARC
  5
232
  8
0
 62
     7
 10
157.43725699999999
 20
194.77488600000001
 30
0.0
 40
3.1046099999999992
 50
141.19341499999999
 51
144.15260599999999
  0
ARC
  5
233
  8
0
 62
     7
 10
253.95342600000001
 20
95.025553000000002
 30
0.0
 40
141.70456300000001
 50
134.682515
 51
134.789387
  0
ARC
  5
234
  8
0
 62
     7
 10
153.47781900000001
 20
196.62061199999999
 30
0.0
 40
1.183168
 50
314.68978800000002
 51
319.25945200000001
  0
ARC
  5
235
  8
0
 62
     7
 10
151.95317900000001
 20
197.95857799999999
 30
0.0
 40
3.2116029999999989
 50
318.92572000000001
 51
322.37374599999998
  0
ARC
  5
236
  8
0
 62
     7
 10
148.50796
 20
200.62788399999999
 30
0.0
 40
7.5698919999999994
 50
322.29213099999998
 51
324.61085200000002
  0
ARC
  5
237
  8
0
 62
     7
 10
141.680733
 20
205.49481900000001
 30
0.0
 40
15.954281999999999
 50
324.561014
 51
326.08544999999998
  0
ARC
  5
238
  8
0
 62
     7
 10
147.02321000000001
 20
197.65295699999999
 30
0.0
 40
6.871294999999999
 50
330.60820699999999
 51
331.468435
  0
ARC
  5
239
  8
0
 62
     7
 10
153.46033800000001
 20
194.14987500000001
 30
0.0
 40
0.457303
 50
143.61585199999999
 51
151.092658
  0
ARC
  5
23A
  8
0
 62
     7
 10
154.117829
 20
193.67728
 30
0.0
 40
1.2669989999999991
 50
138.56407899999999
 51
144.04792800000001
  0
ARC
  5
23B
  8
0
 62
     7
 10
155.48760300000001
 20
192.48153400000001
 30
0.0
 40
3.0852520000000001
 50
135.77443500000001
 51
138.750619
  0
ARC
  5
23C
  8
0
 62
     7
 10
117.61201699999999
 20
239.386064
 30
0.0
 40
56.683906999999991
 50
308.832536
 51
308.99275399999999
  0
ARC
  5
23D
  8
0
 62
     7
 10
153.633523
 20
194.637552
 30
0.0
 40
0.7615310000000001
 50
128.88698600000001
 51
142.112694
  0
ARC
  5
23E
  8
0
 62
     7
 10
154.02248499999999
 20
194.31480500000001
 30
0.0
 40
1.2668099999999991
 50
141.39566500000001
 51
150.10138499999999
  0
ARC
  5
23F
  8
0
 62
     7
 10
175.58384699999999
 20
180.568321
 30
0.0
 40
26.198447999999999
 50
145.004525
 51
145.58147399999999
  0
ARC
  5
240
  8
0
 62
     7
 10
152.95853
 20
196.0814949999999
 30
0.0
 40
1.234472999999999
 50
320.790524
 51
325.17723100000001
  0
ARC
  5
241
  8
0
 62
     7
 10
151.37979200000001
 20
197.351122
 30
0.0
 40
3.2603779999999989
 50
317.64222999999998
 51
321.04101300000002
  0
ARC
  5
242
  8
0
 62
     7
 10
148.083066
 20
200.34636699999999
 30
0.0
 40
7.7145749999999991
 50
315.35487499999999
 51
317.70055300000001
  0
ARC
  5
243
  8
0
 62
     7
 10
141.925386
 20
206.40760399999999
 30
0.0
 40
16.354917
 50
313.95252299999999
 51
315.40630700000003
  0
ARC
  5
244
  8
0
 62
     7
 10
151.05176499999999
 20
198.164232
 30
0.0
 40
3.6046
 50
308.15753799999999
 51
320.069906
  0
ARC
  5
245
  8
0
 62
     7
 10
159.93476200000001
 20
190.710576
 30
0.0
 40
7.7907529999999987
 50
152.72731999999999
 51
157.246623
  0
ARC
  5
246
  8
0
 62
     7
 10
159.94474
 20
190.70763400000001
 30
0.0
 40
8.200787
 50
148.87833900000001
 51
161.11716699999999
  0
ARC
  5
247
  8
0
 62
     7
 10
115.506816
 20
269.00284299999998
 30
0.0
 40
82.212015000000008
 50
301.02600899999999
 51
301.13646599999998
  0
ARC
  5
248
  8
0
 62
     7
 10
158.41673800000001
 20
197.96905100000001
 30
0.0
 40
0.776305
 50
108.02451000000001
 51
121.005325
  0
ARC
  5
249
  8
0
 62
     7
 10
158.580623
 20
197.50348199999999
 30
0.0
 40
1.2697899999999991
 50
99.864509000000012
 51
108.556237
  0
ARC
  5
24A
  8
0
 62
     7
 10
155.97548499999999
 20
201.62029999999999
 30
0.0
 40
3.611384999999999
 50
289.95998100000003
 51
301.84830099999999
  0
ARC
  5
24B
  8
0
 62
     7
 10
159.944051
 20
190.717423
 30
0.0
 40
8.1910969999999992
 50
88.876968999999988
 51
101.128518
  0
ARC
  5
24C
  8
0
 62
     7
 10
154.90391199999999
 20
224.11599699999999
 30
0.0
 40
25.988285000000001
 50
278.74950700000011
 51
278.97627799999998
  0
ARC
  5
24D
  8
0
 62
     7
 10
158.929418
 20
197.97108899999989
 30
0.0
 40
0.4647120000000001
 50
98.951001000000005
 51
106.05547
  0
ARC
  5
24E
  8
0
 62
     7
 10
159.13422600000001
 20
197.23459600000001
 30
0.0
 40
1.229139999999999
 50
105.73521599999999
 51
111.35480200000001
  0
ARC
  5
24F
  8
0
 62
     7
 10
159.760862
 20
195.602532
 30
0.0
 40
2.9773559999999999
 50
111.149063
 51
114.29173
  0
ARC
  5
250
  8
0
 62
     7
 10
111.99400300000001
 20
370.492661
 30
0.0
 40
178.49980500000001
 50
284.71824700000002
 51
284.80309999999997
  0
ARC
  5
251
  8
0
 62
     7
 10
157.256843
 20
199.20656199999999
 30
0.0
 40
1.3342009999999991
 50
284.91886099999999
 51
289.19737400000002
  0
ARC
  5
252
  8
0
 62
     7
 10
156.6198
 20
201.06198800000001
 30
0.0
 40
3.295933999999999
 50
289.04980599999999
 51
292.44129400000003
  0
ARC
  5
253
  8
0
 62
     7
 10
154.911708
 20
205.22565399999999
 30
0.0
 40
7.7963389999999988
 50
292.36278900000002
 51
294.70054699999997
  0
ARC
  5
254
  8
0
 62
     7
 10
151.406857
 20
212.88756100000001
 30
0.0
 40
16.221816
 50
294.638552
 51
296.07074699999998
  0
ARC
  5
255
  8
0
 62
     7
 10
159.96533500000001
 20
190.474268
 30
0.0
 40
8.0349780000000006
 50
92.813458000000026
 51
97.194213000000005
  0
ARC
  5
256
  8
0
 62
     7
 10
161.21854300000001
 20
188.296119
 30
0.0
 40
10.520716
 50
120.912836
 51
121.474327
  0
ARC
  5
257
  8
0
 62
     7
 10
156.04783699999999
 20
196.93625900000001
 30
0.0
 40
0.4515520000000001
 50
113.664896
 51
121.23325699999999
  0
ARC
  5
258
  8
0
 62
     7
 10
156.373009
 20
196.218401
 30
0.0
 40
1.2396009999999991
 50
108.51056199999999
 51
114.11274400000001
  0
ARC
  5
259
  8
0
 62
     7
 10
156.94702899999999
 20
194.53976299999999
 30
0.0
 40
3.0136569999999989
 50
105.683447
 51
108.727109
  0
ARC
  5
25A
  8
0
 62
     7
 10
166.36651800000001
 20
134.77398299999999
 30
0.0
 40
64.037021999999993
 50
98.879098000000013
 51
99.020765999999995
  0
ARC
  5
25B
  8
0
 62
     7
 10
156.44502900000001
 20
197.26107099999999
 30
0.0
 40
0.767188
 50
98.926579000000032
 51
112.28627
  0
ARC
  5
25C
  8
0
 62
     7
 10
156.62937600000001
 20
196.769294
 30
0.0
 40
1.292238999999999
 50
111.580279
 51
119.985456
  0
ARC
  5
25D
  8
0
 62
     7
 10
141.34578400000001
 20
231.49557300000001
 30
0.0
 40
37.255901999999999
 50
295.02571999999998
 51
295.43219099999999
  0
ARC
  5
25E
  8
0
 62
     7
 10
156.565687
 20
198.88545999999999
 30
0.0
 40
1.268897999999999
 50
290.93623000000002
 51
295.20015699999999
  0
ARC
  5
25F
  8
0
 62
     7
 10
155.86982499999999
 20
200.679024
 30
0.0
 40
3.192712999999999
 50
287.62820799999997
 51
291.09825699999999
  0
ARC
  5
260
  8
0
 62
     7
 10
154.51834500000001
 20
204.897739
 30
0.0
 40
7.622611
 50
285.40310699999998
 51
287.70656700000001
  0
ARC
  5
261
  8
0
 62
     7
 10
152.23250200000001
 20
213.145522
 30
0.0
 40
16.181287000000001
 50
283.94622700000002
 51
285.44934899999998
  0
ARC
  5
262
  8
0
 62
     7
 10
155.961331
 20
201.655708
 30
0.0
 40
3.6494979999999999
 50
278.20855999999998
 51
289.979085
  0
ARC
  5
263
  8
0
 62
     7
 10
159.58101500000001
 20
191.22411399999999
 30
0.0
 40
7.1695970000000004
 50
122.531184
 51
127.4423
  0
ARC
  5
264
  8
0
 62
     7
 10
159.974053
 20
190.665987
 30
0.0
 40
8.2516590000000001
 50
118.920856
 51
131.083505
  0
ARC
  5
265
  8
0
 62
     7
 10
35.511474999999997
 20
179.800138
 30
0.0
 40
60.967284999999997
 50
358.12329999999997
 51
5.0204209999999989
  0
ARC
  5
266
  8
0
 62
     7
 10
95.829683000000003
 20
177.83676
 30
0.0
 40
0.617269
 50
282.01979699999998
 51
356.91453100000001
  0
LINE
  5
267
  8
0
 62
     7
 10
95.958200000000005
 20
177.233
 30
0.0
 11
92.476399999999998
 21
176.57400000000001
 31
0.0
  0
ARC
  5
268
  8
0
 62
     7
 10
35.512737000000001
 20
179.84600699999999
 30
0.0
 40
60.962031000000003
 50
4.9775799999999997
 51
11.875567
  0
ARC
  5
269
  8
0
 62
     7
 10
94.568806999999993
 20
192.25153900000001
 30
0.0
 40
0.6171870000000002
 50
13.078117000000001
 51
87.984115999999986
  0
LINE
  5
26A
  8
0
 62
     7
 10
94.590500000000006
 20
192.86799999999999
 30
0.0
 11
91.047000000000011
 21
192.91200000000001
 31
0.0
  0
LINE
  5
26B
  8
0
 62
     7
 10
95.746700000000004
 20
185.09200000000001
 30
0.0
 11
96.253799999999984
 21
179.29300000000001
 31
0.0
  0
LINE
  5
26C
  8
0
 62
     7
 10
95.239599999999996
 20
190.89099999999999
 30
0.0
 11
95.746700000000004
 21
185.09200000000001
 31
0.0
  0
LINE
  5
26D
  8
0
 62
     7
 10
91.047000000000011
 20
192.91200000000001
 30
0.0
 11
92.476399999999998
 21
176.57400000000001
 31
0.0
  0
ARC
  5
26E
  8
0
 62
     7
 10
133.49725900000001
 20
126.52813399999999
 30
0.0
 40
7.4001130000000002
 50
270.00002000000001
 51
359.99999000000003
  0
ARC
  5
26F
  8
0
 62
     7
 10
133.49725900000001
 20
126.528131
 30
0.0
 40
7.400110999999999
 50
179.99996999999999
 51
270.00002000000001
  0
ARC
  5
270
  8
0
 62
     7
 10
133.49726200000001
 20
126.528131
 30
0.0
 40
7.4001130000000002
 50
90.0
 51
179.99996999999999
  0
ARC
  5
271
  8
0
 62
     7
 10
133.49725900000001
 20
126.528131
 30
0.0
 40
7.4001130000000002
 50
0.00001
 51
89.999980000000008
  0
ARC
  5
272
  8
0
  6
AIGENLINE001
 62
     7
 10
94.830465999999987
 20
98.909255999999999
 30
0.0
 40
2.3830709999999988
 50
186.80664300000001
 51
268.19824299999999
  0
ARC
  5
273
  8
0
 62
     7
 10
93.510603000000003
 20
97.469195999999997
 30
0.0
 40
4.143686999999999
 50
186.78894399999999
 51
268.20679200000001
  0
ARC
  5
274
  8
0
 62
     7
 10
96.148867999999993
 20
100.348682
 30
0.0
 40
0.6211090000000001
 50
186.75260599999999
 51
268.20857699999999
  0
LINE
  5
275
  8
0
 62
     7
 10
137.99700000000001
 20
87.727800000000002
 30
0.0
 11
138.197
 21
87.927700000000002
 31
0.0
  0
LINE
  5
276
  8
0
 62
     7
 10
128.99700000000001
 20
87.727800000000002
 30
0.0
 11
128.797
 21
87.927700000000002
 31
0.0
  0
LINE
  5
277
  8
0
  6
AIGENLINE001
 62
     7
 10
133.49700000000001
 20
86.172000000000025
 30
0.0
 11
133.49700000000001
 21
109.32899999999999
 31
0.0
  0
LINE
  5
278
  8
0
 62
     7
 10
141.773
 20
104.328
 30
0.0
 11
150.64699999999999
 21
104.328
 31
0.0
  0
LINE
  5
279
  8
0
 62
     7
 10
136.09100000000001
 20
78.428100000000001
 30
0.0
 11
137.86000000000001
 21
78.902100000000004
 31
0.0
  0
LINE
  5
27A
  8
0
 62
     7
 10
137.86000000000001
 20
78.902100000000004
 30
0.0
 11
136.09100000000001
 21
79.376199999999983
 31
0.0
  0
LINE
  5
27B
  8
0
 62
     7
 10
136.09100000000001
 20
79.376199999999983
 30
0.0
 11
136.09100000000001
 21
78.428100000000001
 31
0.0
  0
LINE
  5
27C
  8
0
 62
     7
 10
130.916
 20
79.364500000000007
 30
0.0
 11
129.14699999999999
 21
78.8904
 31
0.0
  0
LINE
  5
27D
  8
0
 62
     7
 10
129.14699999999999
 20
78.8904
 30
0.0
 11
130.916
 21
78.416399999999996
 31
0.0
  0
LINE
  5
27E
  8
0
 62
     7
 10
130.916
 20
78.416399999999996
 30
0.0
 11
130.916
 21
79.364500000000007
 31
0.0
  0
LINE
  5
27F
  8
0
 62
     7
 10
137.86000000000001
 20
78.8904
 30
0.0
 11
129.14699999999999
 21
78.8904
 31
0.0
  0
LINE
  5
280
  8
0
 62
     7
 10
131.72800000000001
 20
207.988
 30
0.0
 11
133.49700000000001
 21
208.46199999999999
 31
0.0
  0
LINE
  5
281
  8
0
 62
     7
 10
133.49700000000001
 20
208.46199999999999
 30
0.0
 11
131.72800000000001
 21
208.93600000000001
 31
0.0
  0
LINE
  5
282
  8
0
 62
     7
 10
131.72800000000001
 20
208.93600000000001
 30
0.0
 11
131.72800000000001
 21
207.988
 31
0.0
  0
LINE
  5
283
  8
0
 62
     7
 10
90.542500000000004
 20
208.92400000000001
 30
0.0
 11
88.773300000000006
 21
208.44999999999999
 31
0.0
  0
LINE
  5
284
  8
0
 62
     7
 10
88.773300000000006
 20
208.44999999999999
 30
0.0
 11
90.542500000000004
 21
207.976
 31
0.0
  0
LINE
  5
285
  8
0
 62
     7
 10
90.542500000000004
 20
207.976
 30
0.0
 11
90.542500000000004
 21
208.92400000000001
 31
0.0
  0
LINE
  5
286
  8
0
 62
     7
 10
133.49700000000001
 20
208.44999999999999
 30
0.0
 11
88.773300000000006
 21
208.44999999999999
 31
0.0
  0
LINE
  5
287
  8
0
 62
     7
 10
133.49700000000001
 20
137.14500000000001
 30
0.0
 11
133.49700000000001
 21
209.00999999999999
 31
0.0
  0
ARC
  5
288
  8
0
 62
     7
 10
133.49708799999999
 20
16.353009
 30
0.0
 40
91.573998999999986
 50
85.364962000000006
 51
94.635018000000017
  0
LINE
  5
289
  8
0
 62
     7
 10
126.09699999999999
 20
107.628
 30
0.0
 11
140.89699999999999
 21
107.628
 31
0.0
  0
LINE
  5
28A
  8
0
 62
     7
 10
126.09699999999999
 20
107.52800000000001
 30
0.0
 11
140.89699999999999
 21
107.52800000000001
 31
0.0
  0
LINE
  5
28B
  8
0
 62
     7
 10
140.89699999999999
 20
107.628
 30
0.0
 11
140.89699999999999
 21
107.52800000000001
 31
0.0
  0
LINE
  5
28C
  8
0
 62
     7
 10
126.09699999999999
 20
107.628
 30
0.0
 11
126.09699999999999
 21
107.52800000000001
 31
0.0
  0
LINE
  5
28D
  8
0
 62
     7
 10
140.89699999999999
 20
111.428
 30
0.0
 11
140.89699999999999
 21
108.532
 31
0.0
  0
LINE
  5
28E
  8
0
 62
     7
 10
127.866
 20
111.342
 30
0.0
 11
126.09699999999999
 21
110.86799999999999
 31
0.0
  0
LINE
  5
28F
  8
0
 62
     7
 10
126.09699999999999
 20
110.86799999999999
 30
0.0
 11
127.866
 21
110.395
 31
0.0
  0
LINE
  5
290
  8
0
 62
     7
 10
127.866
 20
110.395
 30
0.0
 11
127.866
 21
111.342
 31
0.0
  0
LINE
  5
291
  8
0
 62
     7
 10
139.12799999999999
 20
110.395
 30
0.0
 11
140.89699999999999
 21
110.86799999999999
 31
0.0
  0
LINE
  5
292
  8
0
 62
     7
 10
140.89699999999999
 20
110.86799999999999
 30
0.0
 11
139.12799999999999
 21
111.342
 31
0.0
  0
LINE
  5
293
  8
0
 62
     7
 10
139.12799999999999
 20
111.342
 30
0.0
 11
139.12799999999999
 21
110.395
 31
0.0
  0
LINE
  5
294
  8
0
 62
     7
 10
126.09699999999999
 20
110.86799999999999
 30
0.0
 11
140.89699999999999
 21
110.86799999999999
 31
0.0
  0
LINE
  5
295
  8
0
 62
     7
 10
126.09699999999999
 20
111.428
 30
0.0
 11
126.09699999999999
 21
108.532
 31
0.0
  0
LINE
  5
296
  8
0
 62
     7
 10
130.59700000000001
 20
105.117
 30
0.0
 11
136.39699999999999
 21
105.117
 31
0.0
  0
LINE
  5
297
  8
0
 62
     7
 10
129.95599999999999
 20
105.217
 30
0.0
 11
137.03899999999999
 21
105.217
 31
0.0
  0
LINE
  5
298
  8
0
 62
     7
 10
129.95599999999999
 20
106.03700000000001
 30
0.0
 11
137.03899999999999
 21
106.03700000000001
 31
0.0
  0
LINE
  5
299
  8
0
 62
     7
 10
130.59700000000001
 20
106.137
 30
0.0
 11
136.39699999999999
 21
106.137
 31
0.0
  0
LINE
  5
29A
  8
0
 62
     7
 10
137.749
 20
105.563
 30
0.0
 11
137.28200000000001
 21
105.423
 31
0.0
  0
LINE
  5
29B
  8
0
 62
     7
 10
137.749
 20
105.69199999999999
 30
0.0
 11
137.28200000000001
 21
105.83199999999999
 31
0.0
  0
ARC
  5
29C
  8
0
 62
     7
 10
137.725843
 20
105.629226
 30
0.0
 40
0.070678
 50
289.31795
 51
14.220666
  0
ARC
  5
29D
  8
0
 62
     7
 10
137.728488
 20
105.626352
 30
0.0
 40
0.068905
 50
17.077964999999999
 51
72.486318000000011
  0
ARC
  5
29E
  8
0
 62
     7
 10
137.395252
 20
105.04185699999999
 30
0.0
 40
0.397263
 50
106.553653
 51
153.78793999999999
  0
ARC
  5
29F
  8
0
 62
     7
 10
137.39842400000001
 20
106.216491
 30
0.0
 40
0.401774
 50
206.49302499999999
 51
253.16538199999999
  0
LINE
  5
2A0
  8
0
 62
     7
 10
136.39699999999999
 20
106.03700000000001
 30
0.0
 11
136.39699999999999
 21
106.137
 31
0.0
  0
LINE
  5
2A1
  8
0
 62
     7
 10
136.797
 20
106.428
 30
0.0
 11
136.797
 21
107.52800000000001
 31
0.0
  0
ARC
  5
2A2
  8
0
 62
     7
 10
136.38857400000001
 20
106.569272
 30
0.0
 40
0.432182
 50
271.11923100000001
 51
340.91205000000002
  0
LINE
  5
2A3
  8
0
 62
     7
 10
136.39699999999999
 20
105.217
 30
0.0
 11
136.39699999999999
 21
105.117
 31
0.0
  0
LINE
  5
2A4
  8
0
 62
     7
 10
136.797
 20
104.827
 30
0.0
 11
136.797
 21
104.727
 31
0.0
  0
ARC
  5
2A5
  8
0
 62
     7
 10
136.388599
 20
104.685016
 30
0.0
 40
0.432484
 50
19.213156999999999
 51
88.884818999999993
  0
LINE
  5
2A6
  8
0
 62
     7
 10
129.21899999999999
 20
105.578
 30
0.0
 11
137.797
 21
105.578
 31
0.0
  0
LINE
  5
2A7
  8
0
 62
     7
 10
129.21899999999999
 20
105.678
 30
0.0
 11
137.797
 21
105.678
 31
0.0
  0
LINE
  5
2A8
  8
0
 62
     7
 10
129.245
 20
105.563
 30
0.0
 11
129.71199999999999
 21
105.423
 31
0.0
  0
LINE
  5
2A9
  8
0
 62
     7
 10
129.245
 20
105.69199999999999
 30
0.0
 11
129.71199999999999
 21
105.83199999999999
 31
0.0
  0
ARC
  5
2AA
  8
0
 62
     7
 10
129.26798400000001
 20
105.625553
 30
0.0
 40
0.070386
 50
109.100081
 51
194.438536
  0
ARC
  5
2AB
  8
0
 62
     7
 10
129.26676599999999
 20
105.62930799999999
 30
0.0
 40
0.070253
 50
197.65357299999991
 51
251.91075000000001
  0
ARC
  5
2AC
  8
0
 62
     7
 10
129.595752
 20
105.0381
 30
0.0
 40
0.401774
 50
26.493005
 51
73.165362000000002
  0
ARC
  5
2AD
  8
0
 62
     7
 10
129.59393
 20
106.21865
 30
0.0
 40
0.4043700000000001
 50
286.99323199999998
 51
333.34840000000003
  0
LINE
  5
2AE
  8
0
 62
     7
 10
130.59700000000001
 20
106.03700000000001
 30
0.0
 11
130.59700000000001
 21
106.137
 31
0.0
  0
LINE
  5
2AF
  8
0
 62
     7
 10
130.197
 20
106.428
 30
0.0
 11
130.197
 21
107.52800000000001
 31
0.0
  0
ARC
  5
2B0
  8
0
 62
     7
 10
130.6062
 20
106.57008399999999
 30
0.0
 40
0.4330130000000001
 50
199.16355899999999
 51
268.75823100000002
  0
LINE
  5
2B1
  8
0
 62
     7
 10
130.59700000000001
 20
105.217
 30
0.0
 11
130.59700000000001
 21
105.117
 31
0.0
  0
LINE
  5
2B2
  8
0
 62
     7
 10
130.197
 20
104.827
 30
0.0
 11
130.197
 21
104.727
 31
0.0
  0
ARC
  5
2B3
  8
0
 62
     7
 10
130.60522599999999
 20
104.68551100000001
 30
0.0
 40
0.431989
 50
91.115408999999985
 51
160.83351099999999
  0
LINE
  5
2B4
  8
0
 62
     7
 10
130.197
 20
106.527
 30
0.0
 11
136.797
 21
106.527
 31
0.0
  0
LINE
  5
2B5
  8
0
 62
     7
 10
126.497
 20
104.727
 30
0.0
 11
140.49700000000001
 21
104.727
 31
0.0
  0
LINE
  5
2B6
  8
0
 62
     7
 10
140.49700000000001
 20
104.727
 30
0.0
 11
140.49700000000001
 21
104.328
 31
0.0
  0
LINE
  5
2B7
  8
0
 62
     7
 10
126.497
 20
104.727
 30
0.0
 11
126.497
 21
104.328
 31
0.0
  0
LINE
  5
2B8
  8
0
 62
     7
 10
140.24700000000001
 20
122.928
 30
0.0
 11
140.24700000000001
 21
123.492
 31
0.0
  0
LINE
  5
2B9
  8
0
 62
     7
 10
140.447
 20
122.928
 30
0.0
 11
139.96299999999999
 21
122.928
 31
0.0
  0
LINE
  5
2BA
  8
0
 62
     7
 10
142.64699999999999
 20
122.127
 30
0.0
 11
139.447
 21
122.127
 31
0.0
  0
LINE
  5
2BB
  8
0
 62
     7
 10
135.64699999999999
 20
118.527
 30
0.0
 11
135.64699999999999
 21
119.446
 31
0.0
  0
LINE
  5
2BC
  8
0
 62
     7
 10
135.047
 20
118.527
 30
0.0
 11
135.047
 21
119.291
 31
0.0
  0
LINE
  5
2BD
  8
0
 62
     7
 10
129.24700000000001
 20
119.52800000000001
 30
0.0
 11
131.09299999999999
 21
119.52800000000001
 31
0.0
  0
LINE
  5
2BE
  8
0
 62
     7
 10
129.24700000000001
 20
120.47
 30
0.0
 11
129.24700000000001
 21
119.52800000000001
 31
0.0
  0
LINE
  5
2BF
  8
0
 62
     7
 10
128.64699999999999
 20
120.93899999999999
 30
0.0
 11
128.64699999999999
 21
119.727
 31
0.0
  0
LINE
  5
2C0
  8
0
 62
     7
 10
128.334
 20
121.227
 30
0.0
 11
113.497
 21
121.227
 31
0.0
  0
LINE
  5
2C1
  8
0
 62
     7
 10
121.84699999999999
 20
122.928
 30
0.0
 11
127.03100000000001
 21
122.928
 31
0.0
  0
LINE
  5
2C2
  8
0
 62
     7
 10
121.84699999999999
 20
130.12799999999999
 30
0.0
 11
127.03100000000001
 21
130.12799999999999
 31
0.0
  0
ARC
  5
2C3
  8
0
  6
AIGENLINE002
 62
     7
 10
141.70497
 20
102.11904199999999
 30
0.0
 40
0.207985
 50
92.200411000000017
 51
177.60164599999999
  0
ARC
  5
2C4
  8
0
  6
AIGENLINE002
 62
     7
 10
141.28931600000001
 20
101.935273
 30
0.0
 40
0.208006
 50
272.21356900000001
 51
357.78644100000002
  0
LINE
  5
2C5
  8
0
  6
AIGENLINE002
 62
     7
 10
141.49700000000001
 20
102.128
 30
0.0
 11
141.49700000000001
 21
101.92700000000001
 31
0.0
  0
ARC
  5
2C6
  8
0
  6
AIGENLINE002
 62
     7
 10
140.90511000000001
 20
104.119924
 30
0.0
 40
0.20803
 50
92.226678000000007
 51
177.97052400000001
  0
LINE
  5
2C7
  8
0
  6
AIGENLINE002
 62
     7
 10
141.297
 20
101.727
 30
0.0
 11
140.697
 21
101.727
 31
0.0
  0
ARC
  5
2C8
  8
0
  6
AIGENLINE002
 62
     7
 10
126.088748
 20
104.11924999999999
 30
0.0
 40
0.208717
 50
2.2081209999999989
 51
87.693337999999997
  0
ARC
  5
2C9
  8
0
  6
AIGENLINE002
 62
     7
 10
125.70486
 20
101.935273
 30
0.0
 40
0.208006
 50
182.21357900000001
 51
267.786451
  0
LINE
  5
2CA
  8
0
  6
AIGENLINE002
 62
     7
 10
125.697
 20
101.727
 30
0.0
 11
126.297
 21
101.727
 31
0.0
  0
ARC
  5
2CB
  8
0
  6
AIGENLINE002
 62
     7
 10
125.289845
 20
102.11967
 30
0.0
 40
0.207321
 50
2.2322340000000001
 51
88.064368999999985
  0
LINE
  5
2CC
  8
0
  6
AIGENLINE002
 62
     7
 10
125.497
 20
101.92700000000001
 30
0.0
 11
125.497
 21
102.128
 31
0.0
  0
LINE
  5
2CD
  8
0
 62
     7
 10
142.64699999999999
 20
119.52800000000001
 30
0.0
 11
140.64699999999999
 21
119.52800000000001
 31
0.0
  0
LINE
  5
2CE
  8
0
 62
     7
 10
142.64699999999999
 20
118.928
 30
0.0
 11
135.047
 21
118.928
 31
0.0
  0
LINE
  5
2CF
  8
0
 62
     7
 10
128.64699999999999
 20
119.828
 30
0.0
 11
113.497
 21
119.828
 31
0.0
  0
ARC
  5
2D0
  8
0
 62
     7
 10
113.72511799999999
 20
120.17234500000001
 30
0.0
 40
0.4226370000000001
 50
122.670349
 51
208.39121099999991
  0
ARC
  5
2D1
  8
0
 62
     7
 10
113.69990300000001
 20
120.175145
 30
0.0
 40
0.402046
 50
210.45130700000001
 51
239.68628699999999
  0
ARC
  5
2D2
  8
0
 62
     7
 10
113.283592
 20
120.181929
 30
0.0
 40
0.413219
 50
301.09078899999997
 51
359.468052
  0
ARC
  5
2D3
  8
0
 62
     7
 10
113.282837
 20
120.17382499999999
 30
0.0
 40
0.413979
 50
0.5906500000000001
 51
58.850508999999988
  0
ARC
  5
2D4
  8
0
 62
     7
 10
113.723984
 20
120.87224500000001
 30
0.0
 40
0.421569
 50
122.58027800000001
 51
208.44693100000001
  0
ARC
  5
2D5
  8
0
 62
     7
 10
113.69990300000001
 20
120.875193
 30
0.0
 40
0.402046
 50
210.45130700000001
 51
239.68628699999999
  0
LINE
  5
2D6
  8
0
 62
     7
 10
128.64699999999999
 20
119.727
 30
0.0
 11
129.24700000000001
 21
119.52800000000001
 31
0.0
  0
LINE
  5
2D7
  8
0
 62
     7
 10
140.447
 20
122.127
 30
0.0
 11
140.447
 21
122.928
 31
0.0
  0
LINE
  5
2D8
  8
0
 62
     7
 10
142.64699999999999
 20
118.527
 30
0.0
 11
135.047
 21
118.527
 31
0.0
  0
LINE
  5
2D9
  8
0
 62
     7
 10
142.64699999999999
 20
118.527
 30
0.0
 11
142.64699999999999
 21
122.127
 31
0.0
  0
LINE
  5
2DA
  8
0
 62
     7
 10
140.64699999999999
 20
118.527
 30
0.0
 11
140.64699999999999
 21
122.127
 31
0.0
  0
ARC
  5
2DB
  8
0
 62
     7
 10
115.897567
 20
124.927876
 30
0.0
 40
2.8850739999999999
 50
146.31216800000001
 51
213.68783199999999
  0
ARC
  5
2DC
  8
0
 62
     7
 10
111.164751
 20
124.934364
 30
0.0
 40
2.832120999999999
 50
325.43580500000002
 51
359.86177000000009
  0
ARC
  5
2DD
  8
0
 62
     7
 10
111.16348499999999
 20
124.920995
 30
0.0
 40
2.8333859999999991
 50
0.132171
 51
34.556212000000002
  0
ARC
  5
2DE
  8
0
 62
     7
 10
115.893484
 20
128.12778700000001
 30
0.0
 40
2.881343999999999
 50
146.277117
 51
213.722883
  0
LINE
  5
2DF
  8
0
 62
     7
 10
113.497
 20
123.328
 30
0.0
 11
116.447
 21
123.328
 31
0.0
  0
LINE
  5
2E0
  8
0
 62
     7
 10
113.497
 20
129.727
 30
0.0
 11
116.447
 21
129.727
 31
0.0
  0
LINE
  5
2E1
  8
0
 62
     7
 10
121.84699999999999
 20
131.12799999999999
 30
0.0
 11
121.84699999999999
 21
121.928
 31
0.0
  0
LINE
  5
2E2
  8
0
 62
     7
 10
121.447
 20
131.12799999999999
 30
0.0
 11
121.447
 21
121.928
 31
0.0
  0
LINE
  5
2E3
  8
0
 62
     7
 10
117.84699999999999
 20
121.928
 30
0.0
 11
117.84699999999999
 21
122.027
 31
0.0
  0
ARC
  5
2E4
  8
0
 62
     7
 10
117.07050700000001
 20
122.65089399999999
 30
0.0
 40
0.623912
 50
182.14233999999999
 51
267.82479000000001
  0
LINE
  5
2E5
  8
0
 62
     7
 10
117.047
 20
122.027
 30
0.0
 11
121.447
 21
122.027
 31
0.0
  0
LINE
  5
2E6
  8
0
 62
     7
 10
117.84699999999999
 20
121.928
 30
0.0
 11
121.84699999999999
 21
121.928
 31
0.0
  0
LINE
  5
2E7
  8
0
 62
     7
 10
117.84699999999999
 20
123.004
 30
0.0
 11
121.447
 21
123.004
 31
0.0
  0
LINE
  5
2E8
  8
0
 62
     7
 10
116.447
 20
130.428
 30
0.0
 11
116.447
 21
122.688
 31
0.0
  0
LINE
  5
2E9
  8
0
 62
     7
 10
117.84699999999999
 20
123.64100000000001
 30
0.0
 11
117.84699999999999
 21
123.004
 31
0.0
  0
LINE
  5
2EA
  8
0
 62
     7
 10
117.84699999999999
 20
126.92700000000001
 30
0.0
 11
117.84699999999999
 21
126.128
 31
0.0
  0
LINE
  5
2EB
  8
0
 62
     7
 10
117.84699999999999
 20
130.05099999999999
 30
0.0
 11
117.84699999999999
 21
129.41399999999999
 31
0.0
  0
LINE
  5
2EC
  8
0
 62
     7
 10
117.84699999999999
 20
131.12799999999999
 30
0.0
 11
117.84699999999999
 21
131.02699999999999
 31
0.0
  0
LINE
  5
2ED
  8
0
 62
     7
 10
117.84699999999999
 20
129.41399999999999
 30
0.0
 11
121.447
 21
129.41399999999999
 31
0.0
  0
LINE
  5
2EE
  8
0
 62
     7
 10
117.84699999999999
 20
123.64100000000001
 30
0.0
 11
121.447
 21
123.64100000000001
 31
0.0
  0
LINE
  5
2EF
  8
0
 62
     7
 10
117.84699999999999
 20
123.56999999999999
 30
0.0
 11
121.447
 21
123.56999999999999
 31
0.0
  0
LINE
  5
2F0
  8
0
 62
     7
 10
121.447
 20
126.128
 30
0.0
 11
117.84699999999999
 21
126.128
 31
0.0
  0
LINE
  5
2F1
  8
0
 62
     7
 10
121.447
 20
126.92700000000001
 30
0.0
 11
117.84699999999999
 21
126.92700000000001
 31
0.0
  0
LINE
  5
2F2
  8
0
 62
     7
 10
117.84699999999999
 20
129.48500000000001
 30
0.0
 11
121.447
 21
129.48500000000001
 31
0.0
  0
LINE
  5
2F3
  8
0
 62
     7
 10
117.84699999999999
 20
130.05099999999999
 30
0.0
 11
121.447
 21
130.05099999999999
 31
0.0
  0
ARC
  5
2F4
  8
0
 62
     7
 10
117.07015699999999
 20
130.40432899999999
 30
0.0
 40
0.623563
 50
92.144319999999993
 51
177.85565099999999
  0
LINE
  5
2F5
  8
0
 62
     7
 10
117.047
 20
131.02699999999999
 30
0.0
 11
121.447
 21
131.02699999999999
 31
0.0
  0
LINE
  5
2F6
  8
0
 62
     7
 10
117.84699999999999
 20
131.12799999999999
 30
0.0
 11
121.84699999999999
 21
131.12799999999999
 31
0.0
  0
LINE
  5
2F7
  8
0
 62
     7
 10
126.297
 20
101.727
 30
0.0
 11
140.697
 21
101.727
 31
0.0
  0
LINE
  5
2F8
  8
0
 62
     7
 10
140.697
 20
101.727
 30
0.0
 11
140.697
 21
100.128
 31
0.0
  0
LINE
  5
2F9
  8
0
 62
     7
 10
126.297
 20
101.727
 30
0.0
 11
126.297
 21
100.128
 31
0.0
  0
LINE
  5
2FA
  8
0
 62
     7
 10
128.49700000000001
 20
104.127
 30
0.0
 11
128.70699999999999
 21
101.727
 31
0.0
  0
LINE
  5
2FB
  8
0
 62
     7
 10
138.49700000000001
 20
104.127
 30
0.0
 11
138.28700000000001
 21
101.727
 31
0.0
  0
LINE
  5
2FC
  8
0
 62
     7
 10
140.697
 20
104.328
 30
0.0
 11
140.697
 21
104.127
 31
0.0
  0
LINE
  5
2FD
  8
0
 62
     7
 10
126.297
 20
104.328
 30
0.0
 11
126.297
 21
104.127
 31
0.0
  0
LINE
  5
2FE
  8
0
 62
     7
 10
126.297
 20
104.328
 30
0.0
 11
140.697
 21
104.328
 31
0.0
  0
LINE
  5
2FF
  8
0
 62
     7
 10
126.297
 20
104.127
 30
0.0
 11
140.697
 21
104.127
 31
0.0
  0
LINE
  5
300
  8
0
 62
     7
 10
128.797
 20
87.927700000000002
 30
0.0
 11
138.197
 21
87.927700000000002
 31
0.0
  0
LINE
  5
301
  8
0
 62
     7
 10
128.99700000000001
 20
87.727800000000002
 30
0.0
 11
137.99700000000001
 21
87.727800000000002
 31
0.0
  0
ARC
  5
302
  8
0
 62
     7
 10
141.608745
 20
94.689003999999997
 30
0.0
 40
1.0391209999999991
 50
2.130487
 51
87.869502999999995
  0
LINE
  5
303
  8
0
 62
     7
 10
142.64699999999999
 20
94.727599999999995
 30
0.0
 11
142.64699999999999
 21
90.326800000000006
 31
0.0
  0
LINE
  5
304
  8
0
 62
     7
 10
141.64699999999999
 20
95.727400000000003
 30
0.0
 11
140.64699999999999
 21
95.727400000000003
 31
0.0
  0
ARC
  5
305
  8
0
 62
     7
 10
135.062522
 20
95.311779999999999
 30
0.0
 40
0.4159080000000001
 50
92.108656000000025
 51
177.89131399999999
  0
LINE
  5
306
  8
0
 62
     7
 10
135.047
 20
95.727400000000003
 30
0.0
 11
135.64699999999999
 21
95.727400000000003
 31
0.0
  0
LINE
  5
307
  8
0
 62
     7
 10
128.797
 20
90.326800000000006
 30
0.0
 11
128.797
 21
87.927700000000002
 31
0.0
  0
LINE
  5
308
  8
0
 62
     7
 10
128.99700000000001
 20
90.326800000000006
 30
0.0
 11
128.99700000000001
 21
87.727800000000002
 31
0.0
  0
LINE
  5
309
  8
0
 62
     7
 10
137.99700000000001
 20
90.326800000000006
 30
0.0
 11
137.99700000000001
 21
87.727800000000002
 31
0.0
  0
LINE
  5
30A
  8
0
 62
     7
 10
138.197
 20
90.326800000000006
 30
0.0
 11
138.197
 21
87.927700000000002
 31
0.0
  0
LINE
  5
30B
  8
0
 62
     7
 10
134.64699999999999
 20
95.327099999999987
 30
0.0
 11
134.64699999999999
 21
90.326800000000006
 31
0.0
  0
LINE
  5
30C
  8
0
 62
     7
 10
128.447
 20
91.527100000000004
 30
0.0
 11
128.447
 21
91.127499999999998
 31
0.0
  0
LINE
  5
30D
  8
0
 62
     7
 10
129.72399999999999
 20
93.623799999999989
 30
0.0
 11
129.64099999999999
 21
93.5274
 31
0.0
  0
LINE
  5
30E
  8
0
 62
     7
 10
130.00700000000001
 20
94.037199999999984
 30
0.0
 11
129.72399999999999
 21
93.623799999999989
 31
0.0
  0
LINE
  5
30F
  8
0
 62
     7
 10
130.24299999999999
 20
94.527100000000004
 30
0.0
 11
130.00700000000001
 21
94.037199999999984
 31
0.0
  0
LINE
  5
310
  8
0
 62
     7
 10
130.42400000000001
 20
95.077000000000012
 30
0.0
 11
130.24299999999999
 21
94.527100000000004
 31
0.0
  0
LINE
  5
311
  8
0
 62
     7
 10
130.54499999999999
 20
95.670900000000003
 30
0.0
 11
130.42400000000001
 21
95.077000000000012
 31
0.0
  0
LINE
  5
312
  8
0
 62
     7
 10
130.602
 20
96.291000000000011
 30
0.0
 11
130.54499999999999
 21
95.670900000000003
 31
0.0
  0
LINE
  5
313
  8
0
 62
     7
 10
130.59399999999999
 20
96.918700000000015
 30
0.0
 11
130.602
 21
96.291000000000011
 31
0.0
  0
LINE
  5
314
  8
0
 62
     7
 10
130.52099999999999
 20
97.533999999999992
 30
0.0
 11
130.59399999999999
 21
96.918700000000015
 31
0.0
  0
LINE
  5
315
  8
0
 62
     7
 10
130.38499999999999
 20
98.119000000000014
 30
0.0
 11
130.52099999999999
 21
97.533999999999992
 31
0.0
  0
LINE
  5
316
  8
0
 62
     7
 10
130.18899999999999
 20
98.655800000000013
 30
0.0
 11
130.38499999999999
 21
98.119000000000014
 31
0.0
  0
LINE
  5
317
  8
0
 62
     7
 10
129.941
 20
99.126999999999995
 30
0.0
 11
130.18899999999999
 21
98.655800000000013
 31
0.0
  0
LINE
  5
318
  8
0
 62
     7
 10
128.447
 20
91.127499999999998
 30
0.0
 11
132.64699999999999
 21
91.127499999999998
 31
0.0
  0
LINE
  5
319
  8
0
 62
     7
 10
127.64700000000001
 20
90.326800000000006
 30
0.0
 11
128.447
 21
91.127499999999998
 31
0.0
  0
LINE
  5
31A
  8
0
 62
     7
 10
127.64700000000001
 20
90.326800000000006
 30
0.0
 11
142.64699999999999
 21
90.326800000000006
 31
0.0
  0
LINE
  5
31B
  8
0
 62
     7
 10
136.84700000000001
 20
99.126999999999995
 30
0.0
 11
136.84700000000001
 21
98.662599999999998
 31
0.0
  0
LINE
  5
31C
  8
0
 62
     7
 10
140.64699999999999
 20
96.527400000000014
 30
0.0
 11
140.64699999999999
 21
95.727400000000003
 31
0.0
  0
LINE
  5
31D
  8
0
 62
     7
 10
135.64699999999999
 20
96.527400000000014
 30
0.0
 11
135.64699999999999
 21
95.727400000000003
 31
0.0
  0
ARC
  5
31E
  8
0
 62
     7
 10
138.14679000000001
 20
96.527706999999992
 30
0.0
 40
2.5001220000000002
 50
359.99211500000013
 51
89.992084999999989
  0
ARC
  5
31F
  8
0
 62
     7
 10
138.14748
 20
96.527706999999992
 30
0.0
 40
2.5001220000000002
 50
90.007894999999991
 51
180.00790499999999
  0
LINE
  5
320
  8
0
 62
     7
 10
132.64699999999999
 20
90.727199999999996
 30
0.0
 11
134.64699999999999
 21
90.727199999999996
 31
0.0
  0
LINE
  5
321
  8
0
 62
     7
 10
132.64699999999999
 20
94.327299999999994
 30
0.0
 11
134.64699999999999
 21
94.327299999999994
 31
0.0
  0
LINE
  5
322
  8
0
 62
     7
 10
132.64699999999999
 20
94.327299999999994
 30
0.0
 11
132.64699999999999
 21
90.727199999999996
 31
0.0
  0
LINE
  5
323
  8
0
 62
     7
 10
128.447
 20
99.126999999999995
 30
0.0
 11
136.84700000000001
 21
99.126999999999995
 31
0.0
  0
ARC
  5
324
  8
0
 62
     7
 10
128.44723500000001
 20
100.12733799999999
 30
0.0
 40
1.000289999999999
 50
179.990104
 51
269.99015299999991
  0
ARC
  5
325
  8
0
 62
     7
 10
136.80861399999989
 20
100.16547300000001
 30
0.0
 40
1.0391449999999991
 50
272.13313399999998
 51
357.90634899999998
  0
LINE
  5
326
  8
0
 62
     7
 10
95.532099999999986
 20
100.276
 30
0.0
 11
92.524100000000004
 21
134.66200000000001
 31
0.0
  0
LINE
  5
327
  8
0
 62
     7
 10
96.129499999999993
 20
99.727900000000005
 30
0.0
 11
116.447
 21
99.727900000000005
 31
0.0
  0
LINE
  5
328
  8
0
 62
     7
 10
93.380899999999997
 20
93.327500000000001
 30
0.0
 11
116.447
 21
93.327500000000001
 31
0.0
  0
LINE
  5
329
  8
0
 62
     7
 10
89.396000000000001
 20
96.979399999999998
 30
0.0
 11
86.232000000000014
 21
133.149
 31
0.0
  0
LINE
  5
32A
  8
0
  6
AIGENLINE001
 62
     7
 10
94.755499999999998
 20
96.527400000000014
 30
0.0
 11
133.49700000000001
 21
96.527400000000014
 31
0.0
  0
LINE
  5
32B
  8
0
  6
AIGENLINE001
 62
     7
 10
92.464200000000005
 20
98.626800000000003
 30
0.0
 11
83.656899999999979
 21
199.298
 31
0.0
  0
LINE
  5
32C
  8
0
  6
AIGENLINE002
 62
     7
 10
141.697
 20
102.327
 30
0.0
 11
152.70699999999999
 21
102.327
 31
0.0
  0
LINE
  5
32D
  8
0
  6
AIGENLINE002
 62
     7
 10
152.70699999999999
 20
104.328
 30
0.0
 11
140.89699999999999
 21
104.328
 31
0.0
  0
LINE
  5
32E
  8
0
  6
AIGENLINE002
 62
     7
 10
114.288
 20
104.328
 30
0.0
 11
126.09699999999999
 21
104.328
 31
0.0
  0
LINE
  5
32F
  8
0
  6
AIGENLINE002
 62
     7
 10
114.288
 20
102.327
 30
0.0
 11
125.297
 21
102.327
 31
0.0
  0
ARC
  5
330
  8
0
  6
AIGENLINE002
 62
     7
 10
114.87219399999999
 20
122.965728
 30
0.0
 40
18.647095
 50
186.79660899999999
 51
268.20356499999991
  0
ARC
  5
331
  8
0
  6
AIGENLINE002
 62
     7
 10
114.937898
 20
123.03668500000001
 30
0.0
 40
20.720018
 50
186.79649900000001
 51
268.201571
  0
LINE
  5
332
  8
0
  6
AIGENLINE002
 62
     7
 10
96.356099999999984
 20
120.759
 30
0.0
 11
89.294200000000004
 21
201.477
 31
0.0
  0
LINE
  5
333
  8
0
  6
AIGENLINE002
 62
     7
 10
94.363500000000002
 20
120.58499999999999
 30
0.0
 11
87.301900000000003
 21
201.303
 31
0.0
  0
ARC
  5
334
  8
0
  6
AIGENLINE002
 62
     7
 10
86.478743000000009
 20
201.204464
 30
0.0
 40
0.828992
 50
6.8281999999999989
 51
88.196892000000005
  0
ARC
  5
335
  8
0
  6
AIGENLINE002
 62
     7
 10
86.414302000000006
 20
201.134319
 30
0.0
 40
2.9002020000000002
 50
6.789270000000001
 51
88.211298999999997
  0
ARC
  5
336
  8
0
  6
AIGENLINE002
 62
     7
 10
77.406272999999985
 20
201.233261
 30
0.0
 40
2.7998470000000002
 50
90.0
 51
179.99996999999999
  0
LINE
  5
337
  8
0
  6
AIGENLINE002
 62
     7
 10
77.406300000000002
 20
204.03299999999999
 30
0.0
 11
86.504799999999989
 21
204.03299999999999
 31
0.0
  0
LINE
  5
338
  8
0
  6
AIGENLINE002
 62
     7
 10
86.504799999999989
 20
202.03299999999999
 30
0.0
 11
77.406300000000002
 21
202.03299999999999
 31
0.0
  0
ARC
  5
339
  8
0
  6
AIGENLINE002
 62
     7
 10
77.436860999999993
 20
201.202673
 30
0.0
 40
0.830935
 50
92.109630000000024
 51
177.89034000000001
  0
ARC
  5
33A
  8
0
  6
AIGENLINE002
 62
     7
 10
75.983965999999995
 20
197.055702
 30
0.0
 40
0.622931
 50
272.07504899999998
 51
357.924961
  0
LINE
  5
33B
  8
0
  6
AIGENLINE002
 62
     7
 10
76.006500000000003
 20
196.43299999999999
 30
0.0
 11
75.206400000000002
 21
196.43299999999999
 31
0.0
  0
ARC
  5
33C
  8
0
  6
AIGENLINE002
 62
     7
 10
75.229340000000008
 20
197.056094
 30
0.0
 40
0.6233370000000001
 50
182.10972899999999
 51
267.89030000000002
  0
LINE
  5
33D
  8
0
  6
AIGENLINE002
 62
     7
 10
74.606399999999994
 20
197.03299999999999
 30
0.0
 11
74.606399999999994
 21
201.233
 31
0.0
  0
LINE
  5
33E
  8
0
  6
AIGENLINE002
 62
     7
 10
76.606499999999997
 20
197.03299999999999
 30
0.0
 11
76.606499999999997
 21
201.233
 31
0.0
  0
LINE
  5
33F
  8
0
 62
     7
 10
108.342
 20
179.738
 30
0.0
 11
108.968
 21
178.017
 31
0.0
  0
LINE
  5
340
  8
0
 62
     7
 10
108.968
 20
178.017
 30
0.0
 11
109.286
 21
179.821
 31
0.0
  0
LINE
  5
341
  8
0
 62
     7
 10
109.286
 20
179.821
 30
0.0
 11
108.342
 21
179.738
 31
0.0
  0
LINE
  5
342
  8
0
 62
     7
 10
108.16500000000001
 20
192.63399999999999
 30
0.0
 11
107.539
 21
194.35499999999999
 31
0.0
  0
LINE
  5
343
  8
0
 62
     7
 10
107.539
 20
194.35499999999999
 30
0.0
 11
107.221
 21
192.55099999999999
 31
0.0
  0
LINE
  5
344
  8
0
 62
     7
 10
107.221
 20
192.55099999999999
 30
0.0
 11
108.16500000000001
 21
192.63399999999999
 31
0.0
  0
LINE
  5
345
  8
0
 62
     7
 10
108.968
 20
178.017
 30
0.0
 11
107.539
 21
194.35499999999999
 31
0.0
  0
LINE
  5
346
  8
0
  6
AIGENLINE001
 62
     7
 10
143.851
 20
126.52800000000001
 30
0.0
 11
108.73
 21
126.52800000000001
 31
0.0
  0
LINE
  5
347
  8
0
  6
AIGENLINE001
 62
     7
 10
133.49700000000001
 20
136.58500000000001
 30
0.0
 11
133.49700000000001
 21
116.75
 31
0.0
  0
LINE
  5
348
  8
0
 62
     7
 10
88.773300000000006
 20
188.62700000000001
 30
0.0
 11
88.773300000000006
 21
209.00999999999999
 31
0.0
  0
LINE
  5
349
  8
0
 62
     7
 10
90.129099999999994
 20
186.90899999999999
 30
0.0
 11
90.466899999999995
 21
184.63
 31
0.0
  0
LINE
  5
34A
  8
0
 62
     7
 10
90.685000000000002
 20
182.13999999999999
 30
0.0
 11
90.983699999999999
 21
182.166
 31
0.0
  0
LINE
  5
34B
  8
0
 62
     7
 10
90.248999999999995
 20
187.1209999999999
 30
0.0
 11
90.547999999999973
 21
187.14699999999999
 31
0.0
  0
LINE
  5
34C
  8
0
 62
     7
 10
88.634600000000006
 20
186.779
 30
0.0
 11
89.310500000000005
 21
182.22
 31
0.0
  0
LINE
  5
34D
  8
0
 62
     7
 10
88.933499999999995
 20
186.80500000000001
 30
0.0
 11
89.6096
 21
182.2459999999999
 31
0.0
  0
LINE
  5
34E
  8
0
 62
     7
 10
89.232500000000016
 20
186.83099999999999
 30
0.0
 11
89.908299999999997
 21
182.27199999999999
 31
0.0
  0
LINE
  5
34F
  8
0
 62
     7
 10
89.531199999999998
 20
186.857
 30
0.0
 11
90.207000000000008
 21
182.29900000000001
 31
0.0
  0
LINE
  5
350
  8
0
 62
     7
 10
89.830100000000002
 20
186.8829999999999
 30
0.0
 11
90.506000000000014
 21
182.3249999999999
 31
0.0
  0
LINE
  5
351
  8
0
 62
     7
 10
89.011700000000005
 20
182.19399999999999
 30
0.0
 11
88.978599999999986
 21
182.136
 31
0.0
  0
LINE
  5
352
  8
0
 62
     7
 10
89.310500000000005
 20
182.22
 30
0.0
 11
89.190599999999989
 21
182.00899999999999
 31
0.0
  0
LINE
  5
353
  8
0
 62
     7
 10
89.011700000000005
 20
182.19399999999999
 30
0.0
 11
89.190599999999989
 21
182.00899999999999
 31
0.0
  0
LINE
  5
354
  8
0
 62
     7
 10
90.506000000000014
 20
182.3249999999999
 30
0.0
 11
90.685000000000002
 21
182.13999999999999
 31
0.0
  0
LINE
  5
355
  8
0
 62
     7
 10
90.506000000000014
 20
182.3249999999999
 30
0.0
 11
90.385900000000007
 21
182.113
 31
0.0
  0
LINE
  5
356
  8
0
 62
     7
 10
90.207000000000008
 20
182.29900000000001
 30
0.0
 11
90.385900000000007
 21
182.113
 31
0.0
  0
LINE
  5
357
  8
0
 62
     7
 10
90.207000000000008
 20
182.29900000000001
 30
0.0
 11
90.087100000000007
 21
182.08699999999999
 31
0.0
  0
LINE
  5
358
  8
0
 62
     7
 10
89.908299999999997
 20
182.27199999999999
 30
0.0
 11
90.087100000000007
 21
182.08699999999999
 31
0.0
  0
LINE
  5
359
  8
0
 62
     7
 10
89.908299999999997
 20
182.27199999999999
 30
0.0
 11
89.787999999999997
 21
182.06100000000001
 31
0.0
  0
LINE
  5
35A
  8
0
 62
     7
 10
89.6096
 20
182.2459999999999
 30
0.0
 11
89.787999999999997
 21
182.06100000000001
 31
0.0
  0
LINE
  5
35B
  8
0
 62
     7
 10
89.6096
 20
182.2459999999999
 30
0.0
 11
89.4893
 21
182.035
 31
0.0
  0
LINE
  5
35C
  8
0
 62
     7
 10
89.310500000000005
 20
182.22
 30
0.0
 11
89.4893
 21
182.035
 31
0.0
  0
LINE
  5
35D
  8
0
 62
     7
 10
88.634600000000006
 20
186.779
 30
0.0
 11
88.566400000000002
 21
186.84899999999999
 31
0.0
  0
LINE
  5
35E
  8
0
 62
     7
 10
90.129099999999994
 20
186.90899999999999
 30
0.0
 11
90.248999999999995
 21
187.1209999999999
 31
0.0
  0
LINE
  5
35F
  8
0
 62
     7
 10
90.129099999999994
 20
186.90899999999999
 30
0.0
 11
89.950100000000006
 21
187.095
 31
0.0
  0
LINE
  5
360
  8
0
 62
     7
 10
88.634600000000006
 20
186.779
 30
0.0
 11
88.754800000000003
 21
186.99000000000001
 31
0.0
  0
LINE
  5
361
  8
0
 62
     7
 10
88.933499999999995
 20
186.80500000000001
 30
0.0
 11
89.0535
 21
187.01599999999999
 31
0.0
  0
LINE
  5
362
  8
0
 62
     7
 10
88.933499999999995
 20
186.80500000000001
 30
0.0
 11
88.754800000000003
 21
186.99000000000001
 31
0.0
  0
LINE
  5
363
  8
0
 62
     7
 10
89.232500000000016
 20
186.83099999999999
 30
0.0
 11
89.352400000000003
 21
187.042
 31
0.0
  0
LINE
  5
364
  8
0
 62
     7
 10
89.232500000000016
 20
186.83099999999999
 30
0.0
 11
89.0535
 21
187.01599999999999
 31
0.0
  0
LINE
  5
365
  8
0
 62
     7
 10
89.531199999999998
 20
186.857
 30
0.0
 11
89.651399999999995
 21
187.06800000000001
 31
0.0
  0
LINE
  5
366
  8
0
 62
     7
 10
89.531199999999998
 20
186.857
 30
0.0
 11
89.352400000000003
 21
187.042
 31
0.0
  0
LINE
  5
367
  8
0
 62
     7
 10
89.830100000000002
 20
186.8829999999999
 30
0.0
 11
89.950100000000006
 21
187.095
 31
0.0
  0
LINE
  5
368
  8
0
 62
     7
 10
89.830100000000002
 20
186.8829999999999
 30
0.0
 11
89.651399999999995
 21
187.06800000000001
 31
0.0
  0
LINE
  5
369
  8
0
 62
     7
 10
88.700699999999998
 20
185.31200000000001
 30
0.0
 11
89.190599999999989
 21
182.00899999999999
 31
0.0
  0
LINE
  5
36A
  8
0
 62
     7
 10
90.685000000000002
 20
182.13999999999999
 30
0.0
 11
90.248999999999995
 21
187.1209999999999
 31
0.0
  0
LINE
  5
36B
  8
0
 62
     7
 10
88.754800000000003
 20
186.99000000000001
 30
0.0
 11
89.4893
 21
182.035
 31
0.0
  0
LINE
  5
36C
  8
0
 62
     7
 10
89.0535
 20
187.01599999999999
 30
0.0
 11
89.787999999999997
 21
182.06100000000001
 31
0.0
  0
LINE
  5
36D
  8
0
 62
     7
 10
89.352400000000003
 20
187.042
 30
0.0
 11
90.087100000000007
 21
182.08699999999999
 31
0.0
  0
LINE
  5
36E
  8
0
 62
     7
 10
89.651399999999995
 20
187.06800000000001
 30
0.0
 11
90.385900000000007
 21
182.113
 31
0.0
  0
LINE
  5
36F
  8
0
 62
     7
 10
89.950100000000006
 20
187.095
 30
0.0
 11
90.685000000000002
 21
182.13999999999999
 31
0.0
  0
ARC
  5
370
  8
0
 62
     7
 10
91.209705
 20
179.209554
 30
0.0
 40
1.0358849999999991
 50
276.796674
 51
358.20487800000001
  0
ARC
  5
371
  8
0
 62
     7
 10
91.200074000000001
 20
179.17550700000001
 30
0.0
 40
1.0450090000000001
 50
0.087529
 51
4.8817680000000001
  0
ARC
  5
372
  8
0
 62
     7
 10
90.251556000000008
 20
190.09386900000001
 30
0.0
 40
1.0391030000000001
 50
7.1009999999999991
 51
92.878649999999993
  0
LINE
  5
373
  8
0
 62
     7
 10
90.199399999999997
 20
191.13200000000001
 30
0.0
 11
91.332300000000004
 21
178.18100000000001
 31
0.0
  0
LINE
  5
374
  8
0
 62
     7
 10
95.804199999999994
 20
176.86500000000001
 30
0.0
 11
109.791
 21
178.089
 31
0.0
  0
LINE
  5
375
  8
0
 62
     7
 10
94.265299999999996
 20
193.19399999999999
 30
0.0
 11
108.252
 21
194.417
 31
0.0
  0
LINE
  5
376
  8
0
  6
AIGENLINE001
 62
     7
 10
113.508
 20
186.64599999999999
 30
0.0
 11
170.072
 21
191.59399999999999
 31
0.0
  0
LINE
  5
377
  8
0
  6
AIGENLINE001
 62
     7
 10
69.462999999999994
 20
182.792
 30
0.0
 11
106.82599999999999
 21
186.06100000000001
 31
0.0
  0
LINE
  5
378
  8
0
 62
     7
 10
150.56100000000001
 20
99.957999999999998
 30
0.0
 11
150.08699999999999
 21
101.727
 31
0.0
  0
LINE
  5
379
  8
0
 62
     7
 10
150.08699999999999
 20
101.727
 30
0.0
 11
149.613
 21
99.957999999999998
 31
0.0
  0
LINE
  5
37A
  8
0
 62
     7
 10
149.613
 20
99.957999999999998
 30
0.0
 11
150.56100000000001
 21
99.957999999999998
 31
0.0
  0
LINE
  5
37B
  8
0
 62
     7
 10
149.625
 20
89.488299999999995
 30
0.0
 11
150.09899999999999
 21
87.718900000000005
 31
0.0
  0
LINE
  5
37C
  8
0
 62
     7
 10
150.09899999999999
 20
87.718900000000005
 30
0.0
 11
150.57299999999989
 21
89.488299999999995
 31
0.0
  0
LINE
  5
37D
  8
0
 62
     7
 10
150.57299999999989
 20
89.488299999999995
 30
0.0
 11
149.625
 21
89.488299999999995
 31
0.0
  0
LINE
  5
37E
  8
0
 62
     7
 10
150.08699999999999
 20
101.727
 30
0.0
 11
150.08699999999999
 21
87.718900000000005
 31
0.0
  0
LINE
  5
37F
  8
0
 62
     7
 10
141.773
 20
101.727
 30
0.0
 11
150.64699999999999
 21
101.727
 31
0.0
  0
LINE
  5
380
  8
0
 62
     7
 10
139.03299999999999
 20
87.718900000000005
 30
0.0
 11
150.64699999999999
 21
87.718900000000005
 31
0.0
  0
LINE
  5
381
  8
0
 62
     7
 10
92.838499999999996
 20
184.482
 30
0.0
 11
150.64699999999999
 21
184.482
 31
0.0
  0
LINE
  5
382
  8
0
 62
     7
 10
121.84699999999999
 20
100.128
 30
0.0
 11
140.697
 21
100.128
 31
0.0
  0
LINE
  5
383
  8
0
 62
     7
 10
88.847899999999996
 20
139.96199999999999
 30
0.0
 11
92.633499999999998
 21
140.29300000000001
 31
0.0
  0
LINE
  5
384
  8
0
 62
     7
 10
89.335999999999999
 20
134.38300000000001
 30
0.0
 11
93.121499999999997
 21
134.714
 31
0.0
  0
ARC
  5
385
  8
0
 62
     7
 10
124.829322
 20
42.675523999999989
 30
0.0
 40
49.152009
 50
89.999158999999992
 51
95.014216000000019
  0
ARC
  5
386
  8
0
 62
     7
 10
124.82888800000001
 20
42.554647000000003
 30
0.0
 40
50.672293000000003
 50
89.998693999999986
 51
95.001328000000015
  0
LINE
  5
387
  8
0
 62
     7
 10
117.84699999999999
 20
93.004400000000004
 30
0.0
 11
120.065
 21
93.004400000000004
 31
0.0
  0
LINE
  5
388
  8
0
 62
     7
 10
116.447
 20
100.428
 30
0.0
 11
116.447
 21
92.687399999999997
 31
0.0
  0
LINE
  5
389
  8
0
 62
     7
 10
121.84699999999999
 20
101.127
 30
0.0
 11
121.84699999999999
 21
93.139399999999995
 31
0.0
  0
LINE
  5
38A
  8
0
 62
     7
 10
121.447
 20
101.127
 30
0.0
 11
121.447
 21
93.114599999999996
 31
0.0
  0
LINE
  5
38B
  8
0
 62
     7
 10
120.533
 20
91.639399999999995
 30
0.0
 11
100.76000000000001
 21
89.909999999999997
 31
0.0
  0
ARC
  5
38C
  8
0
 62
     7
 10
99.042907999999997
 20
109.534756
 30
0.0
 40
19.699770999999998
 50
168.056084
 51
258.057345
  0
ARC
  5
38D
  8
0
 62
     7
 10
99.043648000000005
 20
109.54624099999999
 30
0.0
 40
19.71116099999999
 50
258.06214899999998
 51
274.99647600000009
  0
LINE
  5
38E
  8
0
 62
     7
 10
120.411
 20
93.034700000000001
 30
0.0
 11
100.63800000000001
 21
91.304599999999994
 31
0.0
  0
ARC
  5
38F
  8
0
 62
     7
 10
99.044244999999989
 20
109.535177
 30
0.0
 40
18.300977
 50
168.05712500000001
 51
258.05506200000002
  0
ARC
  5
390
  8
0
 62
     7
 10
99.043870999999996
 20
109.57538099999999
 30
0.0
 40
18.340233999999999
 50
258.082199
 51
274.98667799999998
  0
LINE
  5
391
  8
0
 62
     7
 10
117.84699999999999
 20
93.641000000000005
 30
0.0
 11
117.84699999999999
 21
93.004400000000004
 31
0.0
  0
LINE
  5
392
  8
0
 62
     7
 10
117.84699999999999
 20
96.927700000000016
 30
0.0
 11
117.84699999999999
 21
96.127700000000004
 31
0.0
  0
LINE
  5
393
  8
0
 62
     7
 10
117.84699999999999
 20
100.05
 30
0.0
 11
117.84699999999999
 21
99.413700000000006
 31
0.0
  0
LINE
  5
394
  8
0
 62
     7
 10
117.84699999999999
 20
101.127
 30
0.0
 11
117.84699999999999
 21
101.027
 31
0.0
  0
LINE
  5
395
  8
0
 62
     7
 10
117.84699999999999
 20
99.413700000000006
 30
0.0
 11
121.447
 21
99.413700000000006
 31
0.0
  0
LINE
  5
396
  8
0
 62
     7
 10
117.84699999999999
 20
93.641000000000005
 30
0.0
 11
121.447
 21
93.641000000000005
 31
0.0
  0
LINE
  5
397
  8
0
 62
     7
 10
117.84699999999999
 20
93.570099999999996
 30
0.0
 11
121.447
 21
93.570099999999996
 31
0.0
  0
LINE
  5
398
  8
0
 62
     7
 10
121.447
 20
96.127700000000004
 30
0.0
 11
117.84699999999999
 21
96.127700000000004
 31
0.0
  0
LINE
  5
399
  8
0
 62
     7
 10
121.447
 20
96.927700000000016
 30
0.0
 11
117.84699999999999
 21
96.927700000000016
 31
0.0
  0
LINE
  5
39A
  8
0
 62
     7
 10
117.84699999999999
 20
99.485299999999995
 30
0.0
 11
121.447
 21
99.485299999999995
 31
0.0
  0
LINE
  5
39B
  8
0
 62
     7
 10
117.84699999999999
 20
100.05
 30
0.0
 11
121.447
 21
100.05
 31
0.0
  0
ARC
  5
39C
  8
0
 62
     7
 10
117.070133
 20
100.404259
 30
0.0
 40
0.6235520000000001
 50
92.142123999999995
 51
177.824927
  0
LINE
  5
39D
  8
0
 62
     7
 10
117.047
 20
101.027
 30
0.0
 11
121.447
 21
101.027
 31
0.0
  0
LINE
  5
39E
  8
0
 62
     7
 10
117.84699999999999
 20
101.127
 30
0.0
 11
121.84699999999999
 21
101.127
 31
0.0
  0
LINE
  5
39F
  8
0
 62
     7
 10
137.86000000000001
 20
86.636399999999995
 30
0.0
 11
137.86000000000001
 21
78.330299999999994
 31
0.0
  0
LINE
  5
3A0
  8
0
 62
     7
 10
129.14699999999999
 20
86.636399999999995
 30
0.0
 11
129.14699999999999
 21
78.330299999999994
 31
0.0
  0
LINE
  5
3A1
  8
0
 62
     7
 10
124.83
 20
91.827500000000001
 30
0.0
 11
127.883
 21
91.827500000000001
 31
0.0
  0
LINE
  5
3A2
  8
0
 62
     7
 10
124.83
 20
93.226899999999986
 30
0.0
 11
127.925
 21
93.226899999999986
 31
0.0
  0
LINE
  5
3A3
  8
0
 62
     7
 10
92.235299999999995
 20
140.25800000000001
 30
0.0
 11
91.868899999999996
 21
144.44200000000001
 31
0.0
  0
LINE
  5
3A4
  8
0
 62
     7
 10
93.121499999999997
 20
134.714
 30
0.0
 11
92.633499999999998
 21
140.29300000000001
 31
0.0
  0
ARC
  5
3A5
  8
0
 62
     7
 10
153.490861
 20
97.997535000000013
 30
0.0
 40
73.956625000000003
 50
166.03816699999999
 51
168.04090500000001
  0
ARC
  5
3A6
  8
0
 62
     7
 10
212.30963499999999
 20
83.647229000000024
 30
0.0
 40
134.50033400000001
 50
164.983811
 51
166.15112199999999
  0
ARC
  5
3A7
  8
0
 62
     7
 10
339.028211
 20
49.98819000000001
 30
0.0
 40
265.61279000000002
 50
164.66281900000001
 51
165.053281
  0
ARC
  5
3A8
  8
0
 62
     7
 10
-9634.5130000000008
 20
2796.212
 30
0.0
 40
10079.110000000001
 50
344.60353800000001
 51
344.63874900000002
  0
ARC
  5
3A9
  8
0
 62
     7
 10
-116.758172
 20
180.512179
 30
0.0
 40
208.47099800000001
 50
344.90288399999997
 51
345.81219099999998
  0
ARC
  5
3AA
  8
0
 62
     7
 10
-35.233404999999998
 20
159.76352499999999
 30
0.0
 40
124.347493
 50
345.87391400000001
 51
347.52372000000003
  0
ARC
  5
3AB
  8
0
 62
     7
 10
4.3049140000000001
 20
150.88376099999999
 30
0.0
 40
83.824605000000005
 50
347.61148100000003
 51
349.83954499999999
  0
ARC
  5
3AC
  8
0
 62
     7
 10
27.820699999999999
 20
146.583034
 30
0.0
 40
59.918992000000003
 50
349.920794
 51
353.21044799999999
  0
ARC
  5
3AD
  8
0
 62
     7
 10
44.354053999999991
 20
144.514059
 30
0.0
 40
43.257099999999987
 50
353.34269599999999
 51
357.39669600000002
  0
ARC
  5
3AE
  8
0
 62
     7
 10
56.164172999999998
 20
143.905689
 30
0.0
 40
31.431618
 50
357.526701
 51
3.7341470000000001
  0
ARC
  5
3AF
  8
0
 62
     7
 10
142.64198500000001
 20
100.29395700000001
 30
0.0
 40
64.267406000000008
 50
165.75812500000001
 51
168.04089399999989
  0
ARC
  5
3B0
  8
0
 62
     7
 10
181.91659200000001
 20
90.568914000000007
 30
0.0
 40
104.72772000000001
 50
164.69404499999999
 51
165.88724500000001
  0
ARC
  5
3B1
  8
0
 62
     7
 10
247.90314100000001
 20
72.671443000000011
 30
0.0
 40
173.09825000000001
 50
164.252015
 51
164.745687
  0
ARC
  5
3B2
  8
0
 62
     7
 10
397.78565800000001
 20
30.335404
 30
0.0
 40
328.84518200000002
 50
163.88673700000001
 51
164.24018599999999
  0
ARC
  5
3B3
  8
0
 62
     7
 10
-823.05813299999988
 20
384.40655099999998
 30
0.0
 40
942.30648399999995
 50
343.80573800000002
 51
344.0428740000001
  0
ARC
  5
3B4
  8
0
 62
     7
 10
-117.826728
 20
182.58927700000001
 30
0.0
 40
208.766144
 50
344.08677999999998
 51
344.95955099999998
  0
ARC
  5
3B5
  8
0
 62
     7
 10
-30.528701000000002
 20
158.99894399999999
 30
0.0
 40
118.33705399999999
 50
345.021659
 51
346.702629
  0
ARC
  5
3B6
  8
0
 62
     7
 10
6.7830170000000001
 20
150.04731100000001
 30
0.0
 40
79.966868999999988
 50
346.795593
 51
349.091093
  0
ARC
  5
3B7
  8
0
 62
     7
 10
28.392056
 20
145.806039
 30
0.0
 40
57.945716000000012
 50
349.16540800000001
 51
353.35409499999997
  0
ARC
  5
3B8
  8
0
 62
     7
 10
44.791645000000003
 20
143.762316
 30
0.0
 40
41.420010999999988
 50
353.53671200000002
 51
0.020112
  0
ARC
  5
3B9
  8
0
 62
     7
 10
53.757238999999998
 20
143.5857969999999
 30
0.0
 40
32.454976000000002
 50
0.3372949999999999
 51
3.9664449999999989
  0
LINE
  5
3BA
  8
0
 62
     7
 10
150.56100000000001
 20
182.71299999999999
 30
0.0
 11
150.08699999999999
 21
184.482
 31
0.0
  0
LINE
  5
3BB
  8
0
 62
     7
 10
150.08699999999999
 20
184.482
 30
0.0
 11
149.613
 21
182.71299999999999
 31
0.0
  0
LINE
  5
3BC
  8
0
 62
     7
 10
149.613
 20
182.71299999999999
 30
0.0
 11
150.56100000000001
 21
182.71299999999999
 31
0.0
  0
LINE
  5
3BD
  8
0
 62
     7
 10
149.625
 20
106.09699999999999
 30
0.0
 11
150.09899999999999
 21
104.328
 31
0.0
  0
LINE
  5
3BE
  8
0
 62
     7
 10
150.09899999999999
 20
104.328
 30
0.0
 11
150.57299999999989
 21
106.09699999999999
 31
0.0
  0
LINE
  5
3BF
  8
0
 62
     7
 10
150.57299999999989
 20
106.09699999999999
 30
0.0
 11
149.625
 21
106.09699999999999
 31
0.0
  0
LINE
  5
3C0
  8
0
 62
     7
 10
150.08699999999999
 20
184.482
 30
0.0
 11
150.08699999999999
 21
104.328
 31
0.0
  0
LINE
  5
3C1
  8
0
 62
     7
 10
44.398099999999999
 20
163.08199999999999
 30
0.0
 11
38.398099999999999
 21
163.08199999999999
 31
0.0
  0
LINE
  5
3C2
  8
0
 62
     7
 10
38.398099999999999
 20
163.08199999999999
 30
0.0
 11
38.398099999999999
 21
163.482
 31
0.0
  0
LINE
  5
3C3
  8
0
 62
     7
 10
38.398099999999999
 20
163.482
 30
0.0
 11
44.398099999999999
 21
163.482
 31
0.0
  0
LINE
  5
3C4
  8
0
 62
     7
 10
44.398099999999999
 20
163.482
 30
0.0
 11
44.398099999999999
 21
163.08199999999999
 31
0.0
  0
LINE
  5
3C5
  8
0
 62
     7
 10
38.998000000000012
 20
168.90299999999999
 30
0.0
 11
38.998000000000012
 21
169.303
 31
0.0
  0
LINE
  5
3C6
  8
0
 62
     7
 10
38.998000000000012
 20
169.703
 30
0.0
 11
38.998000000000012
 21
170.10300000000001
 31
0.0
  0
LINE
  5
3C7
  8
0
 62
     7
 10
38.998000000000012
 20
170.50299999999999
 30
0.0
 11
38.998000000000012
 21
170.90299999999999
 31
0.0
  0
LINE
  5
3C8
  8
0
 62
     7
 10
38.798000000000002
 20
185.482
 30
0.0
 11
39.289000000000001
 21
185.482
 31
0.0
  0
ARC
  5
3C9
  8
0
 62
     7
 10
45.914169999999991
 20
191.040479
 30
0.0
 40
0.416367
 50
92.21305799999999
 51
177.786913
  0
ARC
  5
3CA
  8
0
 62
     7
 10
46.099075999999997
 20
165.782095
 30
0.0
 40
0.100905
 50
180.16838200000001
 51
216.763127
  0
ARC
  5
3CB
  8
0
 62
     7
 10
46.180964000000003
 20
165.83517399999999
 30
0.0
 40
0.19838
 50
214.88877400000001
 51
229.71617900000001
  0
ARC
  5
3CC
  8
0
 62
     7
 10
46.290415000000003
 20
165.963356
 30
0.0
 40
0.366933
 50
229.62011999999999
 51
240.27197799999999
  0
ARC
  5
3CD
  8
0
 62
     7
 10
46.439723000000001
 20
166.22259700000001
 30
0.0
 40
0.666095
 50
240.17697000000001
 51
248.22456600000001
  0
ARC
  5
3CE
  8
0
 62
     7
 10
46.623745999999997
 20
166.67795899999999
 30
0.0
 40
1.1572329999999991
 50
248.127239
 51
255.009908
  0
ARC
  5
3CF
  8
0
 62
     7
 10
46.826295999999999
 20
167.40660800000001
 30
0.0
 40
1.9134899999999999
 50
254.79457600000001
 51
263.33215899999999
  0
ARC
  5
3D0
  8
0
 62
     7
 10
46.986823000000001
 20
168.52264700000001
 30
0.0
 40
3.0407660000000001
 50
262.76962900000001
 51
270.21282400000001
  0
LINE
  5
3D1
  8
0
 62
     7
 10
45.997999999999998
 20
170.28200000000001
 30
0.0
 11
45.498099999999987
 21
172.68199999999999
 31
0.0
  0
LINE
  5
3D2
  8
0
 62
     7
 10
45.898099999999992
 20
191.45699999999999
 30
0.0
 11
46.998100000000001
 21
191.45699999999999
 31
0.0
  0
LINE
  5
3D3
  8
0
 62
     7
 10
45.498099999999987
 20
172.68199999999999
 30
0.0
 11
45.498099999999987
 21
179.041
 31
0.0
  0
LINE
  5
3D4
  8
0
 62
     7
 10
45.498099999999987
 20
189.923
 30
0.0
 11
45.498099999999987
 21
191.05699999999999
 31
0.0
  0
LINE
  5
3D5
  8
0
 62
     7
 10
46.198199999999993
 20
174.18199999999999
 30
0.0
 11
45.498099999999987
 21
174.18199999999999
 31
0.0
  0
LINE
  5
3D6
  8
0
 62
     7
 10
45.498099999999987
 20
174.68199999999999
 30
0.0
 11
45.298099999999998
 21
174.482
 31
0.0
  0
LINE
  5
3D7
  8
0
 62
     7
 10
45.298099999999998
 20
173.28200000000001
 30
0.0
 11
45.498099999999987
 21
173.08199999999999
 31
0.0
  0
LINE
  5
3D8
  8
0
 62
     7
 10
45.298099999999998
 20
173.28200000000001
 30
0.0
 11
45.298099999999998
 21
174.482
 31
0.0
  0
LINE
  5
3D9
  8
0
 62
     7
 10
46.198199999999993
 20
173.58199999999999
 30
0.0
 11
46.198199999999993
 21
174.18199999999999
 31
0.0
  0
LINE
  5
3DA
  8
0
 62
     7
 10
46.198199999999993
 20
173.58199999999999
 30
0.0
 11
45.498099999999987
 21
173.58199999999999
 31
0.0
  0
LINE
  5
3DB
  8
0
 62
     7
 10
46.998100000000001
 20
172.68199999999999
 30
0.0
 11
45.498099999999987
 21
172.68199999999999
 31
0.0
  0
LINE
  5
3DC
  8
0
 62
     7
 10
46.998100000000001
 20
170.28200000000001
 30
0.0
 11
45.997999999999998
 21
170.28200000000001
 31
0.0
  0
LINE
  5
3DD
  8
0
 62
     7
 10
46.998100000000001
 20
169.88200000000001
 30
0.0
 11
45.997999999999998
 21
169.88200000000001
 31
0.0
  0
LINE
  5
3DE
  8
0
 62
     7
 10
46.998100000000001
 20
168.68199999999999
 30
0.0
 11
45.997999999999998
 21
168.68199999999999
 31
0.0
  0
LINE
  5
3DF
  8
0
 62
     7
 10
45.997999999999998
 20
169.88200000000001
 30
0.0
 11
45.997999999999998
 21
168.68199999999999
 31
0.0
  0
LINE
  5
3E0
  8
0
 62
     7
 10
46.298099999999991
 20
170.28200000000001
 30
0.0
 11
46.298099999999991
 21
169.88200000000001
 31
0.0
  0
LINE
  5
3E1
  8
0
 62
     7
 10
46.298099999999991
 20
168.68199999999999
 30
0.0
 11
46.298099999999991
 21
168.28200000000001
 31
0.0
  0
LINE
  5
3E2
  8
0
 62
     7
 10
46.998100000000001
 20
168.28200000000001
 30
0.0
 11
45.997999999999998
 21
168.28200000000001
 31
0.0
  0
LINE
  5
3E3
  8
0
 62
     7
 10
46.998100000000001
 20
167.08199999999999
 30
0.0
 11
45.997999999999998
 21
167.08199999999999
 31
0.0
  0
LINE
  5
3E4
  8
0
 62
     7
 10
46.998100000000001
 20
166.68199999999999
 30
0.0
 11
45.997999999999998
 21
166.68199999999999
 31
0.0
  0
LINE
  5
3E5
  8
0
 62
     7
 10
45.997999999999998
 20
168.28200000000001
 30
0.0
 11
45.997999999999998
 21
167.08199999999999
 31
0.0
  0
LINE
  5
3E6
  8
0
 62
     7
 10
45.997999999999998
 20
166.68199999999999
 30
0.0
 11
45.997999999999998
 21
165.78200000000001
 31
0.0
  0
LINE
  5
3E7
  8
0
 62
     7
 10
46.298099999999991
 20
167.08199999999999
 30
0.0
 11
46.298099999999991
 21
166.68199999999999
 31
0.0
  0
ARC
  5
3E8
  8
0
 62
     7
 10
48.082059000000001
 20
191.04047299999999
 30
0.0
 40
0.416373
 50
2.2138369999999989
 51
87.786152999999999
  0
ARC
  5
3E9
  8
0
 62
     7
 10
47.896630000000002
 20
165.78223700000001
 30
0.0
 40
0.101433
 50
323.10215599999998
 51
359.75271099999998
  0
ARC
  5
3EA
  8
0
 62
     7
 10
47.816859000000001
 20
165.83393799999999
 30
0.0
 40
0.196377
 50
310.93454300000002
 51
325.01292799999999
  0
ARC
  5
3EB
  8
0
 62
     7
 10
47.709539999999997
 20
165.95785900000001
 30
0.0
 40
0.360309
 50
299.81189599999999
 51
310.91583300000002
  0
ARC
  5
3EC
  8
0
 62
     7
 10
47.561444999999999
 20
166.212616
 30
0.0
 40
0.6549810000000002
 50
291.97611999999998
 51
299.97314899999998
  0
ARC
  5
3ED
  8
0
 62
     7
 10
47.388165999999991
 20
166.63599199999999
 30
0.0
 40
1.112441999999999
 50
286.09949
 51
292.09213699999998
  0
ARC
  5
3EE
  8
0
 62
     7
 10
47.165317999999999
 20
167.420027
 30
0.0
 40
1.927527999999999
 50
276.27775200000002
 51
286.00111299999998
  0
ARC
  5
3EF
  8
0
 62
     7
 10
47.007953000000001
 20
168.54916800000001
 30
0.0
 40
3.0672830000000002
 50
269.81629299999997
 51
276.893304
  0
LINE
  5
3F0
  8
0
 62
     7
 10
47.998099999999987
 20
170.28200000000001
 30
0.0
 11
48.498100000000001
 21
172.68199999999999
 31
0.0
  0
LINE
  5
3F1
  8
0
 62
     7
 10
48.098100000000002
 20
191.45699999999999
 30
0.0
 11
46.998100000000001
 21
191.45699999999999
 31
0.0
  0
LINE
  5
3F2
  8
0
 62
     7
 10
48.498100000000001
 20
172.68199999999999
 30
0.0
 11
48.498100000000001
 21
178.602
 31
0.0
  0
LINE
  5
3F3
  8
0
 62
     7
 10
48.498100000000001
 20
178.602
 30
0.0
 11
48.498100000000001
 21
191.05699999999999
 31
0.0
  0
LINE
  5
3F4
  8
0
 62
     7
 10
47.798099999999998
 20
174.18199999999999
 30
0.0
 11
48.498100000000001
 21
174.18199999999999
 31
0.0
  0
LINE
  5
3F5
  8
0
 62
     7
 10
48.498100000000001
 20
174.68199999999999
 30
0.0
 11
48.698099999999997
 21
174.482
 31
0.0
  0
LINE
  5
3F6
  8
0
 62
     7
 10
48.698099999999997
 20
173.28200000000001
 30
0.0
 11
48.498100000000001
 21
173.08199999999999
 31
0.0
  0
LINE
  5
3F7
  8
0
 62
     7
 10
48.698099999999997
 20
173.28200000000001
 30
0.0
 11
48.698099999999997
 21
174.482
 31
0.0
  0
LINE
  5
3F8
  8
0
 62
     7
 10
47.798099999999998
 20
173.58199999999999
 30
0.0
 11
47.798099999999998
 21
174.18199999999999
 31
0.0
  0
LINE
  5
3F9
  8
0
 62
     7
 10
47.798099999999998
 20
173.58199999999999
 30
0.0
 11
48.498100000000001
 21
173.58199999999999
 31
0.0
  0
LINE
  5
3FA
  8
0
 62
     7
 10
46.998100000000001
 20
172.68199999999999
 30
0.0
 11
48.498100000000001
 21
172.68199999999999
 31
0.0
  0
LINE
  5
3FB
  8
0
 62
     7
 10
46.998100000000001
 20
170.28200000000001
 30
0.0
 11
47.998099999999987
 21
170.28200000000001
 31
0.0
  0
LINE
  5
3FC
  8
0
 62
     7
 10
46.998100000000001
 20
169.88200000000001
 30
0.0
 11
47.998099999999987
 21
169.88200000000001
 31
0.0
  0
LINE
  5
3FD
  8
0
 62
     7
 10
46.998100000000001
 20
168.68199999999999
 30
0.0
 11
47.998099999999987
 21
168.68199999999999
 31
0.0
  0
LINE
  5
3FE
  8
0
 62
     7
 10
47.998099999999987
 20
169.88200000000001
 30
0.0
 11
47.998099999999987
 21
168.68199999999999
 31
0.0
  0
LINE
  5
3FF
  8
0
 62
     7
 10
47.698
 20
170.28200000000001
 30
0.0
 11
47.698
 21
169.88200000000001
 31
0.0
  0
LINE
  5
400
  8
0
 62
     7
 10
47.698
 20
168.68199999999999
 30
0.0
 11
47.698
 21
168.28200000000001
 31
0.0
  0
LINE
  5
401
  8
0
 62
     7
 10
46.998100000000001
 20
168.28200000000001
 30
0.0
 11
47.998099999999987
 21
168.28200000000001
 31
0.0
  0
LINE
  5
402
  8
0
 62
     7
 10
46.998100000000001
 20
167.08199999999999
 30
0.0
 11
47.998099999999987
 21
167.08199999999999
 31
0.0
  0
LINE
  5
403
  8
0
 62
     7
 10
46.998100000000001
 20
166.68199999999999
 30
0.0
 11
47.998099999999987
 21
166.68199999999999
 31
0.0
  0
LINE
  5
404
  8
0
 62
     7
 10
47.998099999999987
 20
168.28200000000001
 30
0.0
 11
47.998099999999987
 21
167.08199999999999
 31
0.0
  0
LINE
  5
405
  8
0
 62
     7
 10
47.998099999999987
 20
166.68199999999999
 30
0.0
 11
47.998099999999987
 21
165.78200000000001
 31
0.0
  0
LINE
  5
406
  8
0
 62
     7
 10
47.698
 20
167.08199999999999
 30
0.0
 11
47.698
 21
166.68199999999999
 31
0.0
  0
ARC
  5
407
  8
0
 62
     7
 10
44.74839699999999
 20
184.49852100000001
 30
0.0
 40
7.5504519999999999
 50
180.130099
 51
217.98735300000001
  0
ARC
  5
408
  8
0
 62
     7
 10
44.698071999999989
 20
184.48197999999999
 30
0.0
 40
7.5001079999999991
 50
90.004606000000024
 51
180.00461599999991
  0
ARC
  5
409
  8
0
 62
     7
 10
44.690545
 20
184.41315599999999
 30
0.0
 40
7.5689349999999997
 50
68.526473999999993
 51
89.947580000000002
  0
ARC
  5
40A
  8
0
 62
     7
 10
44.535451000000002
 20
184.39053699999999
 30
0.0
 40
7.663092999999999
 50
0.6792240000000001
 51
58.859818000000011
  0
ARC
  5
40B
  8
0
 62
     7
 10
44.547944999999999
 20
184.56647000000001
 30
0.0
 40
7.6505339999999986
 50
301.08770600000003
 51
359.362728
  0
ARC
  5
40C
  8
0
 62
     7
 10
44.70661299999999
 20
184.424342
 30
0.0
 40
7.4423000000000004
 50
269.92960399999998
 51
276.10504900000001
  0
ARC
  5
40D
  8
0
 62
     7
 10
44.694769999999998
 20
184.53154900000001
 30
0.0
 40
7.5495020000000004
 50
264.70527700000002
 51
270.02048500000001
  0
ARC
  5
40E
  8
0
 62
     7
 10
44.716799000000002
 20
184.485592
 30
0.0
 40
7.018775999999999
 50
180.03301200000001
 51
212.512574
  0
ARC
  5
40F
  8
0
 62
     7
 10
44.697985999999993
 20
184.482066
 30
0.0
 40
6.9999630000000002
 50
90.004230000000007
 51
180.00424000000001
  0
ARC
  5
410
  8
0
 62
     7
 10
44.701275000000003
 20
184.435316
 30
0.0
 40
7.0467139999999988
 50
81.772856000000004
 51
90.030944999999988
  0
ARC
  5
411
  8
0
 62
     7
 10
44.558945000000001
 20
184.40727999999999
 30
0.0
 40
7.1395600000000004
 50
0.596046
 51
56.511912000000009
  0
ARC
  5
412
  8
0
 62
     7
 10
44.56662
 20
184.55279899999999
 30
0.0
 40
7.1318549999999998
 50
303.30265500000002
 51
359.42759999999998
  0
ARC
  5
413
  8
0
 62
     7
 10
44.703515999999993
 20
184.49928399999999
 30
0.0
 40
7.017180999999999
 50
269.95062799999999
 51
276.50189799999998
  0
ARC
  5
414
  8
0
 62
     7
 10
44.694775999999997
 20
184.543182
 30
0.0
 40
7.061077
 50
264.33782400000001
 51
270.02185100000003
  0
ARC
  5
415
  8
0
 62
     7
 10
44.702886999999997
 20
184.47628599999999
 30
0.0
 40
5.4941779999999989
 50
269.945291
 51
294.69502799999998
  0
ARC
  5
416
  8
0
 62
     7
 10
44.697552999999999
 20
184.48163600000001
 30
0.0
 40
5.4995260000000004
 50
180.00090700000001
 51
270.00091700000002
  0
ARC
  5
417
  8
0
 62
     7
 10
44.698071999999989
 20
184.48198099999999
 30
0.0
 40
5.5000450000000001
 50
90.004486000000014
 51
180.0044959999999
  0
ARC
  5
418
  8
0
 62
     7
 10
44.690340999999997
 20
184.43198599999999
 30
0.0
 40
5.5500439999999998
 50
65.43146800000001
 51
89.924634999999995
  0
LINE
  5
419
  8
0
 62
     7
 10
44.6982
 20
187.38200000000001
 30
0.0
 11
44.6982
 21
187.08199999999999
 31
0.0
  0
LINE
  5
41A
  8
0
 62
     7
 10
44.6982
 20
181.88200000000001
 30
0.0
 11
44.6982
 21
181.58199999999999
 31
0.0
  0
ARC
  5
41B
  8
0
 62
     7
 10
44.697811999999992
 20
184.48172299999999
 30
0.0
 40
2.899754999999999
 50
179.99996999999999
 51
270.00002000000001
  0
ARC
  5
41C
  8
0
 62
     7
 10
44.698071999999989
 20
184.48198099999999
 30
0.0
 40
2.9000140000000001
 50
90.005105
 51
180.0051149999999
  0
ARC
  5
41D
  8
0
 62
     7
 10
44.697726000000003
 20
184.481809
 30
0.0
 40
2.5997710000000001
 50
180.00190799999999
 51
270.00191799999999
  0
ARC
  5
41E
  8
0
 62
     7
 10
44.697984999999989
 20
184.48189500000001
 30
0.0
 40
2.600029999999999
 50
90.003795999999994
 51
180.003806
  0
ARC
  5
41F
  8
0
 62
     7
 10
44.690502000000002
 20
184.48955699999999
 30
0.0
 40
0.207785
 50
272.06370600000002
 51
357.88697500000001
  0
ARC
  5
420
  8
0
 62
     7
 10
44.706026999999992
 20
184.489937
 30
0.0
 40
0.208187
 50
182.21385699999999
 51
267.78617300000002
  0
ARC
  5
421
  8
0
 62
     7
 10
44.705807999999998
 20
184.47425100000001
 30
0.0
 40
0.207953
 50
92.156010999999978
 51
177.89328800000001
  0
ARC
  5
422
  8
0
 62
     7
 10
44.68994099999999
 20
184.473851
 30
0.0
 40
0.208361
 50
2.212577
 51
87.787413000000001
  0
LINE
  5
423
  8
0
 62
     7
 10
38.798000000000002
 20
185.482
 30
0.0
 11
38.798000000000002
 21
172.88200000000001
 31
0.0
  0
LINE
  5
424
  8
0
 62
     7
 10
43.998100000000001
 20
179.03999999999999
 30
0.0
 11
43.998100000000001
 21
172.88200000000001
 31
0.0
  0
LINE
  5
425
  8
0
 62
     7
 10
44.198099999999997
 20
169.18199999999999
 30
0.0
 11
38.598100000000002
 21
168.88200000000001
 31
0.0
  0
LINE
  5
426
  8
0
 62
     7
 10
44.198099999999997
 20
169.58199999999999
 30
0.0
 11
38.598100000000002
 21
169.28200000000001
 31
0.0
  0
LINE
  5
427
  8
0
 62
     7
 10
44.198099999999997
 20
169.982
 30
0.0
 11
38.598100000000002
 21
169.68199999999999
 31
0.0
  0
LINE
  5
428
  8
0
 62
     7
 10
44.198099999999997
 20
170.38200000000001
 30
0.0
 11
38.598100000000002
 21
170.08199999999999
 31
0.0
  0
LINE
  5
429
  8
0
 62
     7
 10
44.198099999999997
 20
170.78200000000001
 30
0.0
 11
38.598100000000002
 21
170.482
 31
0.0
  0
LINE
  5
42A
  8
0
 62
     7
 10
44.198099999999997
 20
171.18199999999999
 30
0.0
 11
38.598100000000002
 21
170.88200000000001
 31
0.0
  0
LINE
  5
42B
  8
0
 62
     7
 10
44.198099999999997
 20
171.58199999999999
 30
0.0
 11
38.598100000000002
 21
171.28200000000001
 31
0.0
  0
LINE
  5
42C
  8
0
 62
     7
 10
44.198099999999997
 20
171.982
 30
0.0
 11
38.598100000000002
 21
171.68199999999999
 31
0.0
  0
LINE
  5
42D
  8
0
 62
     7
 10
38.998000000000012
 20
171.303
 30
0.0
 11
38.998000000000012
 21
171.703
 31
0.0
  0
LINE
  5
42F
  8
0
 62
     7
 10
38.398099999999999
 20
167.88200000000001
 30
0.0
 11
38.398099999999999
 21
168.88200000000001
 31
0.0
  0
LINE
  5
430
  8
0
 62
     7
 10
44.398099999999999
 20
168.18199999999999
 30
0.0
 11
44.398099999999999
 21
168.88200000000001
 31
0.0
  0
LINE
  5
431
  8
0
 62
     7
 10
44.398099999999999
 20
164.482
 30
0.0
 11
44.398099999999999
 21
168.18199999999999
 31
0.0
  0
LINE
  5
432
  8
0
 62
     7
 10
38.398099999999999
 20
164.482
 30
0.0
 11
38.398099999999999
 21
167.88200000000001
 31
0.0
  0
LINE
  5
433
  8
0
 62
     7
 10
38.598100000000002
 20
168.88200000000001
 30
0.0
 11
38.598100000000002
 21
172.88200000000001
 31
0.0
  0
LINE
  5
434
  8
0
 62
     7
 10
43.798099999999991
 20
169.16
 30
0.0
 11
43.798099999999991
 21
169.56
 31
0.0
  0
LINE
  5
435
  8
0
 62
     7
 10
43.798099999999991
 20
169.96000000000001
 30
0.0
 11
43.798099999999991
 21
170.36000000000001
 31
0.0
  0
LINE
  5
436
  8
0
 62
     7
 10
43.798099999999991
 20
170.75999999999999
 30
0.0
 11
43.798099999999991
 21
171.16
 31
0.0
  0
LINE
  5
437
  8
0
 62
     7
 10
43.798099999999991
 20
171.56
 30
0.0
 11
43.798099999999991
 21
171.96000000000001
 31
0.0
  0
LINE
  5
439
  8
0
 62
     7
 10
44.198099999999997
 20
168.88200000000001
 30
0.0
 11
44.198099999999997
 21
172.88200000000001
 31
0.0
  0
LINE
  5
43A
  8
0
 62
     7
 10
38.398099999999999
 20
165.08199999999999
 30
0.0
 11
44.398099999999999
 21
165.38200000000001
 31
0.0
  0
LINE
  5
43B
  8
0
 62
     7
 10
38.398099999999999
 20
165.482
 30
0.0
 11
44.398099999999999
 21
165.78200000000001
 31
0.0
  0
LINE
  5
43C
  8
0
 62
     7
 10
38.398099999999999
 20
165.88200000000001
 30
0.0
 11
44.398099999999999
 21
166.18199999999999
 31
0.0
  0
LINE
  5
43D
  8
0
 62
     7
 10
38.398099999999999
 20
166.28200000000001
 30
0.0
 11
44.398099999999999
 21
166.58199999999999
 31
0.0
  0
LINE
  5
43E
  8
0
 62
     7
 10
38.398099999999999
 20
166.68199999999999
 30
0.0
 11
44.398099999999999
 21
166.982
 31
0.0
  0
LINE
  5
43F
  8
0
 62
     7
 10
38.398099999999999
 20
167.08199999999999
 30
0.0
 11
44.398099999999999
 21
167.38200000000001
 31
0.0
  0
LINE
  5
440
  8
0
 62
     7
 10
38.398099999999999
 20
167.482
 30
0.0
 11
44.398099999999999
 21
167.78200000000001
 31
0.0
  0
LINE
  5
441
  8
0
 62
     7
 10
38.398099999999999
 20
167.88200000000001
 30
0.0
 11
44.398099999999999
 21
168.18199999999999
 31
0.0
  0
LINE
  5
442
  8
0
 62
     7
 10
38.398099999999999
 20
164.482
 30
0.0
 11
44.398099999999999
 21
164.482
 31
0.0
  0
LINE
  5
443
  8
0
 62
     7
 10
38.398099999999999
 20
168.88200000000001
 30
0.0
 11
44.398099999999999
 21
168.88200000000001
 31
0.0
  0
LINE
  5
444
  8
0
 62
     7
 10
38.598100000000002
 20
172.88200000000001
 30
0.0
 11
44.198099999999997
 21
172.88200000000001
 31
0.0
  0
LINE
  5
445
  8
0
  6
AIGENLINE001
 62
     7
 10
42.898099999999999
 20
184.482
 30
0.0
 11
46.498100000000001
 21
184.482
 31
0.0
  0
LINE
  5
446
  8
0
 62
     7
 10
38.798000000000002
 20
167.90199999999999
 30
0.0
 11
38.798000000000002
 21
167.50200000000001
 31
0.0
  0
LINE
  5
447
  8
0
 62
     7
 10
38.798000000000002
 20
167.102
 30
0.0
 11
38.798000000000002
 21
166.702
 31
0.0
  0
LINE
  5
448
  8
0
 62
     7
 10
38.798000000000002
 20
166.30199999999999
 30
0.0
 11
38.798000000000002
 21
165.90199999999999
 31
0.0
  0
LINE
  5
449
  8
0
 62
     7
 10
38.798000000000002
 20
165.50200000000001
 30
0.0
 11
38.798000000000002
 21
165.102
 31
0.0
  0
LINE
  5
44A
  8
0
 62
     7
 10
38.598100000000002
 20
164.482
 30
0.0
 11
38.598100000000002
 21
163.482
 31
0.0
  0
LINE
  5
44B
  8
0
 62
     7
 10
43.998100000000001
 20
168.16200000000001
 30
0.0
 11
43.998100000000001
 21
167.762
 31
0.0
  0
LINE
  5
44C
  8
0
 62
     7
 10
43.998100000000001
 20
167.36199999999999
 30
0.0
 11
43.998100000000001
 21
166.96199999999999
 31
0.0
  0
LINE
  5
44D
  8
0
 62
     7
 10
43.998100000000001
 20
166.56200000000001
 30
0.0
 11
43.998100000000001
 21
166.16200000000001
 31
0.0
  0
LINE
  5
44E
  8
0
 62
     7
 10
43.998100000000001
 20
165.762
 30
0.0
 11
43.998100000000001
 21
165.36199999999999
 31
0.0
  0
LINE
  5
44F
  8
0
 62
     7
 10
44.198099999999997
 20
164.482
 30
0.0
 11
44.198099999999997
 21
163.482
 31
0.0
  0
LINE
  5
450
  8
0
 62
     7
 10
45.897899999999993
 20
87.727800000000002
 30
0.0
 11
46.098100000000002
 21
87.927700000000002
 31
0.0
  0
LINE
  5
451
  8
0
 62
     7
 10
36.898200000000003
 20
87.727800000000002
 30
0.0
 11
36.698099999999997
 21
87.927700000000002
 31
0.0
  0
LINE
  5
452
  8
0
 62
     7
 10
36.698099999999997
 20
87.927700000000002
 30
0.0
 11
46.098100000000002
 21
87.927700000000002
 31
0.0
  0
LINE
  5
453
  8
0
 62
     7
 10
36.898200000000003
 20
87.727800000000002
 30
0.0
 11
45.897899999999993
 21
87.727800000000002
 31
0.0
  0
LINE
  5
454
  8
0
 62
     7
 10
36.698099999999997
 20
90.327200000000005
 30
0.0
 11
36.698099999999997
 21
87.927700000000002
 31
0.0
  0
LINE
  5
455
  8
0
 62
     7
 10
36.898200000000003
 20
90.327200000000005
 30
0.0
 11
36.898200000000003
 21
87.727800000000002
 31
0.0
  0
LINE
  5
456
  8
0
 62
     7
 10
45.897899999999993
 20
90.327200000000005
 30
0.0
 11
45.897899999999993
 21
87.727800000000002
 31
0.0
  0
LINE
  5
457
  8
0
 62
     7
 10
46.098100000000002
 20
90.327200000000005
 30
0.0
 11
46.098100000000002
 21
87.927700000000002
 31
0.0
  0
LINE
  5
458
  8
0
  6
AIGENLINE001
 62
     7
 10
41.398099999999992
 20
199.298
 30
0.0
 11
41.398099999999992
 21
86.527600000000007
 31
0.0
  0
LINE
  5
459
  8
0
 62
     7
 10
49.46670000000001
 20
90.327200000000005
 30
0.0
 11
50.998100000000001
 21
90.327200000000005
 31
0.0
  0
LINE
  5
45A
  8
0
 62
     7
 10
35.547899999999998
 20
90.327200000000005
 30
0.0
 11
48.1295
 21
90.327200000000005
 31
0.0
  0
ARC
  5
45B
  8
0
 62
     7
 10
48.787095999999998
 20
92.532087000000004
 30
0.0
 40
1.011050999999999
 50
314.69804799999997
 51
359.744664
  0
ARC
  5
45C
  8
0
 62
     7
 10
48.785674999999991
 20
92.522131999999985
 30
0.0
 40
1.012475999999999
 50
0.308381
 51
45.268647999999992
  0
ARC
  5
45D
  8
0
 62
     7
 10
48.840654000000001
 20
92.528385999999998
 30
0.0
 40
1.0320869999999991
 50
141.26161500000001
 51
221.45563799999999
  0
ARC
  5
45E
  8
0
 62
     7
 10
48.797393999999997
 20
92.528033999999991
 30
0.0
 40
0.8009260000000001
 50
331.05014999999997
 51
359.96764400000001
  0
ARC
  5
45F
  8
0
 62
     7
 10
48.795858000000003
 20
92.526731999999996
 30
0.0
 40
0.802462
 50
0.060633
 51
28.921572999999999
  0
ARC
  5
460
  8
0
 62
     7
 10
48.805621000000002
 20
92.527672999999993
 30
0.0
 40
0.8070000000000001
 50
160.608699
 51
202.02035599999999
  0
ARC
  5
461
  8
0
 62
     7
 10
48.752572000000001
 20
92.557541000000001
 30
0.0
 40
1.8457639999999991
 50
293.82775800000002
 51
359.06996800000002
  0
ARC
  5
462
  8
0
 62
     7
 10
48.753824999999999
 20
92.498103
 30
0.0
 40
1.8445029999999989
 50
0.915732
 51
66.197507999999999
  0
LINE
  5
463
  8
0
 62
     7
 10
48.098100000000002
 20
90.727500000000006
 30
0.0
 11
46.848300000000002
 21
90.727500000000006
 31
0.0
  0
ARC
  5
464
  8
0
 62
     7
 10
48.825163000000003
 20
90.561897000000002
 30
0.0
 40
0.7275199999999999
 50
182.12465499999999
 51
267.87537500000002
  0
ARC
  5
465
  8
0
 62
     7
 10
48.771225000000001
 20
90.561892
 30
0.0
 40
0.7275140000000001
 50
272.124258
 51
357.87575199999998
  0
LINE
  5
466
  8
0
  6
AIGENLINE001
 62
     7
 10
55.398200000000003
 20
96.527400000000014
 30
0.0
 11
31.398099999999999
 21
96.527400000000014
 31
0.0
  0
ARC
  5
467
  8
0
 62
     7
 10
41.303828999999993
 20
15.064857999999999
 30
0.0
 40
93.265106000000003
 50
86.078204999999997
 51
87.975806000000006
  0
LINE
  5
468
  8
0
 62
     7
 10
44.598100000000002
 20
108.02800000000001
 30
0.0
 11
47.684600000000003
 21
108.02800000000001
 31
0.0
  0
LINE
  5
469
  8
0
 62
     7
 10
44.598100000000002
 20
107.928
 30
0.0
 11
47.686999999999991
 21
107.928
 31
0.0
  0
LINE
  5
46A
  8
0
 62
     7
 10
48.008600000000001
 20
94.327299999999994
 30
0.0
 11
45.898299999999999
 21
94.327299999999994
 31
0.0
  0
LINE
  5
46B
  8
0
 62
     7
 10
47.975299999999997
 20
95.727400000000003
 30
0.0
 11
45.927899999999987
 21
95.727400000000003
 31
0.0
  0
LINE
  5
46C
  8
0
 62
     7
 10
50.998100000000001
 20
95.727400000000003
 30
0.0
 11
49.49819999999999
 21
95.727400000000003
 31
0.0
  0
LINE
  5
46D
  8
0
 62
     7
 10
47.897500000000001
 20
99.027799999999985
 30
0.0
 11
45.898299999999999
 21
99.027799999999985
 31
0.0
  0
LINE
  5
46E
  8
0
 62
     7
 10
50.998100000000001
 20
99.027799999999985
 30
0.0
 11
49.49819999999999
 21
99.027799999999985
 31
0.0
  0
LINE
  5
46F
  8
0
 62
     7
 10
44.598100000000002
 20
100.128
 30
0.0
 11
47.87149999999999
 21
100.128
 31
0.0
  0
LINE
  5
470
  8
0
 62
     7
 10
44.598100000000002
 20
101.727
 30
0.0
 11
47.833599999999997
 21
101.727
 31
0.0
  0
LINE
  5
471
  8
0
 62
     7
 10
44.598100000000002
 20
104.128
 30
0.0
 11
47.77709999999999
 21
104.128
 31
0.0
  0
LINE
  5
472
  8
0
 62
     7
 10
44.598100000000002
 20
104.328
 30
0.0
 11
47.771900000000002
 21
104.328
 31
0.0
  0
LINE
  5
473
  8
0
 62
     7
 10
47.765900000000002
 20
104.601
 30
0.0
 11
46.398200000000003
 21
104.328
 31
0.0
  0
LINE
  5
474
  8
0
 62
     7
 10
44.598100000000002
 20
104.727
 30
0.0
 11
47.762599999999992
 21
104.727
 31
0.0
  0
LINE
  5
475
  8
0
 62
     7
 10
44.598100000000002
 20
105.127
 30
0.0
 11
47.752899999999997
 21
105.127
 31
0.0
  0
LINE
  5
476
  8
0
 62
     7
 10
36.898200000000003
 20
95.573800000000006
 30
0.0
 11
36.898200000000003
 21
93.046400000000006
 31
0.0
  0
LINE
  5
477
  8
0
 62
     7
 10
36.898200000000003
 20
99.127399999999994
 30
0.0
 11
36.898200000000003
 21
97.481700000000004
 31
0.0
  0
LINE
  5
478
  8
0
 62
     7
 10
45.898299999999999
 20
95.573800000000006
 30
0.0
 11
45.898299999999999
 21
93.046400000000006
 31
0.0
  0
LINE
  5
479
  8
0
 62
     7
 10
45.898299999999999
 20
99.127399999999994
 30
0.0
 11
45.898299999999999
 21
97.481700000000004
 31
0.0
  0
LINE
  5
47A
  8
0
 62
     7
 10
50.598100000000002
 20
99.027799999999985
 30
0.0
 11
50.598100000000002
 21
90.327200000000005
 31
0.0
  0
LINE
  5
47B
  8
0
 62
     7
 10
50.998100000000001
 20
99.027799999999985
 30
0.0
 11
50.998100000000001
 21
90.327200000000005
 31
0.0
  0
LINE
  5
47C
  8
0
 62
     7
 10
45.368200000000002
 20
93.409499999999994
 30
0.0
 11
45.069400000000002
 21
93.755799999999994
 31
0.0
  0
LINE
  5
47D
  8
0
 62
     7
 10
45.709499999999991
 20
93.144599999999997
 30
0.0
 11
45.368200000000002
 21
93.409499999999994
 31
0.0
  0
LINE
  5
47E
  8
0
 62
     7
 10
46.073300000000003
 20
92.982000000000014
 30
0.0
 11
45.709499999999991
 21
93.144599999999997
 31
0.0
  0
LINE
  5
47F
  8
0
 62
     7
 10
46.44809999999999
 20
92.927199999999999
 30
0.0
 11
46.073300000000003
 21
92.982000000000014
 31
0.0
  0
LINE
  5
480
  8
0
 62
     7
 10
36.71050000000001
 20
92.978499999999997
 30
0.0
 11
36.348100000000002
 21
92.927199999999999
 31
0.0
  0
LINE
  5
481
  8
0
 62
     7
 10
37.074800000000003
 20
93.137400000000014
 30
0.0
 11
36.71050000000001
 21
92.978499999999997
 31
0.0
  0
LINE
  5
482
  8
0
 62
     7
 10
37.417099999999998
 20
93.399199999999993
 30
0.0
 11
37.074800000000003
 21
93.137400000000014
 31
0.0
  0
LINE
  5
483
  8
0
 62
     7
 10
37.726599999999998
 20
93.755799999999994
 30
0.0
 11
37.417099999999998
 21
93.399199999999993
 31
0.0
  0
LINE
  5
484
  8
0
 62
     7
 10
36.348100000000002
 20
91.127499999999998
 30
0.0
 11
46.44809999999999
 21
91.127499999999998
 31
0.0
  0
LINE
  5
485
  8
0
 62
     7
 10
36.348100000000002
 20
92.927199999999999
 30
0.0
 11
36.348100000000002
 21
91.127499999999998
 31
0.0
  0
LINE
  5
486
  8
0
 62
     7
 10
46.44809999999999
 20
92.927199999999999
 30
0.0
 11
46.44809999999999
 21
91.127499999999998
 31
0.0
  0
LINE
  5
487
  8
0
 62
     7
 10
47.248100000000001
 20
90.327200000000005
 30
0.0
 11
46.44809999999999
 21
91.127499999999998
 31
0.0
  0
LINE
  5
488
  8
0
 62
     7
 10
46.44809999999999
 20
99.127399999999994
 30
0.0
 11
45.192900000000002
 21
99.127399999999994
 31
0.0
  0
ARC
  5
489
  8
0
 62
     7
 10
46.409463999999993
 20
100.16615
 30
0.0
 40
1.0394760000000001
 50
272.130335
 51
357.86967499999997
  0
LINE
  5
48A
  8
0
 62
     7
 10
34.198
 20
100.128
 30
0.0
 11
38.19830000000001
 21
100.128
 31
0.0
  0
LINE
  5
48B
  8
0
 62
     7
 10
36.348100000000002
 20
99.127399999999994
 30
0.0
 11
37.603499999999997
 21
99.127399999999994
 31
0.0
  0
LINE
  5
48C
  8
0
 62
     7
 10
34.198
 20
101.727
 30
0.0
 11
38.19830000000001
 21
101.727
 31
0.0
  0
LINE
  5
48D
  8
0
 62
     7
 10
34.198
 20
104.128
 30
0.0
 11
38.19830000000001
 21
104.128
 31
0.0
  0
LINE
  5
48E
  8
0
 62
     7
 10
34.198
 20
104.328
 30
0.0
 11
38.19830000000001
 21
104.328
 31
0.0
  0
LINE
  5
48F
  8
0
 62
     7
 10
34.398099999999999
 20
104.727
 30
0.0
 11
38.19830000000001
 21
104.727
 31
0.0
  0
LINE
  5
490
  8
0
 62
     7
 10
34.398099999999999
 20
105.127
 30
0.0
 11
38.19830000000001
 21
105.127
 31
0.0
  0
ARC
  5
491
  8
0
 62
     7
 10
38.497196000000002
 20
106.957943
 30
0.0
 40
0.4197790000000001
 50
198.093334
 51
224.590755
  0
ARC
  5
492
  8
0
 62
     7
 10
44.296739000000002
 20
106.959402
 30
0.0
 40
0.4225100000000001
 50
315.49643400000002
 51
341.81951600000002
  0
ARC
  5
493
  8
0
 62
     7
 10
44.301732999999992
 20
105.09887500000001
 30
0.0
 40
0.416819
 50
17.997471999999998
 51
44.686577
  0
ARC
  5
494
  8
0
 62
     7
 10
38.495610999999997
 20
105.098258
 30
0.0
 40
0.4179730000000001
 50
135.35092800000001
 51
161.96498299999999
  0
LINE
  5
495
  8
0
 62
     7
 10
44.598100000000002
 20
105.61799999999999
 30
0.0
 11
44.939700000000002
 21
105.61799999999999
 31
0.0
  0
LINE
  5
496
  8
0
 62
     7
 10
37.856499999999997
 20
105.61799999999999
 30
0.0
 11
38.19830000000001
 21
105.61799999999999
 31
0.0
  0
LINE
  5
497
  8
0
 62
     7
 10
44.598100000000002
 20
105.977
 30
0.0
 11
45.69809999999999
 21
105.977
 31
0.0
  0
LINE
  5
498
  8
0
 62
     7
 10
37.1203
 20
105.977
 30
0.0
 11
38.19830000000001
 21
105.977
 31
0.0
  0
LINE
  5
499
  8
0
 62
     7
 10
44.598100000000002
 20
106.078
 30
0.0
 11
45.69809999999999
 21
106.078
 31
0.0
  0
LINE
  5
49A
  8
0
 62
     7
 10
37.1203
 20
106.078
 30
0.0
 11
38.19830000000001
 21
106.078
 31
0.0
  0
LINE
  5
49B
  8
0
 62
     7
 10
44.598100000000002
 20
106.438
 30
0.0
 11
44.939700000000002
 21
106.438
 31
0.0
  0
LINE
  5
49C
  8
0
 62
     7
 10
37.856499999999997
 20
106.438
 30
0.0
 11
38.19830000000001
 21
106.438
 31
0.0
  0
LINE
  5
49D
  8
0
 62
     7
 10
44.598100000000002
 20
106.928
 30
0.0
 11
44.6982
 21
106.928
 31
0.0
  0
LINE
  5
49E
  8
0
 62
     7
 10
38.098199999999999
 20
106.928
 30
0.0
 11
38.19830000000001
 21
106.928
 31
0.0
  0
LINE
  5
49F
  8
0
 62
     7
 10
33.998100000000001
 20
107.928
 30
0.0
 11
38.19830000000001
 21
107.928
 31
0.0
  0
LINE
  5
4A0
  8
0
 62
     7
 10
33.998100000000001
 20
108.02800000000001
 30
0.0
 11
38.19830000000001
 21
108.02800000000001
 31
0.0
  0
ARC
  5
4A1
  8
0
 62
     7
 10
41.432791999999999
 20
16.419439000000001
 30
0.0
 40
91.909261999999984
 50
92.016801000000015
 51
94.639784000000006
  0
LINE
  5
4A2
  8
0
 62
     7
 10
45.650199999999991
 20
105.96299999999999
 30
0.0
 11
45.183199999999999
 21
105.82299999999999
 31
0.0
  0
LINE
  5
4A3
  8
0
 62
     7
 10
45.650199999999991
 20
106.092
 30
0.0
 11
45.183199999999999
 21
106.232
 31
0.0
  0
ARC
  5
4A4
  8
0
 62
     7
 10
45.628280999999987
 20
106.029042
 30
0.0
 40
0.069405
 50
288.42300399999999
 51
14.919263000000001
  0
ARC
  5
4A5
  8
0
 62
     7
 10
45.629151999999998
 20
106.025847
 30
0.0
 40
0.069465
 50
17.651378999999999
 51
72.348611000000005
  0
ARC
  5
4A6
  8
0
 62
     7
 10
45.302078999999992
 20
105.43486300000001
 30
0.0
 40
0.405905
 50
107.025749
 51
153.235905
  0
ARC
  5
4A7
  8
0
 62
     7
 10
45.301332000000002
 20
106.61948599999999
 30
0.0
 40
0.404838
 50
206.69967700000001
 51
253.03867
  0
LINE
  5
4A8
  8
0
 62
     7
 10
44.6982
 20
106.828
 30
0.0
 11
44.6982
 21
107.928
 31
0.0
  0
LINE
  5
4A9
  8
0
 62
     7
 10
44.6982
 20
105.22799999999999
 30
0.0
 11
44.6982
 21
105.127
 31
0.0
  0
LINE
  5
4AA
  8
0
 62
     7
 10
37.145899999999997
 20
105.96299999999999
 30
0.0
 11
37.613100000000003
 21
105.82299999999999
 31
0.0
  0
LINE
  5
4AB
  8
0
 62
     7
 10
37.145899999999997
 20
106.092
 30
0.0
 11
37.613100000000003
 21
106.232
 31
0.0
  0
ARC
  5
4AC
  8
0
 62
     7
 10
37.169178000000002
 20
106.025633
 30
0.0
 40
0.070356
 50
109.283874
 51
194.241241
  0
ARC
  5
4AD
  8
0
 62
     7
 10
37.166609999999999
 20
106.028741
 30
0.0
 40
0.068728
 50
197.280866
 51
252.50005899999999
  0
ARC
  5
4AE
  8
0
 62
     7
 10
37.495874000000001
 20
105.43709
 30
0.0
 40
0.403302
 50
26.596412999999998
 51
73.101939999999999
  0
ARC
  5
4AF
  8
0
 62
     7
 10
37.494782000000001
 20
106.61944
 30
0.0
 40
0.404857
 50
286.99264499999998
 51
333.30900100000002
  0
LINE
  5
4B0
  8
0
 62
     7
 10
38.098199999999999
 20
106.828
 30
0.0
 11
38.098199999999999
 21
107.928
 31
0.0
  0
LINE
  5
4B1
  8
0
 62
     7
 10
38.098199999999999
 20
105.22799999999999
 30
0.0
 11
38.098199999999999
 21
105.127
 31
0.0
  0
LINE
  5
4B2
  8
0
 62
     7
 10
33.998100000000001
 20
108.02800000000001
 30
0.0
 11
33.998100000000001
 21
107.928
 31
0.0
  0
LINE
  5
4B3
  8
0
 62
     7
 10
34.198
 20
101.727
 30
0.0
 11
34.198
 21
100.128
 31
0.0
  0
LINE
  5
4B4
  8
0
 62
     7
 10
36.398200000000003
 20
104.128
 30
0.0
 11
36.607999999999997
 21
101.727
 31
0.0
  0
LINE
  5
4B5
  8
0
 62
     7
 10
46.398200000000003
 20
104.128
 30
0.0
 11
46.188200000000002
 21
101.727
 31
0.0
  0
LINE
  5
4B6
  8
0
 62
     7
 10
34.398099999999999
 20
104.727
 30
0.0
 11
36.398200000000003
 21
104.328
 31
0.0
  0
LINE
  5
4B7
  8
0
 62
     7
 10
34.198
 20
104.328
 30
0.0
 11
34.198
 21
104.128
 31
0.0
  0
LINE
  5
4B8
  8
0
 62
     7
 10
34.398099999999999
 20
105.127
 30
0.0
 11
34.398099999999999
 21
104.727
 31
0.0
  0
LINE
  5
4B9
  8
0
 62
     7
 10
35.547899999999998
 20
90.327200000000005
 30
0.0
 11
36.348100000000002
 21
91.127499999999998
 31
0.0
  0
ARC
  5
4BA
  8
0
 62
     7
 10
36.386462999999999
 20
100.165741
 30
0.0
 40
1.039058
 50
182.10859600000001
 51
267.88156400000008
  0
ARC
  5
4BB
  8
0
 62
     7
 10
41.398163999999987
 20
96.527449000000004
 30
0.0
 40
4.4999719999999996
 50
135.324106
 51
225.3241560000001
  0
ARC
  5
4BC
  8
0
 62
     7
 10
41.398251999999992
 20
96.527364000000006
 30
0.0
 40
4.4999729999999998
 50
225.32260500000001
 51
315.32257499999997
  0
ARC
  5
4BD
  8
0
 62
     7
 10
41.345469000000001
 20
96.549109999999999
 30
0.0
 40
4.5528459999999988
 50
315.59501899999998
 51
359.72632199999998
  0
ARC
  5
4BE
  8
0
 62
     7
 10
41.344663999999987
 20
96.505285000000001
 30
0.0
 40
4.5536529999999988
 50
0.277793
 51
44.400865000000003
  0
ARC
  5
4BF
  8
0
 62
     7
 10
41.398389999999999
 20
96.527358000000007
 30
0.0
 40
4.6001079999999996
 50
134.080242
 51
224.07479900000001
  0
ARC
  5
4C0
  8
0
 62
     7
 10
41.398165999999989
 20
96.527455000000003
 30
0.0
 40
4.6000139999999989
 50
224.07761400000001
 51
314.077496
  0
ARC
  5
4C1
  8
0
 62
     7
 10
41.341815999999987
 20
96.551318000000009
 30
0.0
 40
4.6564180000000004
 50
314.37134900000001
 51
359.70522999999997
  0
ARC
  5
4C2
  8
0
 62
     7
 10
41.341177000000002
 20
96.503135999999998
 30
0.0
 40
4.6570580000000001
 50
0.298062
 51
45.625359000000003
  0
LINE
  5
4C3
  8
0
 62
     7
 10
44.291499999999992
 20
93.080499999999986
 30
0.0
 11
44.355499999999999
 21
93.004400000000004
 31
0.0
  0
LINE
  5
4C4
  8
0
 62
     7
 10
44.844700000000003
 20
93.634200000000007
 30
0.0
 11
44.921399999999998
 21
93.570099999999996
 31
0.0
  0
LINE
  5
4C5
  8
0
 62
     7
 10
41.006900000000002
 20
92.044200000000004
 30
0.0
 11
40.998100000000001
 21
91.944999999999993
 31
0.0
  0
LINE
  5
4C6
  8
0
 62
     7
 10
41.789399999999993
 20
92.044200000000004
 30
0.0
 11
41.798200000000001
 21
91.944999999999993
 31
0.0
  0
LINE
  5
4C7
  8
0
 62
     7
 10
37.951599999999999
 20
93.634200000000007
 30
0.0
 11
37.874899999999997
 21
93.570099999999996
 31
0.0
  0
LINE
  5
4C8
  8
0
 62
     7
 10
38.505000000000003
 20
93.080499999999986
 30
0.0
 11
38.440399999999997
 21
93.004400000000004
 31
0.0
  0
LINE
  5
4C9
  8
0
 62
     7
 10
36.915300000000002
 20
96.918700000000015
 30
0.0
 11
36.815600000000011
 21
96.927700000000016
 31
0.0
  0
LINE
  5
4CA
  8
0
 62
     7
 10
36.915300000000002
 20
96.13600000000001
 30
0.0
 11
36.815600000000011
 21
96.127700000000004
 31
0.0
  0
LINE
  5
4CB
  8
0
 62
     7
 10
37.951599999999999
 20
99.420599999999993
 30
0.0
 11
37.874899999999997
 21
99.485299999999995
 31
0.0
  0
LINE
  5
4CC
  8
0
 62
     7
 10
44.844700000000003
 20
99.420599999999993
 30
0.0
 11
44.921399999999998
 21
99.485299999999995
 31
0.0
  0
LINE
  5
4CD
  8
0
 62
     7
 10
45.880999999999993
 20
96.13600000000001
 30
0.0
 11
45.980899999999998
 21
96.127700000000004
 31
0.0
  0
LINE
  5
4CE
  8
0
 62
     7
 10
45.880999999999993
 20
96.918700000000015
 30
0.0
 11
45.980899999999998
 21
96.927700000000016
 31
0.0
  0
LINE
  5
4CF
  8
0
 62
     7
 10
44.2498
 20
144.31299999999999
 30
0.0
 11
44.198300000000003
 21
144.31899999999999
 31
0.0
  0
LINE
  5
4D0
  8
0
 62
     7
 10
44.543599999999998
 20
144.268
 30
0.0
 11
44.2498
 21
144.31299999999999
 31
0.0
  0
LINE
  5
4D1
  8
0
 62
     7
 10
44.742100000000001
 20
144.21899999999999
 30
0.0
 11
44.543599999999998
 21
144.268
 31
0.0
  0
LINE
  5
4D2
  8
0
 62
     7
 10
44.838700000000003
 20
144.16800000000001
 30
0.0
 11
44.742100000000001
 21
144.21899999999999
 31
0.0
  0
LINE
  5
4D3
  8
0
 62
     7
 10
44.830800000000004
 20
144.11600000000001
 30
0.0
 11
44.838700000000003
 21
144.16800000000001
 31
0.0
  0
LINE
  5
4D4
  8
0
 62
     7
 10
44.718699999999998
 20
144.065
 30
0.0
 11
44.830800000000004
 21
144.11600000000001
 31
0.0
  0
LINE
  5
4D5
  8
0
 62
     7
 10
44.505600000000001
 20
144.017
 30
0.0
 11
44.718699999999998
 21
144.065
 31
0.0
  0
LINE
  5
4D6
  8
0
 62
     7
 10
44.198300000000003
 20
143.97300000000001
 30
0.0
 11
44.505600000000001
 21
144.017
 31
0.0
  0
LINE
  5
4D7
  8
0
 62
     7
 10
43.805500000000002
 20
143.934
 30
0.0
 11
44.198300000000003
 21
143.97300000000001
 31
0.0
  0
LINE
  5
4D8
  8
0
 62
     7
 10
43.3399
 20
143.90100000000001
 30
0.0
 11
43.805500000000002
 21
143.934
 31
0.0
  0
LINE
  5
4D9
  8
0
 62
     7
 10
42.81519999999999
 20
143.876
 30
0.0
 11
43.3399
 21
143.90100000000001
 31
0.0
  0
LINE
  5
4DA
  8
0
 62
     7
 10
42.247500000000002
 20
143.858
 30
0.0
 11
42.81519999999999
 21
143.876
 31
0.0
  0
LINE
  5
4DB
  8
0
 62
     7
 10
41.6539
 20
143.84999999999999
 30
0.0
 11
42.247500000000002
 21
143.858
 31
0.0
  0
LINE
  5
4DC
  8
0
 62
     7
 10
41.052699999999987
 20
143.851
 30
0.0
 11
41.6539
 21
143.84999999999999
 31
0.0
  0
LINE
  5
4DD
  8
0
 62
     7
 10
40.4619
 20
143.86099999999999
 30
0.0
 11
41.052699999999987
 21
143.851
 31
0.0
  0
LINE
  5
4DE
  8
0
 62
     7
 10
39.899299999999997
 20
143.87899999999999
 30
0.0
 11
40.4619
 21
143.86099999999999
 31
0.0
  0
LINE
  5
4DF
  8
0
 62
     7
 10
39.3825
 20
143.905
 30
0.0
 11
39.899299999999997
 21
143.87899999999999
 31
0.0
  0
LINE
  5
4E0
  8
0
 62
     7
 10
38.926900000000003
 20
143.93899999999999
 30
0.0
 11
39.3825
 21
143.905
 31
0.0
  0
LINE
  5
4E1
  8
0
 62
     7
 10
38.546399999999998
 20
143.97900000000001
 30
0.0
 11
38.926900000000003
 21
143.93899999999999
 31
0.0
  0
LINE
  5
4E2
  8
0
 62
     7
 10
38.252499999999998
 20
144.024
 30
0.0
 11
38.546399999999998
 21
143.97900000000001
 31
0.0
  0
LINE
  5
4E3
  8
0
 62
     7
 10
38.054400000000001
 20
144.07300000000001
 30
0.0
 11
38.252499999999998
 21
144.024
 31
0.0
  0
LINE
  5
4E4
  8
0
 62
     7
 10
37.957599999999999
 20
144.124
 30
0.0
 11
38.054400000000001
 21
144.07300000000001
 31
0.0
  0
LINE
  5
4E5
  8
0
 62
     7
 10
37.965400000000002
 20
144.17500000000001
 30
0.0
 11
37.957599999999999
 21
144.124
 31
0.0
  0
LINE
  5
4E6
  8
0
 62
     7
 10
38.077500000000001
 20
144.226
 30
0.0
 11
37.965400000000002
 21
144.17500000000001
 31
0.0
  0
LINE
  5
4E7
  8
0
 62
     7
 10
38.290599999999998
 20
144.27500000000001
 30
0.0
 11
38.077500000000001
 21
144.226
 31
0.0
  0
LINE
  5
4E8
  8
0
 62
     7
 10
38.598100000000002
 20
144.31899999999999
 30
0.0
 11
38.290599999999998
 21
144.27500000000001
 31
0.0
  0
LINE
  5
4E9
  8
0
 62
     7
 10
45.189599999999992
 20
134.32499999999999
 30
0.0
 11
45.247999999999998
 21
134.38300000000001
 31
0.0
  0
LINE
  5
4EA
  8
0
 62
     7
 10
45.015999999999998
 20
134.27000000000001
 30
0.0
 11
45.189599999999992
 21
134.32499999999999
 31
0.0
  0
LINE
  5
4EB
  8
0
 62
     7
 10
44.732399999999991
 20
134.21700000000001
 30
0.0
 11
45.015999999999998
 21
134.27000000000001
 31
0.0
  0
LINE
  5
4EC
  8
0
 62
     7
 10
44.347299999999997
 20
134.16999999999999
 30
0.0
 11
44.732399999999991
 21
134.21700000000001
 31
0.0
  0
LINE
  5
4ED
  8
0
 62
     7
 10
43.872700000000002
 20
134.12899999999999
 30
0.0
 11
44.347299999999997
 21
134.16999999999999
 31
0.0
  0
LINE
  5
4EE
  8
0
 62
     7
 10
43.3232
 20
134.096
 30
0.0
 11
43.872700000000002
 21
134.12899999999999
 31
0.0
  0
LINE
  5
4EF
  8
0
 62
     7
 10
42.715000000000003
 20
134.072
 30
0.0
 11
43.3232
 21
134.096
 31
0.0
  0
LINE
  5
4F0
  8
0
 62
     7
 10
42.066600000000001
 20
134.05699999999999
 30
0.0
 11
42.715000000000003
 21
134.072
 31
0.0
  0
LINE
  5
4F1
  8
0
 62
     7
 10
41.398099999999992
 20
134.05199999999999
 30
0.0
 11
42.066600000000001
 21
134.05699999999999
 31
0.0
  0
LINE
  5
4F2
  8
0
 62
     7
 10
40.729700000000001
 20
134.05699999999999
 30
0.0
 11
41.398099999999992
 21
134.05199999999999
 31
0.0
  0
LINE
  5
4F3
  8
0
 62
     7
 10
40.081499999999991
 20
134.072
 30
0.0
 11
40.729700000000001
 21
134.05699999999999
 31
0.0
  0
LINE
  5
4F4
  8
0
 62
     7
 10
39.473100000000002
 20
134.096
 30
0.0
 11
40.081499999999991
 21
134.072
 31
0.0
  0
LINE
  5
4F5
  8
0
 62
     7
 10
38.923299999999998
 20
134.12899999999999
 30
0.0
 11
39.473100000000002
 21
134.096
 31
0.0
  0
LINE
  5
4F6
  8
0
 62
     7
 10
38.448700000000002
 20
134.16999999999999
 30
0.0
 11
38.923299999999998
 21
134.12899999999999
 31
0.0
  0
LINE
  5
4F7
  8
0
 62
     7
 10
38.06410000000001
 20
134.21700000000001
 30
0.0
 11
38.448700000000002
 21
134.16999999999999
 31
0.0
  0
LINE
  5
4F8
  8
0
 62
     7
 10
37.7804
 20
134.27000000000001
 30
0.0
 11
38.06410000000001
 21
134.21700000000001
 31
0.0
  0
LINE
  5
4F9
  8
0
 62
     7
 10
37.6066
 20
134.32499999999999
 30
0.0
 11
37.7804
 21
134.27000000000001
 31
0.0
  0
LINE
  5
4FA
  8
0
 62
     7
 10
37.548000000000002
 20
134.38300000000001
 30
0.0
 11
37.6066
 21
134.32499999999999
 31
0.0
  0
LINE
  5
4FB
  8
0
 62
     7
 10
45.247999999999998
 20
139.96100000000001
 30
0.0
 11
45.247999999999998
 21
134.38300000000001
 31
0.0
  0
LINE
  5
4FC
  8
0
 62
     7
 10
44.848199999999999
 20
144.14599999999999
 30
0.0
 11
44.848199999999999
 21
139.96100000000001
 31
0.0
  0
LINE
  5
4FD
  8
0
 62
     7
 10
44.7958
 20
139.91
 30
0.0
 11
44.848199999999999
 21
139.96100000000001
 31
0.0
  0
LINE
  5
4FE
  8
0
 62
     7
 10
44.640099999999997
 20
139.86000000000001
 30
0.0
 11
44.7958
 21
139.91
 31
0.0
  0
LINE
  5
4FF
  8
0
 62
     7
 10
44.385899999999999
 20
139.81399999999999
 30
0.0
 11
44.640099999999997
 21
139.86000000000001
 31
0.0
  0
LINE
  5
500
  8
0
 62
     7
 10
44.041200000000003
 20
139.77099999999999
 30
0.0
 11
44.385899999999999
 21
139.81399999999999
 31
0.0
  0
LINE
  5
501
  8
0
 62
     7
 10
43.615900000000003
 20
139.73500000000001
 30
0.0
 11
44.041200000000003
 21
139.77099999999999
 31
0.0
  0
LINE
  5
502
  8
0
 62
     7
 10
43.122999999999998
 20
139.70500000000001
 30
0.0
 11
43.615900000000003
 21
139.73500000000001
 31
0.0
  0
LINE
  5
503
  8
0
 62
     7
 10
42.578200000000002
 20
139.68299999999999
 30
0.0
 11
43.122999999999998
 21
139.70500000000001
 31
0.0
  0
LINE
  5
504
  8
0
 62
     7
 10
41.997199999999999
 20
139.66999999999999
 30
0.0
 11
42.578200000000002
 21
139.68299999999999
 31
0.0
  0
LINE
  5
505
  8
0
 62
     7
 10
41.398099999999992
 20
139.666
 30
0.0
 11
41.997199999999999
 21
139.66999999999999
 31
0.0
  0
LINE
  5
506
  8
0
 62
     7
 10
40.799100000000003
 20
139.66999999999999
 30
0.0
 11
41.398099999999992
 21
139.666
 31
0.0
  0
LINE
  5
507
  8
0
 62
     7
 10
40.2181
 20
139.68299999999999
 30
0.0
 11
40.799100000000003
 21
139.66999999999999
 31
0.0
  0
LINE
  5
508
  8
0
 62
     7
 10
39.672899999999998
 20
139.70500000000001
 30
0.0
 11
40.2181
 21
139.68299999999999
 31
0.0
  0
LINE
  5
509
  8
0
 62
     7
 10
39.180500000000002
 20
139.73500000000001
 30
0.0
 11
39.672899999999998
 21
139.70500000000001
 31
0.0
  0
LINE
  5
50A
  8
0
 62
     7
 10
38.755200000000002
 20
139.77099999999999
 30
0.0
 11
39.180500000000002
 21
139.73500000000001
 31
0.0
  0
LINE
  5
50B
  8
0
 62
     7
 10
38.410499999999999
 20
139.81399999999999
 30
0.0
 11
38.755200000000002
 21
139.77099999999999
 31
0.0
  0
LINE
  5
50C
  8
0
 62
     7
 10
38.156100000000002
 20
139.86000000000001
 30
0.0
 11
38.410499999999999
 21
139.81399999999999
 31
0.0
  0
LINE
  5
50D
  8
0
 62
     7
 10
38.000700000000002
 20
139.91
 30
0.0
 11
38.156100000000002
 21
139.86000000000001
 31
0.0
  0
LINE
  5
50E
  8
0
 62
     7
 10
37.94830000000001
 20
139.96100000000001
 30
0.0
 11
38.000700000000002
 21
139.91
 31
0.0
  0
LINE
  5
50F
  8
0
 62
     7
 10
37.94830000000001
 20
144.14599999999999
 30
0.0
 11
37.94830000000001
 21
139.96100000000001
 31
0.0
  0
LINE
  5
510
  8
0
 62
     7
 10
44.924699999999987
 20
140.09399999999999
 30
0.0
 11
44.848199999999999
 21
140.10900000000001
 31
0.0
  0
LINE
  5
511
  8
0
 62
     7
 10
45.139499999999998
 20
140.03999999999999
 30
0.0
 11
44.924699999999987
 21
140.09399999999999
 31
0.0
  0
LINE
  5
512
  8
0
 62
     7
 10
45.240200000000002
 20
139.983
 30
0.0
 11
45.139499999999998
 21
140.03999999999999
 31
0.0
  0
LINE
  5
513
  8
0
 62
     7
 10
45.224600000000002
 20
139.92500000000001
 30
0.0
 11
45.240200000000002
 21
139.983
 31
0.0
  0
LINE
  5
514
  8
0
 62
     7
 10
45.092599999999997
 20
139.86799999999999
 30
0.0
 11
45.224600000000002
 21
139.92500000000001
 31
0.0
  0
LINE
  5
515
  8
0
 62
     7
 10
44.848199999999999
 20
139.815
 30
0.0
 11
45.092599999999997
 21
139.86799999999999
 31
0.0
  0
LINE
  5
516
  8
0
 62
     7
 10
44.498899999999992
 20
139.76499999999999
 30
0.0
 11
44.848199999999999
 21
139.815
 31
0.0
  0
LINE
  5
517
  8
0
 62
     7
 10
44.055799999999991
 20
139.72200000000001
 30
0.0
 11
44.498899999999992
 21
139.76499999999999
 31
0.0
  0
LINE
  5
518
  8
0
 62
     7
 10
43.531500000000001
 20
139.68600000000001
 30
0.0
 11
44.055799999999991
 21
139.72200000000001
 31
0.0
  0
LINE
  5
519
  8
0
 62
     7
 10
42.942500000000003
 20
139.65799999999999
 30
0.0
 11
43.531500000000001
 21
139.68600000000001
 31
0.0
  0
LINE
  5
51A
  8
0
 62
     7
 10
42.306699999999992
 20
139.63999999999999
 30
0.0
 11
42.942500000000003
 21
139.65799999999999
 31
0.0
  0
LINE
  5
51B
  8
0
 62
     7
 10
41.6434
 20
139.631
 30
0.0
 11
42.306699999999992
 21
139.63999999999999
 31
0.0
  0
LINE
  5
51C
  8
0
 62
     7
 10
40.97229999999999
 20
139.63300000000001
 30
0.0
 11
41.6434
 21
139.631
 31
0.0
  0
LINE
  5
51D
  8
0
 62
     7
 10
40.314399999999992
 20
139.64400000000001
 30
0.0
 11
40.97229999999999
 21
139.63300000000001
 31
0.0
  0
LINE
  5
51E
  8
0
 62
     7
 10
39.689300000000003
 20
139.66499999999999
 30
0.0
 11
40.314399999999992
 21
139.64400000000001
 31
0.0
  0
LINE
  5
51F
  8
0
 62
     7
 10
39.116199999999999
 20
139.69499999999999
 30
0.0
 11
39.689300000000003
 21
139.66499999999999
 31
0.0
  0
LINE
  5
520
  8
0
 62
     7
 10
38.612499999999997
 20
139.733
 30
0.0
 11
39.116199999999999
 21
139.69499999999999
 31
0.0
  0
LINE
  5
521
  8
0
 62
     7
 10
38.193300000000001
 20
139.77799999999999
 30
0.0
 11
38.612499999999997
 21
139.733
 31
0.0
  0
LINE
  5
522
  8
0
 62
     7
 10
37.871299999999998
 20
139.82900000000001
 30
0.0
 11
38.193300000000001
 21
139.77799999999999
 31
0.0
  0
LINE
  5
523
  8
0
 62
     7
 10
37.6569
 20
139.88399999999999
 30
0.0
 11
37.871299999999998
 21
139.82900000000001
 31
0.0
  0
LINE
  5
524
  8
0
 62
     7
 10
37.556100000000001
 20
139.941
 30
0.0
 11
37.6569
 21
139.88399999999999
 31
0.0
  0
LINE
  5
525
  8
0
 62
     7
 10
37.571800000000003
 20
139.999
 30
0.0
 11
37.556100000000001
 21
139.941
 31
0.0
  0
LINE
  5
526
  8
0
 62
     7
 10
37.703699999999998
 20
140.05500000000001
 30
0.0
 11
37.571800000000003
 21
139.999
 31
0.0
  0
LINE
  5
527
  8
0
 62
     7
 10
37.94830000000001
 20
140.10900000000001
 30
0.0
 11
37.703699999999998
 21
140.05500000000001
 31
0.0
  0
LINE
  5
528
  8
0
 62
     7
 10
37.548000000000002
 20
139.96100000000001
 30
0.0
 11
37.548000000000002
 21
134.38300000000001
 31
0.0
  0
LINE
  5
529
  8
0
 62
     7
 10
44.1556
 20
144.10400000000001
 30
0.0
 11
44.198300000000003
 21
144.14599999999999
 31
0.0
  0
LINE
  5
52A
  8
0
 62
     7
 10
44.029299999999999
 20
144.06200000000001
 30
0.0
 11
44.1556
 21
144.10400000000001
 31
0.0
  0
LINE
  5
52B
  8
0
 62
     7
 10
43.82309999999999
 20
144.024
 30
0.0
 11
44.029299999999999
 21
144.06200000000001
 31
0.0
  0
LINE
  5
52C
  8
0
 62
     7
 10
43.543199999999999
 20
143.989
 30
0.0
 11
43.82309999999999
 21
144.024
 31
0.0
  0
LINE
  5
52D
  8
0
 62
     7
 10
43.197999999999993
 20
143.959
 30
0.0
 11
43.543199999999999
 21
143.989
 31
0.0
  0
LINE
  5
52E
  8
0
 62
     7
 10
42.798199999999987
 20
143.934
 30
0.0
 11
43.197999999999993
 21
143.959
 31
0.0
  0
LINE
  5
52F
  8
0
 62
     7
 10
42.355800000000002
 20
143.916
 30
0.0
 11
42.798199999999987
 21
143.934
 31
0.0
  0
LINE
  5
530
  8
0
 62
     7
 10
41.884199999999993
 20
143.905
 30
0.0
 11
42.355800000000002
 21
143.916
 31
0.0
  0
LINE
  5
531
  8
0
 62
     7
 10
41.398099999999992
 20
143.90199999999999
 30
0.0
 11
41.884199999999993
 21
143.905
 31
0.0
  0
LINE
  5
532
  8
0
 62
     7
 10
40.911799999999999
 20
143.905
 30
0.0
 11
41.398099999999992
 21
143.90199999999999
 31
0.0
  0
LINE
  5
533
  8
0
 62
     7
 10
40.4405
 20
143.916
 30
0.0
 11
40.911799999999999
 21
143.905
 31
0.0
  0
LINE
  5
534
  8
0
 62
     7
 10
39.998199999999997
 20
143.934
 30
0.0
 11
40.4405
 21
143.916
 31
0.0
  0
LINE
  5
535
  8
0
 62
     7
 10
39.598399999999998
 20
143.959
 30
0.0
 11
39.998199999999997
 21
143.934
 31
0.0
  0
LINE
  5
536
  8
0
 62
     7
 10
39.25330000000001
 20
143.989
 30
0.0
 11
39.598399999999998
 21
143.959
 31
0.0
  0
LINE
  5
537
  8
0
 62
     7
 10
38.973199999999999
 20
144.024
 30
0.0
 11
39.25330000000001
 21
143.989
 31
0.0
  0
LINE
  5
538
  8
0
 62
     7
 10
38.766999999999989
 20
144.06200000000001
 30
0.0
 11
38.973199999999999
 21
144.024
 31
0.0
  0
LINE
  5
539
  8
0
 62
     7
 10
38.640599999999999
 20
144.10400000000001
 30
0.0
 11
38.766999999999989
 21
144.06200000000001
 31
0.0
  0
LINE
  5
53A
  8
0
 62
     7
 10
38.598100000000002
 20
144.14599999999999
 30
0.0
 11
38.640599999999999
 21
144.10400000000001
 31
0.0
  0
LINE
  5
53B
  8
0
 62
     7
 10
44.598100000000002
 20
134.19900000000001
 30
0.0
 11
44.598100000000002
 21
96.527400000000014
 31
0.0
  0
LINE
  5
53C
  8
0
 62
     7
 10
38.19830000000001
 20
134.19900000000001
 30
0.0
 11
38.19830000000001
 21
96.527400000000014
 31
0.0
  0
ARC
  5
53D
  8
0
 62
     7
 10
41.398079000000003
 20
96.527361999999997
 30
0.0
 40
3.199824
 50
179.99996999999999
 51
270.00002000000001
  0
ARC
  5
53E
  8
0
 62
     7
 10
41.398165000000013
 20
96.527449000000004
 30
0.0
 40
3.199911999999999
 50
269.99847799999998
 51
359.998448
  0
LINE
  5
53F
  8
0
 62
     7
 10
47.724200000000003
 20
165.57599999999999
 30
0.0
 11
49.49819999999999
 21
90.534899999999993
 31
0.0
  0
LINE
  5
540
  8
0
 62
     7
 10
46.324599999999997
 20
165.56
 30
0.0
 11
48.098100000000002
 21
90.534899999999993
 31
0.0
  0
LINE
  5
541
  8
0
 62
     7
 10
38.598100000000002
 20
163.08199999999999
 30
0.0
 11
38.598100000000002
 21
144.14599999999999
 31
0.0
  0
LINE
  5
542
  8
0
 62
     7
 10
44.198099999999997
 20
163.08199999999999
 30
0.0
 11
44.198099999999997
 21
144.14599999999999
 31
0.0
  0
LINE
  5
543
  8
0
  6
AIGENLINE001
 62
     7
 10
44.6982
 20
199.298
 30
0.0
 11
44.6982
 21
173.584
 31
0.0
  0
TEXT
  5
544
  8
_________2
 62
     7
 10
24.5868
 20
0.707283
 30
0.0
 40
4.6583899999999989
  1
本体材質：PP
 41
0.5
  0
LINE
  5
545
  8
_________2
 62
     7
 10
205.30099999999999
 20
127.411
 30
0.0
 11
183.55000000000001
 21
127.411
 31
0.0
  0
LINE
  5
546
  8
_________2
 62
     7
 10
100.3
 20
-4.0910799999999998
 30
0.0
 11
100.3
 21
-21.071400000000001
 31
0.0
  0
LINE
  5
547
  8
_________2
 62
     7
 10
100.3
 20
275.93099999999998
 30
0.0
 11
100.3
 21
258.911
 31
0.0
  0
LINE
  5
548
  8
_________2
 62
     7
 10
17.049499999999998
 20
127.411
 30
0.0
 11
-4.70052
 21
127.411
 31
0.0
  0
LINE
  5
549
  8
_________2
 62
     7
 10
76.741
 20
29.8047
 30
0.0
 11
74.554699999999997
 21
29.8047
 31
0.0
  0
LINE
  5
54A
  8
_________2
 62
     7
 10
77.233699999999999
 20
29.8047
 30
0.0
 11
76.981499999999997
 21
29.8047
 31
0.0
  0
LINE
  5
54B
  8
_________2
 62
     7
 10
77.726299999999995
 20
29.8047
 30
0.0
 11
80.651200000000003
 21
29.8047
 31
0.0
  0
LINE
  5
54C
  8
_________2
 62
     7
 10
77.233699999999999
 20
29.8047
 30
0.0
 11
77.485500000000002
 21
29.8047
 31
0.0
  0
LINE
  5
54D
  8
_________2
 62
     7
 10
70.837100000000007
 20
29.8047
 30
0.0
 11
68.650499999999994
 21
29.8047
 31
0.0
  0
LINE
  5
54E
  8
_________2
 62
     7
 10
71.329400000000007
 20
29.8047
 30
0.0
 11
71.077600000000004
 21
29.8047
 31
0.0
  0
LINE
  5
54F
  8
_________2
 62
     7
 10
71.329400000000007
 20
30.2974
 30
0.0
 11
71.329400000000007
 21
32.484400000000001
 31
0.0
  0
LINE
  5
550
  8
_________2
 62
     7
 10
71.329400000000007
 20
29.8047
 30
0.0
 11
71.329400000000007
 21
30.056899999999999
 31
0.0
  0
LINE
  5
551
  8
_________2
 62
     7
 10
71.822100000000006
 20
29.8047
 30
0.0
 11
74.009
 21
29.8047
 31
0.0
  0
LINE
  5
552
  8
_________2
 62
     7
 10
71.329400000000007
 20
29.8047
 30
0.0
 11
71.581599999999995
 21
29.8047
 31
0.0
  0
LINE
  5
553
  8
_________2
 62
     7
 10
71.329400000000007
 20
29.312799999999999
 30
0.0
 11
71.329400000000007
 21
27.125800000000002
 31
0.0
  0
LINE
  5
554
  8
_________2
 62
     7
 10
71.329400000000007
 20
29.8047
 30
0.0
 11
71.329400000000007
 21
29.5532
 31
0.0
  0
LINE
  5
555
  8
_________2
 62
     7
 10
75.040499999999994
 20
28.5852
 30
0.0
 11
80.218500000000006
 21
27.720400000000001
 31
0.0
  0
LINE
  5
556
  8
_________2
 62
     7
 10
75.040499999999994
 20
31.0243
 30
0.0
 11
80.218500000000006
 21
31.889700000000001
 31
0.0
  0
LINE
  5
557
  8
_________2
 62
     7
 10
80.218500000000006
 20
27.720400000000001
 30
0.0
 11
80.218500000000006
 21
31.889700000000001
 31
0.0
  0
LINE
  5
558
  8
_________2
 62
     7
 10
75.040499999999994
 20
28.5852
 30
0.0
 11
75.040499999999994
 21
31.0243
 31
0.0
  0
ARC
  5
559
  8
_________2
 62
     7
 10
71.28285600000001
 20
29.757811
 30
0.0
 40
1.2673589999999999
 50
2.122214
 51
87.893958999999995
  0
ARC
  5
55A
  8
_________2
 62
     7
 10
71.375959999999992
 20
29.758213000000001
 30
0.0
 40
1.2669559999999991
 50
92.104701000000006
 51
177.89526900000001
  0
ARC
  5
55B
  8
_________2
 62
     7
 10
71.376357999999996
 20
29.851671
 30
0.0
 40
1.2673680000000001
 50
182.12203600000001
 51
267.877993
  0
ARC
  5
55C
  8
_________2
 62
     7
 10
71.282531999999989
 20
29.851998999999999
 30
0.0
 40
1.267695999999999
 50
272.12015300000002
 51
357.863674
  0
ARC
  5
55D
  8
_________2
 62
     7
 10
71.329430000000002
 20
29.804742999999998
 30
0.0
 40
2.0849849999999992
 50
0.00001
 51
89.999980000000008
  0
ARC
  5
55E
  8
_________2
 62
     7
 10
71.329603000000006
 20
29.804915000000001
 30
0.0
 40
2.084813
 50
90.004733999999999
 51
180.00474399999999
  0
ARC
  5
55F
  8
_________2
 62
     7
 10
71.409106000000008
 20
29.884775999999999
 30
0.0
 40
2.1657950000000001
 50
182.11776599999999
 51
267.89173399999999
  0
ARC
  5
560
  8
_________2
 62
     7
 10
71.249459000000002
 20
29.885429999999999
 30
0.0
 40
2.1664590000000001
 50
272.11546800000002
 51
357.86560400000002
  0
TEXT
  5
561
  8
_________2
 62
     7
 10
104.605
 20
1.6794899999999999
 30
0.0
 40
3.660169999999999
  1
図番
 41
0.5
  0
LINE
  5
562
  8
_________2
 62
     7
 10
103.55
 20
5.9087199999999989
 30
0.0
 11
183.55099999999999
 21
5.9087199999999989
 31
0.0
  0
TEXT
  5
563
  8
_________2
 62
     7
 10
104.605
 20
11.6793
 30
0.0
 40
3.660169999999999
  1
品番
 41
0.5
  0
TEXT
  5
564
  8
_________2
 62
     7
 10
104.605
 20
31.818100000000001
 30
0.0
 40
3.660169999999999
  1
名称
 41
0.5
  0
TEXT
  5
565
  8
_________2
 62
     7
 10
91.565445833333328
 20
26.821999999999999
 30
0.0
 40
4.3256500000000004
  1
mm
 41
0.5
 72
     1
 11
93.367800000000003
 21
26.821999999999999
 31
0.0
  0
TEXT
  5
566
  8
_________2
 62
     7
 10
85.643199999999993
 20
31.818100000000001
 30
0.0
 40
3.660169999999999
  1
単位
 41
0.5
  0
TEXT
  5
567
  8
_________2
 62
     7
 10
85.643199999999993
 20
19.410799999999998
 30
0.0
 40
3.660169999999999
  1
尺度
 41
0.5
  0
TEXT
  5
568
  8
_________2
 62
     7
 10
89.922426666666667
 20
13.2179
 30
0.0
 40
4.3256500000000004
  1
1 ： 5
 41
0.5
 72
     1
 11
93.959699999999998
 21
13.2179
 31
0.0
  0
TEXT
  5
569
  8
_________2
 62
     7
 10
133.84502083333331
 20
9.1078600000000005
 30
0.0
 40
4.6583899999999989
  1
VG616200S
 41
0.5
 72
     1
 11
143.55000000000001
 21
9.1078600000000005
 31
0.0
  0
TEXT
  5
56A
  8
_________2
 62
     7
 10
133.84502083333331
 20
-0.8926299999999999
 30
0.0
 40
4.6583899999999989
  1
VG616200S
 41
0.5
 72
     1
 11
143.55000000000001
 21
-0.8926299999999999
 31
0.0
  0
TEXT
  5
56B
  8
_________2
 62
     7
 10
109.179
 20
24.2257
 30
0.0
 40
4.6583899999999989
  1
バス排水金具（オーバーフロー付）
 41
0.5
  0
TEXT
  5
56C
  8
_________2
 62
     7
 10
39.078580833333341
 20
13.603
 30
0.0
 40
4.3256500000000004
  1
早川
 41
0.5
 72
     1
 11
41.313499999999998
 21
13.603
 31
0.0
  0
TEXT
  5
56D
  8
_________2
 62
     7
 10
20.43218666666667
 20
13.603
 30
0.0
 40
4.3256500000000004
  1
石原
 41
0.5
 72
     1
 11
22.7392
 21
13.603
 31
0.0
  0
TEXT
  5
56E
  8
_________2
 62
     7
 10
67.785399999999996
 20
13.2179
 30
0.0
 40
4.3256500000000004
  1
15.04.21
 41
0.5
  0
TEXT
  5
56F
  8
_________2
 62
     7
 10
66.593100000000007
 20
19.410799999999998
 30
0.0
 40
3.660169999999999
  1
日付
 41
0.5
  0
TEXT
  5
570
  8
_________2
 62
     7
 10
29.639399999999998
 20
19.410799999999998
 30
0.0
 40
3.660169999999999
  1
検図
 41
0.5
  0
TEXT
  5
571
  8
_________2
 62
     7
 10
18.021100000000001
 20
5.21143
 30
0.0
 40
3.660169999999999
  1
備考
 41
0.5
  0
TEXT
  5
572
  8
_________2
 62
     7
 10
18.021100000000001
 20
19.410799999999998
 30
0.0
 40
3.660169999999999
  1
製図
 41
0.5
  0
TEXT
  5
573
  8
_________2
 62
     7
 10
20.594830666666692
 20
27.936800000000002
 30
0.0
 40
5.3238799999999991
  1
セラトレーディング株式会社
 41
0.5
 72
     1
 11
41.180500000000002
 21
27.936800000000002
 31
0.0
  0
LINE
  5
574
  8
_________2
 62
     7
 10
183.55099999999999
 20
-4.0910799999999998
 30
0.0
 11
17.049499999999998
 21
-4.0910799999999998
 31
0.0
  0
LINE
  5
575
  8
_________2
 62
     7
 10
17.049499999999998
 20
-4.0910799999999998
 30
0.0
 11
17.049499999999998
 21
258.911
 31
0.0
  0
LINE
  5
576
  8
_________2
 62
     7
 10
17.049499999999998
 20
258.911
 30
0.0
 11
183.55099999999999
 21
258.911
 31
0.0
  0
LINE
  5
577
  8
_________2
 62
     7
 10
183.55099999999999
 20
258.911
 30
0.0
 11
183.55099999999999
 21
-4.0910799999999998
 31
0.0
  0
LINE
  5
578
  8
_________2
 62
     7
 10
65.549599999999998
 20
9.4089600000000004
 30
0.0
 11
65.549599999999998
 21
35.908799999999999
 31
0.0
  0
LINE
  5
579
  8
_________2
 62
     7
 10
84.549700000000016
 20
9.4089600000000004
 30
0.0
 11
84.549700000000016
 21
35.908799999999999
 31
0.0
  0
LINE
  5
57A
  8
_________2
 62
     7
 10
103.55
 20
-4.0910799999999998
 30
0.0
 11
103.55
 21
35.908799999999999
 31
0.0
  0
LINE
  5
57B
  8
_________2
 62
     7
 10
28.549299999999999
 20
9.4089600000000004
 30
0.0
 11
28.549299999999999
 21
23.409199999999998
 31
0.0
  0
LINE
  5
57C
  8
_________2
 62
     7
 10
17.049499999999998
 20
9.4089600000000004
 30
0.0
 11
103.55
 21
9.4089600000000004
 31
0.0
  0
LINE
  5
57D
  8
_________2
 62
     7
 10
17.049499999999998
 20
23.409199999999998
 30
0.0
 11
103.55
 21
23.409199999999998
 31
0.0
  0
LINE
  5
57E
  8
_________2
 62
     7
 10
103.55
 20
15.9085
 30
0.0
 11
183.55099999999999
 21
15.9085
 31
0.0
  0
LINE
  5
57F
  8
_________2
 62
     7
 10
17.049499999999998
 20
35.908799999999999
 30
0.0
 11
183.55099999999999
 21
35.908799999999999
 31
0.0
  0
ENDSEC
  0
EOF
