  0
SECTION
  2
HEADER
  9
$ACADVER
  1
AC1009
  9
$INSBASE
 10
0.0
 20
0.0
 30
0.0
  9
$EXTMIN
 10
-4.70052
 20
-21.071400000000001
 30
0.0
  9
$EXTMAX
 10
205.30099999999999
 20
275.93099999999993
 30
0.0
  9
$LIMMIN
 10
0.0
 20
0.0
  9
$LIMMAX
 10
12.0
 20
9.0
  9
$ORTHOMODE
 70
     0
  9
$REGENMODE
 70
     1
  9
$FILLMODE
 70
     1
  9
$QTEXTMODE
 70
     0
  9
$MIRRTEXT
 70
     1
  9
$DRAGMODE
 70
     2
  9
$LTSCALE
 40
1.0
  9
$OSMODE
 70
    37
  9
$ATTMODE
 70
     1
  9
$TEXTSIZE
 40
0.0
  9
$TRACEWID
 40
0.05
  9
$TEXTSTYLE
  7
STANDARD
  9
$CLAYER
  8
0
  9
$CELTYPE
  6
CONTINUOUS
  9
$CECOLOR
 62
   256
  9
$DIMSCALE
 40
1.0
  9
$DIMASZ
 40
0.18
  9
$DIMEXO
 40
0.0625
  9
$DIMDLI
 40
0.38
  9
$DIMRND
 40
0.0
  9
$DIMDLE
 40
0.0
  9
$DIMEXE
 40
0.18
  9
$DIMTP
 40
0.0
  9
$DIMTM
 40
0.0
  9
$DIMTXT
 40
0.18
  9
$DIMCEN
 40
0.09
  9
$DIMTSZ
 40
0.0
  9
$DIMTOL
 70
     0
  9
$DIMLIM
 70
     0
  9
$DIMTIH
 70
     1
  9
$DIMTOH
 70
     1
  9
$DIMSE1
 70
     0
  9
$DIMSE2
 70
     0
  9
$DIMTAD
 70
     0
  9
$DIMZIN
 70
     0
  9
$DIMBLK
  1

  9
$DIMASO
 70
     1
  9
$DIMSHO
 70
     1
  9
$DIMPOST
  1

  9
$DIMAPOST
  1

  9
$DIMALT
 70
     0
  9
$DIMALTD
 70
     2
  9
$DIMALTF
 40
25.399999999999999
  9
$DIMLFAC
 40
1.0
  9
$DIMTOFL
 70
     0
  9
$DIMTVP
 40
0.0
  9
$DIMTIX
 70
     0
  9
$DIMSOXD
 70
     0
  9
$DIMSAH
 70
     0
  9
$DIMBLK1
  1

  9
$DIMBLK2
  1

  9
$DIMSTYLE
  2
STANDARD
  9
$DIMCLRD
 70
     0
  9
$DIMCLRE
 70
     0
  9
$DIMCLRT
 70
     0
  9
$DIMTFAC
 40
1.0
  9
$DIMGAP
 40
0.09
  9
$LUNITS
 70
     2
  9
$LUPREC
 70
     4
  9
$SKETCHINC
 40
0.1
  9
$FILLETRAD
 40
0.0
  9
$AUNITS
 70
     0
  9
$AUPREC
 70
     0
  9
$MENU
  1
.
  9
$ELEVATION
 40
0.0
  9
$PELEVATION
 40
0.0
  9
$THICKNESS
 40
0.0
  9
$LIMCHECK
 70
     0
  9
$BLIPMODE
 70
     0
  9
$CHAMFERA
 40
0.0
  9
$CHAMFERB
 40
0.0
  9
$SKPOLY
 70
     0
  9
$TDCREATE
 40
2444972.375
  9
$TDUPDATE
 40
2454982.2792724539
  9
$TDINDWG
 40
0.0075494329
  9
$TDUSRTIMER
 40
0.0075494329
  9
$USRTIMER
 70
     1
  9
$ANGBASE
 50
0.0
  9
$ANGDIR
 70
     0
  9
$PDMODE
 70
     0
  9
$PDSIZE
 40
0.0
  9
$PLINEWID
 40
0.0
  9
$COORDS
 70
     1
  9
$SPLFRAME
 70
     0
  9
$SPLINETYPE
 70
     6
  9
$SPLINESEGS
 70
     8
  9
$ATTDIA
 70
     0
  9
$ATTREQ
 70
     1
  9
$HANDLING
 70
     1
  9
$HANDSEED
  5
201
  9
$SURFTAB1
 70
     6
  9
$SURFTAB2
 70
     6
  9
$SURFTYPE
 70
     6
  9
$SURFU
 70
     6
  9
$SURFV
 70
     6
  9
$UCSNAME
  2

  9
$UCSORG
 10
0.0
 20
0.0
 30
0.0
  9
$UCSXDIR
 10
1.0
 20
0.0
 30
0.0
  9
$UCSYDIR
 10
0.0
 20
1.0
 30
0.0
  9
$PUCSNAME
  2

  9
$PUCSORG
 10
0.0
 20
0.0
 30
0.0
  9
$PUCSXDIR
 10
1.0
 20
0.0
 30
0.0
  9
$PUCSYDIR
 10
0.0
 20
1.0
 30
0.0
  9
$USERI1
 70
     0
  9
$USERI2
 70
     0
  9
$USERI3
 70
     0
  9
$USERI4
 70
     0
  9
$USERI5
 70
     0
  9
$USERR1
 40
0.0
  9
$USERR2
 40
0.0
  9
$USERR3
 40
0.0
  9
$USERR4
 40
0.0
  9
$USERR5
 40
0.0
  9
$WORLDVIEW
 70
     1
  9
$SHADEDGE
 70
     3
  9
$SHADEDIF
 70
    70
  9
$TILEMODE
 70
     1
  9
$MAXACTVP
 70
    48
  9
$PLIMCHECK
 70
     0
  9
$PEXTMIN
 10
1.0000000000000000E+020
 20
1.0000000000000000E+020
 30
1.0000000000000000E+020
  9
$PEXTMAX
 10
-1.0000000000000000E+020
 20
-1.0000000000000000E+020
 30
-1.0000000000000000E+020
  9
$PLIMMIN
 10
0.0
 20
0.0
  9
$PLIMMAX
 10
12.0
 20
9.0
  9
$UNITMODE
 70
     0
  9
$VISRETAIN
 70
     1
  9
$PLINEGEN
 70
     0
  9
$PSLTSCALE
 70
     1
  0
ENDSEC
  0
SECTION
  2
TABLES
  0
TABLE
  2
VPORT
 70
     2
  0
VPORT
  2
*ACTIVE
 70
     0
 10
0.0
 20
0.0
 11
1.0
 21
1.0
 12
172.26556616181011
 22
131.55815609793211
 13
0.0
 23
0.0
 14
1.0
 24
1.0
 15
0.0
 25
0.0
 16
0.0
 26
0.0
 36
1.0
 17
0.0
 27
0.0
 37
0.0
 40
288.43545595248207
 41
2.2894736842105261
 42
50.0
 43
0.0
 44
0.0
 50
0.0
 51
0.0
 71
     0
 72
   100
 73
     1
 74
     1
 75
     0
 76
     0
 77
     0
 78
     0
  0
ENDTAB
  0
TABLE
  2
LTYPE
 70
     3
  0
LTYPE
  2
CONTINUOUS
 70
     0
  3
Solid line
 72
    65
 73
     0
 40
0.0
  0
LTYPE
  2
AIGENLINE001
 70
     0
  3
generate AI->DXF Converter
 72
    65
 73
     4
 40
5.8561449999999988
 49
3.5278
 49
-0.776115
 49
0.776115
 49
-0.776115
  0
ENDTAB
  0
TABLE
  2
LAYER
 70
     3
  0
LAYER
  2
0
 70
     0
 62
     7
  6
CONTINUOUS
  0
LAYER
  2
_________2
 70
     0
 62
     7
  6
CONTINUOUS
  0
ENDTAB
  0
TABLE
  2
STYLE
 70
     1
  0
STYLE
  2
STANDARD
 70
     0
 40
0.0
 41
0.0
 50
0.0
 71
     0
 42
0.0
  3
TXT
  4
EXTFONT.SHX
  0
ENDTAB
  0
TABLE
  2
VIEW
 70
     0
  0
ENDTAB
  0
TABLE
  2
UCS
 70
     0
  0
ENDTAB
  0
TABLE
  2
APPID
 70
     1
  0
APPID
  2
ACAD
 70
     0
  0
ENDTAB
  0
TABLE
  2
DIMSTYLE
 70
     1
  0
DIMSTYLE
  2
STANDARD
 70
     0
  3

  4

  5

  6

  7

 40
1.0
 41
0.18
 42
0.0625
 43
0.38
 44
0.18
 45
0.0
 46
0.0
 47
0.0
 48
0.0
140
0.18
141
0.09
142
0.0
143
25.399999999999999
144
1.0
145
0.0
146
1.0
147
0.09
 71
     0
 72
     0
 73
     1
 74
     1
 75
     0
 76
     0
 77
     0
 78
     0
170
     0
171
     2
172
     0
173
     0
174
     0
175
     0
176
     0
177
     0
178
     0
  0
ENDTAB
  0
ENDSEC
  0
SECTION
  2
BLOCKS
  0
BLOCK
  8
0
  2
$MODEL_SPACE
 70
     0
 10
0.0
 20
0.0
 30
0.0
  3
$MODEL_SPACE
  1

  0
ENDBLK
  5
1A
  8
0
  0
BLOCK
 67
     1
  8
0
  2
$PAPER_SPACE
 70
     0
 10
0.0
 20
0.0
 30
0.0
  3
$PAPER_SPACE
  1

  0
ENDBLK
  5
17
 67
     1
  8
0
  0
ENDSEC
  0
SECTION
  2
ENTITIES
  0
TEXT
  5
23
  8
0
 62
     7
 10
87.537000000000006
 20
113.87899999999991
 30
0.0
 40
3.0923400000000001
  1
パッキン
 41
0.5
  0
TEXT
  5
24
  8
0
 62
     7
 10
111.92080900000001
 20
88.937399999999997
 30
0.0
 40
3.0923400000000001
  1
G1 1/4
 41
0.5
 72
     1
 11
115.477
 21
88.937399999999997
 31
0.0
  0
TEXT
  5
25
  8
0
 62
     7
 10
144.55699999999999
 20
113.8704225
 30
0.0
 40
3.0923400000000001
  1
max.50
 50
90.0
 41
0.5
 72
     1
 11
144.55699999999999
 21
117.607
 31
0.0
  0
TEXT
  5
26
  8
0
 62
     7
 10
113.4942875
 20
203.982
 30
0.0
 40
3.0923400000000001
  1
%%c60
 41
0.5
 72
     1
 11
115.42700000000001
 21
203.982
 31
0.0
  0
ARC
  5
27
  8
0
 62
     7
 10
122.80633999999991
 20
125.2568909999999
 30
0.0
 40
2.0774430000000002
 50
272.11073599999992
 51
357.90901400000001
  0
ARC
  5
28
  8
0
 62
     7
 10
126.95844699999989
 20
128.10479099999989
 30
0.0
 40
2.0774360000000001
 50
92.110368999999992
 51
177.90440699999999
  0
LINE
  5
29
  8
0
 62
     7
 10
124.88200000000001
 20
128.18100000000001
 30
0.0
 11
124.88200000000001
 21
125.181
 31
0.0
  0
LINE
  5
2A
  8
0
 62
     7
 10
117.88199999999991
 20
122.431
 30
0.0
 11
115.63200000000001
 21
122.431
 31
0.0
  0
LINE
  5
2B
  8
0
 62
     7
 10
117.88199999999991
 20
122.431
 30
0.0
 11
118.63200000000001
 21
123.181
 31
0.0
  0
LINE
  5
2C
  8
0
 62
     7
 10
122.883
 20
123.181
 30
0.0
 11
115.63200000000001
 21
123.181
 31
0.0
  0
ARC
  5
2D
  8
0
 62
     7
 10
108.45818
 20
125.2568899999999
 30
0.0
 40
2.0774430000000002
 50
182.09098899999989
 51
267.88930099999988
  0
ARC
  5
2E
  8
0
 62
     7
 10
104.306073
 20
128.10478999999989
 30
0.0
 40
2.0774369999999989
 50
2.0955910000000002
 51
87.889593999999988
  0
LINE
  5
2F
  8
0
 62
     7
 10
106.38199999999991
 20
128.18100000000001
 30
0.0
 11
106.38199999999991
 21
125.181
 31
0.0
  0
LINE
  5
30
  8
0
 62
     7
 10
130.63200000000001
 20
130.18100000000001
 30
0.0
 11
130.63200000000001
 21
130.68100000000001
 31
0.0
  0
LINE
  5
31
  8
0
 62
     7
 10
100.63200000000001
 20
130.68100000000001
 30
0.0
 11
100.63200000000001
 21
130.18100000000001
 31
0.0
  0
LINE
  5
32
  8
0
 62
     7
 10
100.63200000000001
 20
130.68100000000001
 30
0.0
 11
130.63200000000001
 21
130.68100000000001
 31
0.0
  0
LINE
  5
33
  8
0
 62
     7
 10
113.38200000000001
 20
122.431
 30
0.0
 11
115.63200000000001
 21
122.431
 31
0.0
  0
LINE
  5
34
  8
0
 62
     7
 10
113.38200000000001
 20
122.431
 30
0.0
 11
112.63199999999991
 21
123.181
 31
0.0
  0
LINE
  5
35
  8
0
 62
     7
 10
108.38200000000001
 20
123.181
 30
0.0
 11
115.63200000000001
 21
123.181
 31
0.0
  0
LINE
  5
36
  8
0
 62
     7
 10
100.63200000000001
 20
130.18100000000001
 30
0.0
 11
130.63200000000001
 21
130.18100000000001
 31
0.0
  0
LINE
  5
37
  8
0
 62
     7
 10
146.00999999999991
 20
128.471
 30
0.0
 11
145.41800000000001
 21
130.68100000000001
 31
0.0
  0
LINE
  5
38
  8
0
 62
     7
 10
145.41800000000001
 20
130.68100000000001
 30
0.0
 11
144.8249999999999
 21
128.471
 31
0.0
  0
LINE
  5
39
  8
0
 62
     7
 10
144.8249999999999
 20
128.471
 30
0.0
 11
146.00999999999991
 21
128.471
 31
0.0
  0
LINE
  5
3A
  8
0
 62
     7
 10
144.84
 20
107.892
 30
0.0
 11
145.43199999999999
 21
105.681
 31
0.0
  0
LINE
  5
3B
  8
0
 62
     7
 10
145.43199999999999
 20
105.681
 30
0.0
 11
146.02399999999989
 21
107.892
 31
0.0
  0
LINE
  5
3C
  8
0
 62
     7
 10
146.02399999999989
 20
107.892
 30
0.0
 11
144.84
 21
107.892
 31
0.0
  0
LINE
  5
3D
  8
0
 62
     7
 10
145.42500000000001
 20
130.68100000000001
 30
0.0
 11
145.42500000000001
 21
105.681
 31
0.0
  0
LINE
  5
3E
  8
0
 62
     7
 10
146.18100000000001
 20
130.68100000000001
 30
0.0
 11
134.34999999999991
 21
130.68100000000001
 31
0.0
  0
LINE
  5
3F
  8
0
 62
     7
 10
133.49799999999991
 20
105.681
 30
0.0
 11
146.18100000000001
 21
105.681
 31
0.0
  0
LINE
  5
40
  8
0
 62
     7
 10
107.592
 20
88.957800000000006
 30
0.0
 11
105.38199999999991
 21
88.365200000000002
 31
0.0
  0
LINE
  5
41
  8
0
 62
     7
 10
105.38199999999991
 20
88.365200000000002
 30
0.0
 11
107.592
 21
87.773300000000006
 31
0.0
  0
LINE
  5
42
  8
0
 62
     7
 10
107.592
 20
87.773300000000006
 30
0.0
 11
107.592
 21
88.957800000000006
 31
0.0
  0
LINE
  5
43
  8
0
 62
     7
 10
106.328
 20
106.414
 30
0.0
 11
108.496
 21
105.681
 31
0.0
  0
LINE
  5
44
  8
0
 62
     7
 10
108.496
 20
105.681
 30
0.0
 11
106.9839999999999
 21
107.399
 31
0.0
  0
LINE
  5
45
  8
0
 62
     7
 10
106.9839999999999
 20
107.399
 30
0.0
 11
106.328
 21
106.414
 31
0.0
  0
LINE
  5
46
  8
0
 62
     7
 10
97.621000000000009
 20
112.91799999999991
 30
0.0
 11
108.492
 21
105.67400000000001
 31
0.0
  0
LINE
  5
47
  8
0
 62
     7
 10
123.67100000000001
 20
87.787800000000004
 30
0.0
 11
125.88200000000001
 21
88.380300000000005
 31
0.0
  0
LINE
  5
48
  8
0
 62
     7
 10
125.88200000000001
 20
88.380300000000005
 30
0.0
 11
123.67100000000001
 21
88.972200000000001
 31
0.0
  0
LINE
  5
49
  8
0
 62
     7
 10
123.67100000000001
 20
88.972200000000001
 30
0.0
 11
123.67100000000001
 21
87.787800000000004
 31
0.0
  0
LINE
  5
4A
  8
0
 62
     7
 10
87.249499999999983
 20
112.91799999999991
 30
0.0
 11
97.621000000000009
 21
112.91799999999991
 31
0.0
  0
LINE
  5
4B
  8
0
 62
     7
 10
105.38199999999991
 20
88.372799999999984
 30
0.0
 11
125.88200000000001
 21
88.372799999999984
 31
0.0
  0
LINE
  5
4C
  8
0
 62
     7
 10
125.88200000000001
 20
97.198499999999996
 30
0.0
 11
125.88200000000001
 21
87.600700000000003
 31
0.0
  0
LINE
  5
4D
  8
0
 62
     7
 10
105.38199999999991
 20
87.600700000000003
 30
0.0
 11
105.38199999999991
 21
97.198499999999996
 31
0.0
  0
LINE
  5
4E
  8
0
 62
     7
 10
114.13200000000001
 20
96.180800000000005
 30
0.0
 11
114.63200000000001
 21
95.680899999999994
 31
0.0
  0
LINE
  5
4F
  8
0
 62
     7
 10
117.13200000000001
 20
96.180800000000005
 30
0.0
 11
116.63200000000001
 21
95.680899999999994
 31
0.0
  0
LINE
  5
50
  8
0
 62
     7
 10
114.63200000000001
 20
95.680899999999994
 30
0.0
 11
114.63200000000001
 21
98.180700000000002
 31
0.0
  0
LINE
  5
51
  8
0
 62
     7
 10
116.63200000000001
 20
95.680899999999994
 30
0.0
 11
116.63200000000001
 21
98.180700000000002
 31
0.0
  0
LINE
  5
52
  8
0
 62
     7
 10
114.13200000000001
 20
96.180800000000005
 30
0.0
 11
117.13200000000001
 21
96.180800000000005
 31
0.0
  0
LINE
  5
53
  8
0
 62
     7
 10
114.63200000000001
 20
95.680899999999994
 30
0.0
 11
116.63200000000001
 21
95.680899999999994
 31
0.0
  0
LINE
  5
54
  8
0
 62
     7
 10
117.13200000000001
 20
96.180800000000005
 30
0.0
 11
117.13200000000001
 21
98.180700000000002
 31
0.0
  0
LINE
  5
55
  8
0
 62
     7
 10
114.13200000000001
 20
96.180800000000005
 30
0.0
 11
114.13200000000001
 21
98.180700000000002
 31
0.0
  0
LINE
  5
56
  8
0
 62
     7
 10
125.38200000000001
 20
98.180700000000002
 30
0.0
 11
125.88200000000001
 21
98.680899999999994
 31
0.0
  0
LINE
  5
57
  8
0
 62
     7
 10
105.38199999999991
 20
98.680899999999994
 30
0.0
 11
105.88200000000001
 21
98.180700000000002
 31
0.0
  0
LINE
  5
58
  8
0
 62
     7
 10
125.8829999999999
 20
98.680899999999994
 30
0.0
 11
105.38199999999991
 21
98.680899999999994
 31
0.0
  0
LINE
  5
59
  8
0
 62
     7
 10
125.38200000000001
 20
103.1809999999999
 30
0.0
 11
125.38200000000001
 21
98.180700000000002
 31
0.0
  0
LINE
  5
5A
  8
0
 62
     7
 10
105.88200000000001
 20
98.180700000000002
 30
0.0
 11
105.88200000000001
 21
103.1809999999999
 31
0.0
  0
LINE
  5
5B
  8
0
 62
     7
 10
125.38200000000001
 20
98.180700000000002
 30
0.0
 11
105.88200000000001
 21
98.180700000000002
 31
0.0
  0
LINE
  5
5C
  8
0
 62
     7
 10
125.88200000000001
 20
103.1809999999999
 30
0.0
 11
125.88200000000001
 21
98.680899999999994
 31
0.0
  0
LINE
  5
5D
  8
0
 62
     7
 10
105.38199999999991
 20
98.680899999999994
 30
0.0
 11
105.38199999999991
 21
103.1809999999999
 31
0.0
  0
LINE
  5
5E
  8
0
 62
     7
 10
131.88200000000001
 20
104.681
 30
0.0
 11
131.88200000000001
 21
103.9309999999999
 31
0.0
  0
LINE
  5
5F
  8
0
 62
     7
 10
131.13200000000001
 20
103.1809999999999
 30
0.0
 11
100.13199999999991
 21
103.1809999999999
 31
0.0
  0
ARC
  5
60
  8
0
 62
     7
 10
131.10324199999991
 20
103.9598779999999
 30
0.0
 40
0.7794979999999999
 50
272.12808599999988
 51
357.84559899999999
  0
LINE
  5
61
  8
0
 62
     7
 10
99.382000000000005
 20
104.681
 30
0.0
 11
99.382000000000005
 21
103.9309999999999
 31
0.0
  0
ARC
  5
62
  8
0
 62
     7
 10
100.16061999999989
 20
103.9595639999999
 30
0.0
 40
0.7791730000000001
 50
182.13219099999989
 51
267.89416299999999
  0
LINE
  5
63
  8
0
 62
     7
 10
114.63200000000001
 20
105.681
 30
0.0
 11
114.63200000000001
 21
122.431
 31
0.0
  0
LINE
  5
64
  8
0
 62
     7
 10
116.63200000000001
 20
105.681
 30
0.0
 11
116.63200000000001
 21
122.431
 31
0.0
  0
LINE
  5
65
  8
0
 62
     7
 10
99.132000000000005
 20
104.681
 30
0.0
 11
99.132000000000005
 21
105.681
 31
0.0
  0
LINE
  5
66
  8
0
 62
     7
 10
132.13200000000001
 20
104.681
 30
0.0
 11
132.13200000000001
 21
105.681
 31
0.0
  0
LINE
  5
67
  8
0
 62
     7
 10
132.13200000000001
 20
104.681
 30
0.0
 11
99.132000000000005
 21
104.681
 31
0.0
  0
LINE
  5
68
  8
0
 62
     7
 10
132.13200000000001
 20
105.681
 30
0.0
 11
99.132000000000005
 21
105.681
 31
0.0
  0
LINE
  5
69
  8
0
 62
     7
 10
114.13200000000001
 20
105.681
 30
0.0
 11
114.13200000000001
 21
122.431
 31
0.0
  0
LINE
  5
6A
  8
0
 62
     7
 10
117.13200000000001
 20
105.681
 30
0.0
 11
117.13200000000001
 21
122.431
 31
0.0
  0
LINE
  5
6B
  8
0
  6
AIGENLINE001
 62
     7
 10
115.63200000000001
 20
93.498400000000004
 30
0.0
 11
115.63200000000001
 21
132.29300000000001
 31
0.0
  0
LINE
  5
6C
  8
0
 62
     7
 10
102.8429999999999
 20
203.3129999999999
 30
0.0
 11
100.63200000000001
 21
202.72
 31
0.0
  0
LINE
  5
6D
  8
0
 62
     7
 10
100.63200000000001
 20
202.72
 30
0.0
 11
102.8429999999999
 21
202.1279999999999
 31
0.0
  0
LINE
  5
6E
  8
0
 62
     7
 10
102.8429999999999
 20
202.1279999999999
 30
0.0
 11
102.8429999999999
 21
203.3129999999999
 31
0.0
  0
LINE
  5
6F
  8
0
 62
     7
 10
128.42099999999991
 20
202.143
 30
0.0
 11
130.63200000000001
 21
202.73400000000001
 31
0.0
  0
LINE
  5
70
  8
0
 62
     7
 10
130.63200000000001
 20
202.73400000000001
 30
0.0
 11
128.42099999999991
 21
203.32699999999991
 31
0.0
  0
LINE
  5
71
  8
0
 62
     7
 10
128.42099999999991
 20
203.32699999999991
 30
0.0
 11
128.42099999999991
 21
202.143
 31
0.0
  0
LINE
  5
72
  8
0
 62
     7
 10
100.63200000000001
 20
202.72799999999989
 30
0.0
 11
130.63200000000001
 21
202.72799999999989
 31
0.0
  0
LINE
  5
73
  8
0
 62
     7
 10
130.63200000000001
 20
185.7649999999999
 30
0.0
 11
130.63200000000001
 21
203.44
 31
0.0
  0
LINE
  5
74
  8
0
 62
     7
 10
100.63200000000001
 20
186.80199999999999
 30
0.0
 11
100.63200000000001
 21
203.44
 31
0.0
  0
LINE
  5
8D
  8
0
 62
     7
 10
116.00700000000001
 20
184.94799999999989
 30
0.0
 11
116.00700000000001
 21
179.499
 31
0.0
  0
LINE
  5
8E
  8
0
 62
     7
 10
115.25700000000001
 20
184.94799999999989
 30
0.0
 11
115.25700000000001
 21
179.499
 31
0.0
  0
LINE
  5
97
  8
0
  6
AIGENLINE001
 62
     7
 10
133.10599999999991
 20
182.22399999999999
 30
0.0
 11
98.438900000000004
 21
182.22399999999999
 31
0.0
  0
LINE
  5
98
  8
0
  6
AIGENLINE001
 62
     7
 10
115.63200000000001
 20
199.697
 30
0.0
 11
115.63200000000001
 21
165.09499999999991
 31
0.0
  0
LINE
  5
9D
  8
0
  6
AIGENLINE001
 62
     7
 10
62.958100000000002
 20
154.7229999999999
 30
0.0
 11
62.958100000000002
 21
139.17599999999999
 31
0.0
  0
LINE
  5
9E
  8
0
  6
AIGENLINE001
 62
     7
 10
75.731300000000005
 20
182.22399999999999
 30
0.0
 11
50.68419999999999
 21
182.22399999999999
 31
0.0
  0
LINE
  5
9F
  8
0
  6
AIGENLINE001
 62
     7
 10
62.958100000000002
 20
195.1999999999999
 30
0.0
 11
62.958100000000002
 21
169.63399999999999
 31
0.0
  0
LINE
  5
A7
  8
0
 62
     7
 10
53.458199999999991
 20
147.53100000000001
 30
0.0
 11
53.958100000000002
 21
142.53100000000001
 31
0.0
  0
LINE
  5
A8
  8
0
 62
     7
 10
72.458100000000002
 20
147.53100000000001
 30
0.0
 11
71.958200000000005
 21
142.53100000000001
 31
0.0
  0
LINE
  5
A9
  8
0
 62
     7
 10
71.958200000000005
 20
142.53100000000001
 30
0.0
 11
53.958100000000002
 21
142.53100000000001
 31
0.0
  0
LINE
  5
AA
  8
0
 62
     7
 10
72.458100000000002
 20
147.53100000000001
 30
0.0
 11
53.458199999999991
 21
147.53100000000001
 31
0.0
  0
LINE
  5
AB
  8
0
 62
     7
 10
66.652699999999996
 20
147.53100000000001
 30
0.0
 11
66.001599999999996
 21
148.83799999999999
 31
0.0
  0
LINE
  5
AC
  8
0
 62
     7
 10
66.001599999999996
 20
148.83799999999999
 30
0.0
 11
65.350399999999993
 21
150.14500000000001
 31
0.0
  0
ARC
  5
AD
  8
0
 62
     7
 10
62.955016999999998
 20
150.37508600000001
 30
0.0
 40
0.548107
 50
89.601555000000005
 51
105.7905269999999
  0
ARC
  5
AE
  8
0
 62
     7
 10
62.909793999999991
 20
150.65195800000001
 30
0.0
 40
0.271251
 50
112.528638
 51
134.48045300000001
  0
ARC
  5
AF
  8
0
 62
     7
 10
48.872548999999999
 20
164.587254
 30
0.0
 40
19.508476999999989
 50
314.91666800000002
 51
315.218953
  0
ARC
  5
B0
  8
0
 62
     7
 10
62.835211999999999
 20
150.5862139999999
 30
0.0
 40
0.264871
 50
135.26798299999999
 51
157.67104499999999
  0
ARC
  5
B1
  8
0
 62
     7
 10
62.833331999999992
 20
150.5844699999999
 30
0.0
 40
0.263806
 50
157.165448
 51
179.68866
  0
LINE
  5
B2
  8
0
 62
     7
 10
62.569499999999991
 20
150.58600000000001
 30
0.0
 11
62.569499999999991
 21
150.483
 31
0.0
  0
ARC
  5
B3
  8
0
 62
     7
 10
62.828443999999998
 20
150.48298199999991
 30
0.0
 40
0.258913
 50
180.0574409999999
 51
203.05008199999989
  0
ARC
  5
B4
  8
0
 62
     7
 10
62.840975999999991
 20
150.48567700000001
 30
0.0
 40
0.271511
 50
202.53793799999991
 51
224.41722799999991
  0
ARC
  5
B5
  8
0
 62
     7
 10
54.255822999999999
 20
141.851575
 30
0.0
 40
11.904413
 50
44.684502999999992
 51
45.179876
  0
ARC
  5
B6
  8
0
 62
     7
 10
62.905315000000002
 20
150.40955700000001
 30
0.0
 40
0.26329
 50
225.18333399999989
 51
247.80757500000001
  0
ARC
  5
B7
  8
0
 62
     7
 10
62.907674999999998
 20
150.40833000000001
 30
0.0
 40
0.263059
 50
247.23078100000001
 51
269.811128
  0
LINE
  5
B8
  8
0
 62
     7
 10
62.906799999999997
 20
150.14500000000001
 30
0.0
 11
62.958500000000001
 21
150.14500000000001
 31
0.0
  0
LINE
  5
B9
  8
0
 62
     7
 10
62.958500000000001
 20
150.14500000000001
 30
0.0
 11
62.958799999999997
 21
150.14500000000001
 31
0.0
  0
LINE
  5
BA
  8
0
 62
     7
 10
62.958799999999997
 20
150.14500000000001
 30
0.0
 11
65.314899999999994
 21
150.14500000000001
 31
0.0
  0
ARC
  5
BB
  8
0
 62
     7
 10
66.493174999999994
 20
-29.45096599999999
 30
0.0
 40
179.60010399999999
 50
89.624110000000016
 51
90.375870000000006
  0
LINE
  5
BC
  8
0
 62
     7
 10
67.671400000000006
 20
150.14500000000001
 30
0.0
 11
67.722700000000003
 21
150.14500000000001
 31
0.0
  0
ARC
  5
BD
  8
0
 62
     7
 10
67.720251000000005
 20
150.416302
 30
0.0
 40
0.27104
 50
270.525531
 51
292.43259999999992
  0
ARC
  5
BE
  8
0
 62
     7
 10
67.723513999999994
 20
150.41063799999989
 30
0.0
 40
0.264562
 50
292.24754499999989
 51
314.76158599999991
  0
ARC
  5
BF
  8
0
 62
     7
 10
77.311464000000001
 20
140.87194099999991
 30
0.0
 40
13.260071999999999
 50
134.70945
 51
135.15522999999999
  0
ARC
  5
C0
  8
0
 62
     7
 10
67.795488000000006
 20
150.48132899999999
 30
0.0
 40
0.263776
 50
315.25789099999997
 51
337.78698199999991
  0
ARC
  5
C1
  8
0
 62
     7
 10
67.794013000000007
 20
150.48450099999991
 30
0.0
 40
0.266352
 50
337.275195
 51
359.617322
  0
LINE
  5
C2
  8
0
 62
     7
 10
68.060400000000001
 20
150.483
 30
0.0
 11
68.060400000000001
 21
150.58600000000001
 31
0.0
  0
ARC
  5
C3
  8
0
 62
     7
 10
67.802847999999997
 20
150.58575799999991
 30
0.0
 40
0.257511
 50
0.032303
 51
23.11355
  0
ARC
  5
C4
  8
0
 62
     7
 10
67.788406000000009
 20
150.58205899999999
 30
0.0
 40
0.272255
 50
22.63648899999999
 51
44.424442999999997
  0
ARC
  5
C5
  8
0
 62
     7
 10
80.578742999999989
 20
163.47134199999991
 30
0.0
 40
17.886140000000001
 50
224.9024189999999
 51
225.23290199999991
  0
ARC
  5
C6
  8
0
 62
     7
 10
67.723321999999996
 20
150.65735399999991
 30
0.0
 40
0.264902
 50
45.253040000000013
 51
67.737829000000005
  0
ARC
  5
C7
  8
0
 62
     7
 10
67.720815999999985
 20
150.6569969999999
 30
0.0
 40
0.26619
 50
67.267649000000006
 51
89.586478999999997
  0
LINE
  5
C8
  8
0
 62
     7
 10
67.722700000000003
 20
150.923
 30
0.0
 11
67.671400000000006
 21
150.923
 31
0.0
  0
ARC
  5
C9
  8
0
 62
     7
 10
66.493174999999994
 20
-29.299237999999999
 30
0.0
 40
180.22626999999989
 50
89.625415999999987
 51
90.374564000000007
  0
ARC
  5
CA
  8
0
 62
     7
 10
64.136887000000002
 20
-27.259765000000002
 30
0.0
 40
178.18683999999999
 50
89.621183999999985
 51
90.37879599999998
  0
ARC
  5
CB
  8
0
 62
     7
 10
-4311.393
 20
2326.2649999999999
 30
0.0
 40
4883.598
 50
333.50414999999992
 51
333.52945599999993
  0
LINE
  5
CC
  8
0
 62
     7
 10
60.2258
 20
149.46100000000001
 30
0.0
 11
61.1877
 21
151.39199999999991
 31
0.0
  0
ARC
  5
CD
  8
0
 62
     7
 10
-11.049396
 20
187.46897100000001
 30
0.0
 40
80.744911000000016
 50
333.46137700000003
 51
333.61388799999997
  0
ARC
  5
CE
  8
0
 62
     7
 10
62.472904
 20
150.990115
 30
0.0
 40
1.3296680000000001
 50
134.84059999999991
 51
153.44891200000001
  0
ARC
  5
CF
  8
0
 62
     7
 10
62.492232999999999
 20
150.97625500000001
 30
0.0
 40
1.353130999999999
 50
116.730233
 51
135.0070959999999
  0
ARC
  5
D0
  8
0
 62
     7
 10
-76.667631
 20
430.71906300000001
 30
0.0
 40
311.09129100000001
 50
296.44712599999991
 51
296.53503499999988
  0
ARC
  5
D1
  8
0
 62
     7
 10
62.901710999999999
 20
151.208789
 30
0.0
 40
1.3276520000000001
 50
93.633198999999976
 51
116.42831200000001
  0
ARC
  5
D2
  8
0
 62
     7
 10
62.917954999999999
 20
151.20951599999989
 30
0.0
 40
1.3280549999999991
 50
71.555358999999996
 51
94.334620000000015
  0
ARC
  5
D3
  8
0
 62
     7
 10
258.54681099999988
 20
734.04331000000002
 30
0.0
 40
613.46124499999985
 50
251.44538600000001
 51
251.49438900000001
  0
ARC
  5
D4
  8
0
 62
     7
 10
63.412651000000011
 20
151.04577399999991
 30
0.0
 40
1.326092
 50
48.596171000000012
 51
71.400402999999983
  0
ARC
  5
D5
  8
0
 62
     7
 10
63.393473
 20
151.00918200000001
 30
0.0
 40
1.3662570000000001
 50
26.87748599999999
 51
49.007818999999998
  0
ARC
  5
D6
  8
0
 62
     7
 10
155.8994669999999
 20
197.02343400000001
 30
0.0
 40
101.952078
 50
206.44087400000001
 51
206.58833000000001
  0
ARC
  5
D7
  8
0
 62
     7
 10
646.58572699999979
 20
441.10517299999998
 30
0.0
 40
649.99278300000003
 50
206.46926599999989
 51
206.49235400000001
  0
ARC
  5
D8
  8
0
 62
     7
 10
-335.44340299999999
 20
-48.398136999999998
 30
0.0
 40
447.27414199999998
 50
26.464013999999999
 51
26.497565999999988
  0
LINE
  5
D9
  8
0
 62
     7
 10
63.347099999999998
 20
183.779
 30
0.0
 11
63.347099999999998
 21
183.851
 31
0.0
  0
LINE
  5
DA
  8
0
 62
     7
 10
63.347099999999998
 20
183.851
 30
0.0
 11
63.347099999999998
 21
183.923
 31
0.0
  0
LINE
  5
DB
  8
0
 62
     7
 10
63.347099999999998
 20
183.923
 30
0.0
 11
63.347099999999998
 21
183.95799999999991
 31
0.0
  0
ARC
  5
DC
  8
0
 62
     7
 10
63.615022000000003
 20
183.95878300000001
 30
0.0
 40
0.267929
 50
165.14243200000001
 51
180.11663399999989
  0
ARC
  5
DD
  8
0
 62
     7
 10
63.623206000000003
 20
183.9588
 30
0.0
 40
0.275843
 50
151.02523299999999
 51
165.581692
  0
ARC
  5
DE
  8
0
 62
     7
 10
68.652005000000003
 20
181.23126099999999
 30
0.0
 40
5.9966970000000002
 50
150.64481599999991
 51
151.50229899999999
  0
ARC
  5
DF
  8
0
 62
     7
 10
63.668781000000003
 20
184.03721399999989
 30
0.0
 40
0.277805
 50
128.47910200000001
 51
151.217477
  0
ARC
  5
E0
  8
0
 62
     7
 10
63.674448999999989
 20
184.03165200000001
 30
0.0
 40
0.285688
 50
106.548884
 51
128.67469099999991
  0
LINE
  5
E1
  8
0
 62
     7
 10
63.5931
 20
184.3059999999999
 30
0.0
 11
63.698799999999999
 21
184.3359999999999
 31
0.0
  0
LINE
  5
E2
  8
0
 62
     7
 10
63.698799999999999
 20
184.3359999999999
 30
0.0
 11
63.808100000000003
 21
184.34499999999991
 31
0.0
  0
ARC
  5
E3
  8
0
 62
     7
 10
63.777831999999989
 20
184.06556399999991
 30
0.0
 40
0.280846
 50
61.361210999999997
 51
83.823084999999978
  0
ARC
  5
E4
  8
0
 62
     7
 10
75.292924999999997
 20
205.08177699999999
 30
0.0
 40
23.683264000000001
 50
241.28007600000001
 51
241.41304400000001
  0
ARC
  5
E5
  8
0
 62
     7
 10
1689.773999999999
 20
3132.194
 30
0.0
 40
3366.5160299999989
 50
241.12264599999989
 51
241.1530009999999
  0
LINE
  5
E6
  8
0
 62
     7
 10
65.5227
 20
183.42500000000001
 30
0.0
 11
67.084999999999994
 21
182.56399999999999
 31
0.0
  0
ARC
  5
E7
  8
0
 62
     7
 10
70.734498999999985
 20
189.11629999999991
 30
0.0
 40
7.500227999999999
 50
240.88404199999999
 51
241.1638219999999
  0
ARC
  5
E8
  8
0
 62
     7
 10
66.983820999999992
 20
182.3066509999999
 30
0.0
 40
0.274022
 50
45.467131000000002
 51
60.900356999999993
  0
ARC
  5
E9
  8
0
 62
     7
 10
66.992389000000003
 20
182.31785500000001
 30
0.0
 40
0.260031
 50
28.873721
 51
45.081463999999997
  0
ARC
  5
EA
  8
0
 62
     7
 10
76.326065999999983
 20
187.422529
 30
0.0
 40
10.378355000000001
 50
208.66968299999999
 51
209.15747399999989
  0
ARC
  5
EB
  8
0
 62
     7
 10
67.032556
 20
182.24033899999989
 30
0.0
 40
0.262352
 50
5.9903319999999987
 51
28.637706999999999
  0
ARC
  5
EC
  8
0
 62
     7
 10
67.025751
 20
182.23848499999991
 30
0.0
 40
0.269316
 50
344.17752799999988
 51
6.2315449999999979
  0
ARC
  5
ED
  8
0
 62
     7
 10
131.67580599999991
 20
163.45729099999991
 30
0.0
 40
67.053515000000004
 50
163.79960099999991
 51
163.88740799999991
  0
ARC
  5
EE
  8
0
 62
     7
 10
67.001778999999985
 20
182.14163099999999
 30
0.0
 40
0.26539
 50
321.12208900000002
 51
343.52135299999992
  0
ARC
  5
EF
  8
0
 62
     7
 10
67.002927
 20
182.136876
 30
0.0
 40
0.261528
 50
299.11486000000002
 51
321.775218
  0
LINE
  5
F0
  8
0
 62
     7
 10
67.130200000000002
 20
181.9079999999999
 30
0.0
 11
67.084999999999994
 21
181.88399999999999
 31
0.0
  0
ARC
  5
F1
  8
0
 62
     7
 10
-159.973219
 20
592.08417699999995
 30
0.0
 40
468.84948300000002
 50
298.7478559999999
 51
298.96585299999992
  0
ARC
  5
F2
  8
0
 62
     7
 10
1596.4079999999999
 20
-2598.3490000000002
 30
0.0
 40
3173.0929999999998
 50
118.846073
 51
118.87827899999991
  0
ARC
  5
F3
  8
0
 62
     7
 10
60.541989999999998
 20
186.39885599999991
 30
0.0
 40
7.112461999999999
 50
298.44726200000002
 51
298.72855600000003
  0
ARC
  5
F4
  8
0
 62
     7
 10
63.798914000000003
 20
180.38321099999999
 30
0.0
 40
0.271742
 50
284.12725899999992
 51
298.84364299999999
  0
ARC
  5
F5
  8
0
 62
     7
 10
63.795108999999989
 20
180.39519799999991
 30
0.0
 40
0.284296
 50
270.10855299999992
 51
284.281116
  0
LINE
  5
F6
  8
0
 62
     7
 10
63.7956
 20
180.1109999999999
 30
0.0
 11
63.706099999999999
 21
180.1109999999999
 31
0.0
  0
ARC
  5
F7
  8
0
 62
     7
 10
63.706278000000012
 20
180.38892300000001
 30
0.0
 40
0.27802
 50
247.21028199999989
 51
269.95806099999987
  0
ARC
  5
F8
  8
0
 62
     7
 10
63.704476
 20
180.39108999999991
 30
0.0
 40
0.279331
 50
225.0963669999999
 51
247.7233359999999
  0
ARC
  5
F9
  8
0
 62
     7
 10
72.733801
 20
189.5386179999999
 30
0.0
 40
13.13257499999999
 50
224.88738799999999
 51
225.36672499999989
  0
ARC
  5
FA
  8
0
 62
     7
 10
63.623052999999999
 20
180.4655239999999
 30
0.0
 40
0.274633
 50
202.21098699999999
 51
225.1691799999999
  0
ARC
  5
FB
  8
0
 62
     7
 10
63.633372000000001
 20
180.4710629999999
 30
0.0
 40
0.286283
 50
180.3394349999999
 51
202.45670699999999
  0
LINE
  5
FC
  8
0
 62
     7
 10
63.347099999999998
 20
180.46899999999999
 30
0.0
 11
63.347099999999998
 21
180.52399999999989
 31
0.0
  0
LINE
  5
FD
  8
0
 62
     7
 10
63.347099999999998
 20
180.52399999999989
 30
0.0
 11
63.347099999999998
 21
180.59599999999989
 31
0.0
  0
LINE
  5
FE
  8
0
 62
     7
 10
63.347099999999998
 20
180.59599999999989
 30
0.0
 11
63.347099999999998
 21
180.66800000000001
 31
0.0
  0
LINE
  5
FF
  8
0
 62
     7
 10
62.569499999999991
 20
183.779
 30
0.0
 11
62.569499999999991
 21
183.851
 31
0.0
  0
LINE
  5
100
  8
0
 62
     7
 10
62.569499999999991
 20
183.851
 30
0.0
 11
62.569499999999991
 21
183.923
 31
0.0
  0
LINE
  5
101
  8
0
 62
     7
 10
62.569499999999991
 20
183.923
 30
0.0
 11
62.569499999999991
 21
184.024
 31
0.0
  0
ARC
  5
102
  8
0
 62
     7
 10
63.363489000000001
 20
184.02358699999999
 30
0.0
 40
0.7939580000000001
 50
165.44117900000001
 51
179.9922
  0
ARC
  5
103
  8
0
 62
     7
 10
63.367738000000003
 20
184.02541099999999
 30
0.0
 40
0.7976180000000001
 50
151.15320500000001
 51
165.64473699999999
  0
ARC
  5
104
  8
0
 62
     7
 10
-9.2253229999999995
 20
224.17082500000001
 30
0.0
 40
82.156629000000009
 50
331.05559399999993
 51
331.23582099999987
  0
ARC
  5
105
  8
0
 62
     7
 10
63.488180000000007
 20
184.25412600000001
 30
0.0
 40
0.7927330000000001
 50
128.185666
 51
151.154315
  0
ARC
  5
106
  8
0
 62
     7
 10
63.51314
 20
184.23457400000001
 30
0.0
 40
0.8235649999999999
 50
106.60072099999989
 51
128.70965899999999
  0
ARC
  5
107
  8
0
 62
     7
 10
92.311204000000004
 20
85.284640999999993
 30
0.0
 40
103.8789589999999
 50
106.05560800000001
 51
106.22988700000001
  0
ARC
  5
108
  8
0
 62
     7
 10
63.802079999999997
 20
184.34692599999991
 30
0.0
 40
0.7959510000000001
 50
83.230669999999989
 51
106.0992089999999
  0
ARC
  5
109
  8
0
 62
     7
 10
63.807254999999998
 20
184.32571999999999
 30
0.0
 40
0.816435
 50
61.458114999999992
 51
83.766719999999992
  0
ARC
  5
10A
  8
0
 62
     7
 10
135.92747700000001
 20
315.3563319999999
 30
0.0
 40
148.75077599999989
 50
241.16972599999991
 51
241.23060000000001
  0
ARC
  5
10B
  8
0
 62
     7
 10
382.7868289999999
 20
760.89314400000001
 30
0.0
 40
658.10499900000002
 50
241.06018399999991
 51
241.215464
  0
LINE
  5
10C
  8
0
 62
     7
 10
65.897900000000007
 20
184.10599999999991
 30
0.0
 11
67.4602
 21
183.245
 31
0.0
  0
ARC
  5
10D
  8
0
 62
     7
 10
98.490656000000016
 20
239.3674649999999
 30
0.0
 40
64.129618999999991
 50
241.06150999999991
 51
241.159943
  0
ARC
  5
10E
  8
0
 62
     7
 10
67.179608000000002
 20
182.50680500000001
 30
0.0
 40
0.7819850000000002
 50
44.94637199999999
 51
61.170715999999999
  0
ARC
  5
10F
  8
0
 62
     7
 10
67.180727000000005
 20
182.5050939999999
 30
0.0
 40
0.782404
 50
28.897649000000001
 51
45.092884999999988
  0
ARC
  5
110
  8
0
 62
     7
 10
102.36385
 20
201.7212429999999
 30
0.0
 40
39.30641099999999
 50
208.63720499999991
 51
209.02356700000001
  0
ARC
  5
111
  8
0
 62
     7
 10
67.306930000000008
 20
182.27407400000001
 30
0.0
 40
0.7832460000000001
 50
6.0229869999999996
 51
28.765122999999999
  0
ARC
  5
112
  8
0
 62
     7
 10
67.279431000000002
 20
182.26708300000001
 30
0.0
 40
0.8113369999999999
 50
344.3535
 51
6.3101849999999988
  0
ARC
  5
113
  8
0
 62
     7
 10
160.43978899999991
 20
155.12610000000001
 30
0.0
 40
96.222131000000005
 50
163.75220200000001
 51
163.9365169999999
  0
ARC
  5
114
  8
0
 62
     7
 10
67.225047000000004
 20
181.96826299999989
 30
0.0
 40
0.780395
 50
321.00871699999988
 51
343.831459
  0
ARC
  5
115
  8
0
 62
     7
 10
67.205578000000003
 20
181.97672600000001
 30
0.0
 40
0.800873
 50
299.14437900000001
 51
321.41453300000001
  0
ARC
  5
116
  8
0
 62
     7
 10
3.5098949999999989
 20
297.44818500000002
 30
0.0
 40
132.67503899999991
 50
298.81658399999992
 51
298.88333899999998
  0
ARC
  5
117
  8
0
 62
     7
 10
775.21730100000002
 20
-1104.7729999999999
 30
0.0
 40
1467.874
 50
118.8268639999999
 51
118.896497
  0
LINE
  5
118
  8
0
 62
     7
 10
65.897900000000007
 20
180.34200000000001
 30
0.0
 11
64.335800000000006
 21
179.48099999999999
 31
0.0
  0
ARC
  5
119
  8
0
 62
     7
 10
70.033529999999999
 20
168.994517
 30
0.0
 40
11.934067999999989
 50
118.517702
 51
119.0007089999999
  0
ARC
  5
11A
  8
0
 62
     7
 10
63.859341000000001
 20
180.13871299999991
 30
0.0
 40
0.806177
 50
284.48023699999999
 51
298.794151
  0
ARC
  5
11B
  8
0
 62
     7
 10
63.860239999999997
 20
180.135232
 30
0.0
 40
0.8025830000000001
 50
270.08638400000001
 51
284.48021699999993
  0
LINE
  5
11C
  8
0
 62
     7
 10
63.86140000000001
 20
179.333
 30
0.0
 11
63.603099999999998
 21
179.333
 31
0.0
  0
ARC
  5
11D
  8
0
 62
     7
 10
63.603357000000003
 20
180.12835499999991
 30
0.0
 40
0.795705
 50
247.07036600000001
 51
269.97906299999988
  0
ARC
  5
11E
  8
0
 62
     7
 10
63.611819999999987
 20
180.160493
 30
0.0
 40
0.8286129999999999
 50
225.41327899999999
 51
247.39719500000001
  0
LINE
  5
11F
  8
0
 62
     7
 10
63.030099999999997
 20
179.56999999999999
 30
0.0
 11
62.806899999999992
 21
179.79400000000001
 31
0.0
  0
ARC
  5
120
  8
0
 62
     7
 10
63.373220000000003
 20
180.359182
 30
0.0
 40
0.8003709999999999
 50
202.209845
 51
224.96225799999999
  0
ARC
  5
121
  8
0
 62
     7
 10
63.399532999999998
 20
180.37318899999991
 30
0.0
 40
0.8300319999999999
 50
180.483428
 51
202.418387
  0
LINE
  5
122
  8
0
 62
     7
 10
62.569499999999991
 20
180.3659999999999
 30
0.0
 11
62.569499999999991
 21
180.52399999999989
 31
0.0
  0
LINE
  5
123
  8
0
 62
     7
 10
62.569499999999991
 20
180.52399999999989
 30
0.0
 11
62.569499999999991
 21
180.59599999999989
 31
0.0
  0
LINE
  5
124
  8
0
 62
     7
 10
62.569499999999991
 20
180.59599999999989
 30
0.0
 11
62.569499999999991
 21
180.66800000000001
 31
0.0
  0
ARC
  5
125
  8
0
 62
     7
 10
63.86420600000001
 20
-22.58215499999999
 30
0.0
 40
203.252668
 50
89.713885000000005
 51
90.286094999999989
  0
ARC
  5
126
  8
0
 62
     7
 10
61.834342999999997
 20
-21.169831999999989
 30
0.0
 40
201.84036199999991
 50
89.711883999999998
 51
90.288096999999979
  0
ARC
  5
127
  8
0
 62
     7
 10
60.716230000000003
 20
-20.472505000000002
 30
0.0
 40
201.14050900000001
 50
89.970597999999995
 51
90.029381999999998
  0
ARC
  5
128
  8
0
 62
     7
 10
60.614010999999998
 20
181.70755500000001
 30
0.0
 40
1.0395769999999991
 50
247.06708099999989
 51
269.94697000000002
  0
ARC
  5
129
  8
0
 62
     7
 10
60.623064999999997
 20
181.74652
 30
0.0
 40
1.0790120000000001
 50
225.40183300000001
 51
247.43051099999991
  0
ARC
  5
12A
  8
0
 62
     7
 10
-203.950501
 20
-82.701773999999986
 30
0.0
 40
372.99597199999999
 50
44.985225999999997
 51
45.048596999999987
  0
ARC
  5
12B
  8
0
 62
     7
 10
60.307678000000003
 20
182.00352000000001
 30
0.0
 40
1.037820999999999
 50
202.07475099999999
 51
224.98670199999989
  0
ARC
  5
12C
  8
0
 62
     7
 10
60.338365000000003
 20
182.02523099999999
 30
0.0
 40
1.0744530000000001
 50
180.4159829999999
 51
202.53263799999999
  0
LINE
  5
12D
  8
0
 62
     7
 10
59.2639
 20
182.017
 30
0.0
 11
59.2639
 21
182.43000000000001
 31
0.0
  0
ARC
  5
12E
  8
0
 62
     7
 10
60.304650000000002
 20
182.42919999999989
 30
0.0
 40
1.0407090000000001
 50
157.10410300000001
 51
179.9663139999999
  0
ARC
  5
12F
  8
0
 62
     7
 10
60.347046999999989
 20
182.41835900000001
 30
0.0
 40
1.084004
 50
135.51690099999999
 51
157.44808599999999
  0
ARC
  5
130
  8
0
 62
     7
 10
-14.65047699999999
 20
257.69385399999987
 30
0.0
 40
105.1753139999999
 50
314.8876009999999
 51
315.1124089999999
  0
ARC
  5
131
  8
0
 62
     7
 10
60.601907999999987
 20
182.7318159999999
 30
0.0
 40
1.0425260000000001
 50
112.144368
 51
134.94348199999999
  0
ARC
  5
132
  8
0
 62
     7
 10
60.621107999999992
 20
182.70060199999989
 30
0.0
 40
1.0786919999999991
 50
90.428089
 51
112.46403099999991
  0
LINE
  5
133
  8
0
 62
     7
 10
60.613
 20
183.779
 30
0.0
 11
60.819400000000002
 21
183.779
 31
0.0
  0
LINE
  5
134
  8
0
 62
     7
 10
60.819400000000002
 20
183.779
 30
0.0
 11
62.849299999999999
 21
183.779
 31
0.0
  0
ARC
  5
135
  8
0
 62
     7
 10
63.86420600000001
 20
-22.200182000000002
 30
0.0
 40
205.98194599999991
 50
89.717675999999983
 51
90.282303999999996
  0
LINE
  5
136
  8
_________2
 62
     7
 10
205.30099999999999
 20
127.411
 30
0.0
 11
183.55000000000001
 21
127.411
 31
0.0
  0
LINE
  5
137
  8
_________2
 62
     7
 10
100.2999999999999
 20
-4.0910799999999998
 30
0.0
 11
100.2999999999999
 21
-21.071400000000001
 31
0.0
  0
LINE
  5
138
  8
_________2
 62
     7
 10
100.2999999999999
 20
275.93099999999993
 30
0.0
 11
100.2999999999999
 21
258.911
 31
0.0
  0
LINE
  5
139
  8
_________2
 62
     7
 10
17.049499999999998
 20
127.411
 30
0.0
 11
-4.70052
 21
127.411
 31
0.0
  0
LINE
  5
13A
  8
_________2
 62
     7
 10
76.741
 20
29.8047
 30
0.0
 11
74.554699999999997
 21
29.8047
 31
0.0
  0
LINE
  5
13B
  8
_________2
 62
     7
 10
77.233699999999999
 20
29.8047
 30
0.0
 11
76.981499999999997
 21
29.8047
 31
0.0
  0
LINE
  5
13C
  8
_________2
 62
     7
 10
77.726299999999995
 20
29.8047
 30
0.0
 11
80.651200000000003
 21
29.8047
 31
0.0
  0
LINE
  5
13D
  8
_________2
 62
     7
 10
77.233699999999999
 20
29.8047
 30
0.0
 11
77.485500000000002
 21
29.8047
 31
0.0
  0
LINE
  5
13E
  8
_________2
 62
     7
 10
70.837100000000007
 20
29.8047
 30
0.0
 11
68.650499999999994
 21
29.8047
 31
0.0
  0
LINE
  5
13F
  8
_________2
 62
     7
 10
71.329400000000007
 20
29.8047
 30
0.0
 11
71.077600000000004
 21
29.8047
 31
0.0
  0
LINE
  5
140
  8
_________2
 62
     7
 10
71.329400000000007
 20
30.2974
 30
0.0
 11
71.329400000000007
 21
32.484400000000001
 31
0.0
  0
LINE
  5
141
  8
_________2
 62
     7
 10
71.329400000000007
 20
29.8047
 30
0.0
 11
71.329400000000007
 21
30.056899999999992
 31
0.0
  0
LINE
  5
142
  8
_________2
 62
     7
 10
71.822100000000006
 20
29.8047
 30
0.0
 11
74.009
 21
29.8047
 31
0.0
  0
LINE
  5
143
  8
_________2
 62
     7
 10
71.329400000000007
 20
29.8047
 30
0.0
 11
71.581599999999995
 21
29.8047
 31
0.0
  0
LINE
  5
144
  8
_________2
 62
     7
 10
71.329400000000007
 20
29.312799999999999
 30
0.0
 11
71.329400000000007
 21
27.125800000000002
 31
0.0
  0
LINE
  5
145
  8
_________2
 62
     7
 10
71.329400000000007
 20
29.8047
 30
0.0
 11
71.329400000000007
 21
29.5532
 31
0.0
  0
LINE
  5
146
  8
_________2
 62
     7
 10
75.040499999999994
 20
28.5852
 30
0.0
 11
80.218500000000006
 21
27.720400000000001
 31
0.0
  0
LINE
  5
147
  8
_________2
 62
     7
 10
75.040499999999994
 20
31.0243
 30
0.0
 11
80.218500000000006
 21
31.889700000000001
 31
0.0
  0
LINE
  5
148
  8
_________2
 62
     7
 10
80.218500000000006
 20
27.720400000000001
 30
0.0
 11
80.218500000000006
 21
31.889700000000001
 31
0.0
  0
LINE
  5
149
  8
_________2
 62
     7
 10
75.040499999999994
 20
28.5852
 30
0.0
 11
75.040499999999994
 21
31.0243
 31
0.0
  0
ARC
  5
14A
  8
_________2
 62
     7
 10
71.28285600000001
 20
29.757811
 30
0.0
 40
1.2673589999999999
 50
2.122214
 51
87.893958999999995
  0
ARC
  5
14B
  8
_________2
 62
     7
 10
71.375959999999992
 20
29.758213000000001
 30
0.0
 40
1.2669559999999991
 50
92.104701000000006
 51
177.8952689999999
  0
ARC
  5
14C
  8
_________2
 62
     7
 10
71.376357999999996
 20
29.851671
 30
0.0
 40
1.2673680000000001
 50
182.12203600000001
 51
267.877993
  0
ARC
  5
14D
  8
_________2
 62
     7
 10
71.282531999999989
 20
29.851998999999989
 30
0.0
 40
1.267695999999999
 50
272.12015300000002
 51
357.863674
  0
ARC
  5
14E
  8
_________2
 62
     7
 10
71.329430000000002
 20
29.804742999999998
 30
0.0
 40
2.0849849999999992
 50
0.00001
 51
89.999980000000008
  0
ARC
  5
14F
  8
_________2
 62
     7
 10
71.329603000000006
 20
29.804915000000001
 30
0.0
 40
2.084813
 50
90.004733999999999
 51
180.00474399999999
  0
ARC
  5
150
  8
_________2
 62
     7
 10
71.409106000000008
 20
29.884775999999999
 30
0.0
 40
2.1657950000000001
 50
182.11776599999999
 51
267.89173399999999
  0
ARC
  5
151
  8
_________2
 62
     7
 10
71.249459000000002
 20
29.885429999999989
 30
0.0
 40
2.1664590000000001
 50
272.11546800000002
 51
357.86560400000002
  0
TEXT
  5
152
  8
_________2
 62
     7
 10
104.605
 20
1.6794899999999999
 30
0.0
 40
3.0923400000000001
  1
図番
 41
0.5
  0
LINE
  5
153
  8
_________2
 62
     7
 10
103.55
 20
5.9087199999999989
 30
0.0
 11
183.55099999999999
 21
5.9087199999999989
 31
0.0
  0
TEXT
  5
154
  8
_________2
 62
     7
 10
104.605
 20
11.679299999999991
 30
0.0
 40
3.0923400000000001
  1
品番
 41
0.5
  0
TEXT
  5
155
  8
_________2
 62
     7
 10
104.605
 20
31.818100000000001
 30
0.0
 40
3.0923400000000001
  1
名称
 41
0.5
  0
TEXT
  5
156
  8
_________2
 62
     7
 10
91.845058333333341
 20
26.821999999999989
 30
0.0
 40
3.6545800000000002
  1
mm
 41
0.5
 72
     1
 11
93.367800000000003
 21
26.821999999999989
 31
0.0
  0
TEXT
  5
157
  8
_________2
 62
     7
 10
85.643199999999993
 20
31.818100000000001
 30
0.0
 40
3.0923400000000001
  1
単位
 41
0.5
  0
TEXT
  5
158
  8
_________2
 62
     7
 10
85.643199999999993
 20
19.410799999999991
 30
0.0
 40
3.0923400000000001
  1
尺度
 41
0.5
  0
TEXT
  5
159
  8
_________2
 62
     7
 10
90.548758666666686
 20
13.2179
 30
0.0
 40
3.6545800000000002
  1
1 ： 2
 41
0.5
 72
     1
 11
93.959699999999998
 21
13.2179
 31
0.0
  0
TEXT
  5
15A
  8
_________2
 62
     7
 10
138.79436250000001
 20
9.1078600000000005
 30
0.0
 40
3.9357000000000002
  1
VL.A10
 41
0.5
 72
     1
 11
143.55000000000001
 21
9.1078600000000005
 31
0.0
  0
TEXT
  5
15B
  8
_________2
 62
     7
 10
139.12233749999999
 20
-0.8926299999999999
 30
0.0
 40
3.9357000000000002
  1
VLA10
 41
0.5
 72
     1
 11
143.55000000000001
 21
-0.8926299999999999
 31
0.0
  0
TEXT
  5
15C
  8
_________2
 62
     7
 10
24.5868
 20
0.707283
 30
0.0
 40
3.9357000000000002
  1
ヨーロッパ製洗面器用
 41
0.5
  0
TEXT
  5
15D
  8
_________2
 62
     7
 10
109.179
 20
24.2257
 30
0.0
 40
3.9357000000000002
  1
ボラ　排水目皿
 41
0.5
  0
TEXT
  5
15E
  8
_________2
 62
     7
 10
39.303480999999991
 20
13.603
 30
0.0
 40
3.6545800000000002
  1
田尻
 41
0.5
 72
     1
 11
41.313499999999998
 21
13.603
 31
0.0
  0
TEXT
  5
15F
  8
_________2
 62
     7
 10
20.790090666666661
 20
13.603
 30
0.0
 40
3.6545800000000002
  1
石原
 41
0.5
 72
     1
 11
22.73919999999999
 21
13.603
 31
0.0
  0
TEXT
  5
160
  8
_________2
 62
     7
 10
67.785399999999996
 20
13.2179
 30
0.0
 40
3.6545800000000002
  1
09.05.25
 41
0.5
  0
TEXT
  5
161
  8
_________2
 62
     7
 10
66.593100000000007
 20
19.410799999999991
 30
0.0
 40
3.0923400000000001
  1
日付
 41
0.5
  0
TEXT
  5
162
  8
_________2
 62
     7
 10
29.639399999999998
 20
19.410799999999991
 30
0.0
 40
3.0923400000000001
  1
検図
 41
0.5
  0
TEXT
  5
163
  8
_________2
 62
     7
 10
18.021100000000001
 20
5.21143
 30
0.0
 40
3.0923400000000001
  1
備考
 41
0.5
  0
TEXT
  5
164
  8
_________2
 62
     7
 10
18.021100000000001
 20
19.410799999999991
 30
0.0
 40
3.0923400000000001
  1
製図
 41
0.5
  0
TEXT
  5
165
  8
_________2
 62
     7
 10
23.788465333333338
 20
27.936800000000002
 30
0.0
 40
4.4979399999999989
  1
セラトレーディング株式会社
 41
0.5
 72
     1
 11
41.180500000000002
 21
27.936800000000002
 31
0.0
  0
LINE
  5
166
  8
_________2
 62
     7
 10
183.55099999999999
 20
-4.0910799999999998
 30
0.0
 11
17.049499999999998
 21
-4.0910799999999998
 31
0.0
  0
LINE
  5
167
  8
_________2
 62
     7
 10
17.049499999999998
 20
-4.0910799999999998
 30
0.0
 11
17.049499999999998
 21
258.911
 31
0.0
  0
LINE
  5
168
  8
_________2
 62
     7
 10
17.049499999999998
 20
258.911
 30
0.0
 11
183.55099999999999
 21
258.911
 31
0.0
  0
LINE
  5
169
  8
_________2
 62
     7
 10
183.55099999999999
 20
258.911
 30
0.0
 11
183.55099999999999
 21
-4.0910799999999998
 31
0.0
  0
LINE
  5
16A
  8
_________2
 62
     7
 10
65.549599999999998
 20
9.4089600000000004
 30
0.0
 11
65.549599999999998
 21
35.908799999999999
 31
0.0
  0
LINE
  5
16B
  8
_________2
 62
     7
 10
84.549700000000016
 20
9.4089600000000004
 30
0.0
 11
84.549700000000016
 21
35.908799999999999
 31
0.0
  0
LINE
  5
16C
  8
_________2
 62
     7
 10
103.55
 20
-4.0910799999999998
 30
0.0
 11
103.55
 21
35.908799999999999
 31
0.0
  0
LINE
  5
16D
  8
_________2
 62
     7
 10
28.549299999999992
 20
9.4089600000000004
 30
0.0
 11
28.549299999999992
 21
23.409199999999998
 31
0.0
  0
LINE
  5
16E
  8
_________2
 62
     7
 10
17.049499999999998
 20
9.4089600000000004
 30
0.0
 11
103.55
 21
9.4089600000000004
 31
0.0
  0
LINE
  5
16F
  8
_________2
 62
     7
 10
17.049499999999998
 20
23.409199999999998
 30
0.0
 11
103.55
 21
23.409199999999998
 31
0.0
  0
LINE
  5
170
  8
_________2
 62
     7
 10
103.55
 20
15.9085
 30
0.0
 11
183.55099999999999
 21
15.9085
 31
0.0
  0
LINE
  5
171
  8
_________2
 62
     7
 10
17.049499999999998
 20
35.908799999999999
 30
0.0
 11
183.55099999999999
 21
35.908799999999999
 31
0.0
  0
TEXT
  5
172
  8
_________2
 62
     7
 10
141.05480999999989
 20
39.068300000000001
 30
0.0
 40
3.9357000000000002
  1
注：色番号はカタログを参照ください
 41
0.5
 72
     2
 11
180.54300000000001
 21
39.068300000000001
 31
0.0
  0
CIRCLE
  5
18E
  8
0
  6
CONTINUOUS
 62
     7
 10
115.6322599999999
 20
182.22362099999989
 30
0.0
 40
15.0
  0
CIRCLE
  5
1A8
  8
0
  6
CONTINUOUS
 62
     7
 10
115.63217399999991
 20
182.22370699999999
 30
0.0
 40
9.5
  0
CIRCLE
  5
1C2
  8
0
  6
CONTINUOUS
 62
     7
 10
115.632347
 20
182.22370699999999
 30
0.0
 40
2.75
  0
CIRCLE
  5
1DF
  8
0
  6
CONTINUOUS
 62
     7
 10
120.3953929999999
 20
179.47381399999989
 30
0.0
 40
2.0
  0
CIRCLE
  5
1E0
  8
0
  6
CONTINUOUS
 62
     7
 10
115.63200000000001
 20
176.723749
 30
0.0
 40
2.0
  0
CIRCLE
  5
1E1
  8
0
  6
CONTINUOUS
 62
     7
 10
110.868955
 20
184.973772
 30
0.0
 40
2.0
  0
CIRCLE
  5
1E2
  8
0
  6
CONTINUOUS
 62
     7
 10
110.8690409999999
 20
179.47372799999991
 30
0.0
 40
2.0
  0
CIRCLE
  5
1E3
  8
0
  6
CONTINUOUS
 62
     7
 10
120.395307
 20
184.97385800000001
 30
0.0
 40
2.0
  0
CIRCLE
  5
1E6
  8
0
  6
CONTINUOUS
 62
     7
 10
115.63217399999991
 20
187.723837
 30
0.0
 40
2.0
  0
CIRCLE
  5
1F3
  8
0
  6
CONTINUOUS
 62
     7
 10
62.958100000000002
 20
182.22399999999999
 30
0.0
 40
9.5
  0
ENDSEC
  0
EOF
