  0
SECTION
  2
HEADER
  9
$ACADVER
  1
AC1009
  9
$INSBASE
 10
0.0
 20
0.0
 30
0.0
  9
$EXTMIN
 10
-4.7008599999999987
 20
-21.071400000000001
 30
0.0
  9
$EXTMAX
 10
205.2999999999999
 20
275.93099999999993
 30
0.0
  9
$LIMMIN
 10
0.0
 20
0.0
  9
$LIMMAX
 10
12.0
 20
9.0
  9
$ORTHOMODE
 70
     0
  9
$REGENMODE
 70
     1
  9
$FILLMODE
 70
     1
  9
$QTEXTMODE
 70
     0
  9
$MIRRTEXT
 70
     1
  9
$DRAGMODE
 70
     2
  9
$LTSCALE
 40
1.0
  9
$OSMODE
 70
    37
  9
$ATTMODE
 70
     1
  9
$TEXTSIZE
 40
0.0
  9
$TRACEWID
 40
0.05
  9
$TEXTSTYLE
  7
STANDARD
  9
$CLAYER
  8
0
  9
$CELTYPE
  6
CONTINUOUS
  9
$CECOLOR
 62
   256
  9
$DIMSCALE
 40
1.0
  9
$DIMASZ
 40
0.18
  9
$DIMEXO
 40
0.0625
  9
$DIMDLI
 40
0.38
  9
$DIMRND
 40
0.0
  9
$DIMDLE
 40
0.0
  9
$DIMEXE
 40
0.18
  9
$DIMTP
 40
0.0
  9
$DIMTM
 40
0.0
  9
$DIMTXT
 40
0.18
  9
$DIMCEN
 40
0.09
  9
$DIMTSZ
 40
0.0
  9
$DIMTOL
 70
     0
  9
$DIMLIM
 70
     0
  9
$DIMTIH
 70
     1
  9
$DIMTOH
 70
     1
  9
$DIMSE1
 70
     0
  9
$DIMSE2
 70
     0
  9
$DIMTAD
 70
     0
  9
$DIMZIN
 70
     0
  9
$DIMBLK
  1

  9
$DIMASO
 70
     1
  9
$DIMSHO
 70
     1
  9
$DIMPOST
  1

  9
$DIMAPOST
  1

  9
$DIMALT
 70
     0
  9
$DIMALTD
 70
     2
  9
$DIMALTF
 40
25.399999999999999
  9
$DIMLFAC
 40
1.0
  9
$DIMTOFL
 70
     0
  9
$DIMTVP
 40
0.0
  9
$DIMTIX
 70
     0
  9
$DIMSOXD
 70
     0
  9
$DIMSAH
 70
     0
  9
$DIMBLK1
  1

  9
$DIMBLK2
  1

  9
$DIMSTYLE
  2
STANDARD
  9
$DIMCLRD
 70
     0
  9
$DIMCLRE
 70
     0
  9
$DIMCLRT
 70
     0
  9
$DIMTFAC
 40
1.0
  9
$DIMGAP
 40
0.09
  9
$LUNITS
 70
     2
  9
$LUPREC
 70
     4
  9
$SKETCHINC
 40
0.1
  9
$FILLETRAD
 40
0.0
  9
$AUNITS
 70
     0
  9
$AUPREC
 70
     0
  9
$MENU
  1
.
  9
$ELEVATION
 40
0.0
  9
$PELEVATION
 40
0.0
  9
$THICKNESS
 40
0.0
  9
$LIMCHECK
 70
     0
  9
$BLIPMODE
 70
     0
  9
$CHAMFERA
 40
0.0
  9
$CHAMFERB
 40
0.0
  9
$SKPOLY
 70
     0
  9
$TDCREATE
 40
2444972.375
  9
$TDUPDATE
 40
2455398.3773750341
  9
$TDINDWG
 40
0.003696713
  9
$TDUSRTIMER
 40
0.003696713
  9
$USRTIMER
 70
     1
  9
$ANGBASE
 50
0.0
  9
$ANGDIR
 70
     0
  9
$PDMODE
 70
     0
  9
$PDSIZE
 40
0.0
  9
$PLINEWID
 40
0.0
  9
$COORDS
 70
     1
  9
$SPLFRAME
 70
     0
  9
$SPLINETYPE
 70
     6
  9
$SPLINESEGS
 70
     8
  9
$ATTDIA
 70
     0
  9
$ATTREQ
 70
     1
  9
$HANDLING
 70
     1
  9
$HANDSEED
  5
18F
  9
$SURFTAB1
 70
     6
  9
$SURFTAB2
 70
     6
  9
$SURFTYPE
 70
     6
  9
$SURFU
 70
     6
  9
$SURFV
 70
     6
  9
$UCSNAME
  2

  9
$UCSORG
 10
0.0
 20
0.0
 30
0.0
  9
$UCSXDIR
 10
1.0
 20
0.0
 30
0.0
  9
$UCSYDIR
 10
0.0
 20
1.0
 30
0.0
  9
$PUCSNAME
  2

  9
$PUCSORG
 10
0.0
 20
0.0
 30
0.0
  9
$PUCSXDIR
 10
1.0
 20
0.0
 30
0.0
  9
$PUCSYDIR
 10
0.0
 20
1.0
 30
0.0
  9
$USERI1
 70
     0
  9
$USERI2
 70
     0
  9
$USERI3
 70
     0
  9
$USERI4
 70
     0
  9
$USERI5
 70
     0
  9
$USERR1
 40
0.0
  9
$USERR2
 40
0.0
  9
$USERR3
 40
0.0
  9
$USERR4
 40
0.0
  9
$USERR5
 40
0.0
  9
$WORLDVIEW
 70
     1
  9
$SHADEDGE
 70
     3
  9
$SHADEDIF
 70
    70
  9
$TILEMODE
 70
     1
  9
$MAXACTVP
 70
    48
  9
$PLIMCHECK
 70
     0
  9
$PEXTMIN
 10
1.0000000000000000E+020
 20
1.0000000000000000E+020
 30
1.0000000000000000E+020
  9
$PEXTMAX
 10
-1.0000000000000000E+020
 20
-1.0000000000000000E+020
 30
-1.0000000000000000E+020
  9
$PLIMMIN
 10
0.0
 20
0.0
  9
$PLIMMAX
 10
12.0
 20
9.0
  9
$UNITMODE
 70
     0
  9
$VISRETAIN
 70
     1
  9
$PLINEGEN
 70
     0
  9
$PSLTSCALE
 70
     1
  0
ENDSEC
  0
SECTION
  2
TABLES
  0
TABLE
  2
VPORT
 70
     2
  0
VPORT
  2
*ACTIVE
 70
     0
 10
0.0
 20
0.0
 11
1.0
 21
1.0
 12
170.2766515668649
 22
127.4298006915125
 13
0.0
 23
0.0
 14
1.0
 24
1.0
 15
0.0
 25
0.0
 16
0.0
 26
0.0
 36
1.0
 17
0.0
 27
0.0
 37
0.0
 40
298.7524257079578
 41
2.2894736842105261
 42
50.0
 43
0.0
 44
0.0
 50
0.0
 51
0.0
 71
     0
 72
   100
 73
     1
 74
     1
 75
     0
 76
     0
 77
     0
 78
     0
  0
ENDTAB
  0
TABLE
  2
LTYPE
 70
     3
  0
LTYPE
  2
CONTINUOUS
 70
     0
  3
Solid line
 72
    65
 73
     0
 40
0.0
  0
LTYPE
  2
AIGENLINE001
 70
     0
  3
generate AI->DXF Converter
 72
    65
 73
     4
 40
5.8561449999999988
 49
3.5278
 49
-0.776115
 49
0.776115
 49
-0.776115
  0
ENDTAB
  0
TABLE
  2
LAYER
 70
     2
  0
LAYER
  2
0
 70
     0
 62
     7
  6
CONTINUOUS
  0
LAYER
  2
_________2
 70
     0
 62
     7
  6
CONTINUOUS
  0
ENDTAB
  0
TABLE
  2
STYLE
 70
     1
  0
STYLE
  2
STANDARD
 70
     0
 40
0.0
 41
0.0
 50
0.0
 71
     0
 42
0.0
  3
TXT
  4
EXTFONT.SHX
  0
ENDTAB
  0
TABLE
  2
VIEW
 70
     0
  0
ENDTAB
  0
TABLE
  2
UCS
 70
     0
  0
ENDTAB
  0
TABLE
  2
APPID
 70
     1
  0
APPID
  2
ACAD
 70
     0
  0
ENDTAB
  0
TABLE
  2
DIMSTYLE
 70
     1
  0
DIMSTYLE
  2
STANDARD
 70
     0
  3

  4

  5

  6

  7

 40
1.0
 41
0.18
 42
0.0625
 43
0.38
 44
0.18
 45
0.0
 46
0.0
 47
0.0
 48
0.0
140
0.18
141
0.09
142
0.0
143
25.399999999999999
144
1.0
145
0.0
146
1.0
147
0.09
 71
     0
 72
     0
 73
     1
 74
     1
 75
     0
 76
     0
 77
     0
 78
     0
170
     0
171
     2
172
     0
173
     0
174
     0
175
     0
176
     0
177
     0
178
     0
  0
ENDTAB
  0
ENDSEC
  0
SECTION
  2
BLOCKS
  0
BLOCK
  8
0
  2
$MODEL_SPACE
 70
     0
 10
0.0
 20
0.0
 30
0.0
  3
$MODEL_SPACE
  1

  0
ENDBLK
  5
1A
  8
0
  0
BLOCK
 67
     1
  8
0
  2
$PAPER_SPACE
 70
     0
 10
0.0
 20
0.0
 30
0.0
  3
$PAPER_SPACE
  1

  0
ENDBLK
  5
17
 67
     1
  8
0
  0
ENDSEC
  0
SECTION
  2
ENTITIES
  0
TEXT
  5
23
  8
0
 62
     7
 10
123.25949900000001
 20
218.52499999999989
 30
0.0
 40
3.0923400000000001
  1
樹脂プラグ%%c6×30付
 41
0.5
 72
     2
 11
141.762
 21
218.52499999999989
 31
0.0
  0
TEXT
  5
24
  8
0
 62
     7
 10
114.704025
 20
223.76300000000001
 30
0.0
 40
3.0923400000000001
  1
SSクロメート皿木ねじ%%c4×40
 41
0.5
 72
     2
 11
141.762
 21
223.76300000000001
 31
0.0
  0
TEXT
  5
25
  8
0
 62
     7
 10
75.363834999999995
 20
161.81999999999991
 30
0.0
 40
3.0923400000000001
  1
153
 41
0.5
 72
     1
 11
77.167699999999996
 21
161.81999999999991
 31
0.0
  0
TEXT
  5
26
  8
0
 62
     7
 10
153.707525
 20
79.375500000000002
 30
0.0
 40
3.0923400000000001
  1
23
 41
0.5
 72
     1
 11
154.99600000000001
 21
79.375500000000002
 31
0.0
  0
TEXT
  5
27
  8
0
 62
     7
 10
76.522234999999995
 20
79.375500000000002
 30
0.0
 40
3.0923400000000001
  1
126
 41
0.5
 72
     1
 11
78.326099999999997
 21
79.375500000000002
 31
0.0
  0
TEXT
  5
28
  8
0
 62
     7
 10
135.18600000000001
 20
127.542135
 30
0.0
 40
3.0923400000000001
  1
%%c17
 50
90.0
 41
0.5
 72
     1
 11
135.18600000000001
 21
129.346
 31
0.0
  0
TEXT
  5
29
  8
0
 62
     7
 10
121.967
 20
95.085224999999994
 30
0.0
 40
3.0923400000000001
  1
25
 50
90.0
 41
0.5
 72
     1
 11
121.967
 21
96.373699999999999
 31
0.0
  0
TEXT
  5
2A
  8
0
 62
     7
 10
121.967
 20
128.00637249999991
 30
0.0
 40
3.0923400000000001
  1
60
 50
90.0
 41
0.5
 72
     1
 11
121.967
 21
129.166
 31
0.0
  0
TEXT
  5
2B
  8
0
 62
     7
 10
151.81437249999991
 20
150.27799999999999
 30
0.0
 40
3.0923400000000001
  1
30
 41
0.5
 72
     1
 11
152.9739999999999
 21
150.27799999999999
 31
0.0
  0
TEXT
  5
2C
  8
0
 62
     7
 10
75.621529999999993
 20
152.84100000000001
 30
0.0
 40
3.0923400000000001
  1
100
 41
0.5
 72
     1
 11
77.167699999999996
 21
152.84100000000001
 31
0.0
  0
TEXT
  5
2D
  8
0
 62
     7
 10
31.878399999999999
 20
107.765525
 30
0.0
 40
3.0923400000000001
  1
78
 50
90.0
 41
0.5
 72
     1
 11
31.878399999999999
 21
109.054
 31
0.0
  0
TEXT
  5
2E
  8
0
 62
     7
 10
53.058225
 20
103.357
 30
0.0
 40
3.0923400000000001
  1
%%c8
 41
0.5
 72
     1
 11
54.346699999999998
 21
103.357
 31
0.0
  0
ARC
  5
2F
  8
0
 62
     7
 10
110.4781149999999
 20
187.9619019999999
 30
0.0
 40
2.0785919999999991
 50
182.13028999999989
 51
267.86973999999992
  0
ARC
  5
30
  8
0
 62
     7
 10
110.47731999999991
 20
187.80816799999999
 30
0.0
 40
2.0777679999999989
 50
92.109170999999989
 51
177.89080000000001
  0
ARC
  5
31
  8
0
 62
     7
 10
47.477426999999992
 20
187.9619019999999
 30
0.0
 40
2.0785919999999991
 50
182.13028999999989
 51
267.86973999999992
  0
ARC
  5
32
  8
0
 62
     7
 10
47.476632000000002
 20
187.80816799999999
 30
0.0
 40
2.0777679999999989
 50
92.109170999999989
 51
177.89080000000001
  0
ARC
  5
33
  8
0
 62
     7
 10
110.323594
 20
187.80702400000001
 30
0.0
 40
2.0789399999999998
 50
2.1395360000000001
 51
87.870323999999997
  0
ARC
  5
34
  8
0
 62
     7
 10
110.3247129999999
 20
187.96113299999999
 30
0.0
 40
2.0777809999999999
 50
272.09999799999991
 51
357.89014300000002
  0
LINE
  5
35
  8
0
 62
     7
 10
103.34399999999989
 20
216.34200000000001
 30
0.0
 11
102.1539999999999
 21
214.38499999999999
 31
0.0
  0
LINE
  5
36
  8
0
 62
     7
 10
102.1539999999999
 20
214.38499999999999
 30
0.0
 11
104.163
 21
215.4859999999999
 31
0.0
  0
LINE
  5
37
  8
0
 62
     7
 10
104.163
 20
215.4859999999999
 30
0.0
 11
103.34399999999989
 21
216.34200000000001
 31
0.0
  0
LINE
  5
38
  8
0
 62
     7
 10
141.762
 20
222.47999999999999
 30
0.0
 11
110.611
 21
222.47999999999999
 31
0.0
  0
LINE
  5
39
  8
0
 62
     7
 10
110.611
 20
222.47999999999999
 30
0.0
 11
102.1539999999999
 21
214.38499999999999
 31
0.0
  0
LINE
  5
3A
  8
0
 62
     7
 10
53.720199999999998
 20
201.12599999999989
 30
0.0
 11
50.6858
 21
199.30799999999991
 31
0.0
  0
LINE
  5
3B
  8
0
 62
     7
 10
53.720199999999998
 20
202.89599999999999
 30
0.0
 11
50.6858
 21
201.078
 31
0.0
  0
LINE
  5
3C
  8
0
 62
     7
 10
53.720199999999998
 20
204.66499999999999
 30
0.0
 11
50.6858
 21
202.84699999999989
 31
0.0
  0
LINE
  5
3D
  8
0
 62
     7
 10
53.720199999999998
 20
206.434
 30
0.0
 11
50.6858
 21
204.6159999999999
 31
0.0
  0
LINE
  5
3E
  8
0
 62
     7
 10
53.720199999999998
 20
208.20400000000001
 30
0.0
 11
50.6858
 21
206.38499999999991
 31
0.0
  0
LINE
  5
3F
  8
0
 62
     7
 10
53.720199999999998
 20
209.97399999999999
 30
0.0
 11
50.6858
 21
208.155
 31
0.0
  0
LINE
  5
40
  8
0
 62
     7
 10
53.720199999999998
 20
211.74199999999999
 30
0.0
 11
50.6858
 21
209.92399999999989
 31
0.0
  0
LINE
  5
41
  8
0
 62
     7
 10
53.720199999999998
 20
213.511
 30
0.0
 11
50.6858
 21
211.6929999999999
 31
0.0
  0
LINE
  5
42
  8
0
 62
     7
 10
51.374099999999999
 20
199.38399999999999
 30
0.0
 11
51.374099999999999
 21
211.81899999999999
 31
0.0
  0
LINE
  5
43
  8
0
 62
     7
 10
51.374099999999999
 20
211.81899999999999
 30
0.0
 11
52.153700000000001
 21
214.38499999999999
 31
0.0
  0
LINE
  5
44
  8
0
 62
     7
 10
52.927199999999999
 20
199.38399999999999
 30
0.0
 11
52.927199999999999
 21
211.83699999999999
 31
0.0
  0
LINE
  5
45
  8
0
 62
     7
 10
52.927199999999999
 20
211.83699999999999
 30
0.0
 11
52.153700000000001
 21
214.38499999999999
 31
0.0
  0
LINE
  5
46
  8
0
 62
     7
 10
47.900700000000001
 20
184.38399999999999
 30
0.0
 11
56.400500000000001
 21
184.38399999999999
 31
0.0
  0
LINE
  5
47
  8
0
 62
     7
 10
56.400500000000001
 20
198.38399999999999
 30
0.0
 11
56.400500000000001
 21
189.88499999999991
 31
0.0
  0
LINE
  5
48
  8
0
  6
AIGENLINE001
 62
     7
 10
52.150599999999997
 20
216.2529999999999
 30
0.0
 11
52.150599999999997
 21
183.18700000000001
 31
0.0
  0
LINE
  5
49
  8
0
 62
     7
 10
47.900700000000001
 20
198.38399999999999
 30
0.0
 11
47.900700000000001
 21
189.88499999999991
 31
0.0
  0
LINE
  5
4A
  8
0
 62
     7
 10
103.7209999999999
 20
201.12599999999989
 30
0.0
 11
100.68600000000001
 21
199.30799999999991
 31
0.0
  0
LINE
  5
4B
  8
0
 62
     7
 10
103.7209999999999
 20
202.89599999999999
 30
0.0
 11
100.68600000000001
 21
201.078
 31
0.0
  0
LINE
  5
4C
  8
0
 62
     7
 10
103.7209999999999
 20
204.66499999999999
 30
0.0
 11
100.68600000000001
 21
202.84699999999989
 31
0.0
  0
LINE
  5
4D
  8
0
 62
     7
 10
103.7209999999999
 20
206.434
 30
0.0
 11
100.68600000000001
 21
204.6159999999999
 31
0.0
  0
LINE
  5
4E
  8
0
 62
     7
 10
103.7209999999999
 20
208.20400000000001
 30
0.0
 11
100.68600000000001
 21
206.38499999999991
 31
0.0
  0
LINE
  5
4F
  8
0
 62
     7
 10
103.7209999999999
 20
209.97399999999999
 30
0.0
 11
100.68600000000001
 21
208.155
 31
0.0
  0
LINE
  5
50
  8
0
 62
     7
 10
103.7209999999999
 20
211.74199999999999
 30
0.0
 11
100.68600000000001
 21
209.92399999999989
 31
0.0
  0
LINE
  5
51
  8
0
 62
     7
 10
103.7209999999999
 20
213.511
 30
0.0
 11
100.68600000000001
 21
211.6929999999999
 31
0.0
  0
LINE
  5
52
  8
0
 62
     7
 10
101.3749999999999
 20
199.38399999999999
 30
0.0
 11
101.3749999999999
 21
211.81899999999999
 31
0.0
  0
LINE
  5
53
  8
0
 62
     7
 10
101.3749999999999
 20
211.81899999999999
 30
0.0
 11
102.1539999999999
 21
214.38499999999999
 31
0.0
  0
LINE
  5
54
  8
0
 62
     7
 10
102.9279999999999
 20
199.38399999999999
 30
0.0
 11
102.9279999999999
 21
211.83699999999999
 31
0.0
  0
LINE
  5
55
  8
0
 62
     7
 10
102.9279999999999
 20
211.83699999999999
 30
0.0
 11
102.1539999999999
 21
214.38499999999999
 31
0.0
  0
LINE
  5
56
  8
0
 62
     7
 10
97.901300000000006
 20
184.38399999999999
 30
0.0
 11
106.401
 21
184.38399999999999
 31
0.0
  0
LINE
  5
57
  8
0
 62
     7
 10
106.401
 20
198.38399999999999
 30
0.0
 11
106.401
 21
184.38399999999999
 31
0.0
  0
LINE
  5
58
  8
0
  6
AIGENLINE001
 62
     7
 10
102.151
 20
216.2529999999999
 30
0.0
 11
102.151
 21
183.18700000000001
 31
0.0
  0
LINE
  5
59
  8
0
 62
     7
 10
97.901300000000006
 20
198.38399999999999
 30
0.0
 11
97.901300000000006
 21
189.88499999999991
 31
0.0
  0
LINE
  5
5A
  8
0
 62
     7
 10
115.401
 20
198.38399999999999
 30
0.0
 11
115.401
 21
199.38399999999999
 31
0.0
  0
LINE
  5
5B
  8
0
 62
     7
 10
38.900500000000001
 20
199.38399999999999
 30
0.0
 11
38.900500000000001
 21
198.38399999999999
 31
0.0
  0
LINE
  5
5C
  8
0
 62
     7
 10
38.900500000000001
 20
199.38399999999999
 30
0.0
 11
115.401
 21
199.38399999999999
 31
0.0
  0
LINE
  5
5D
  8
0
 62
     7
 10
38.900500000000001
 20
198.38399999999999
 30
0.0
 11
115.401
 21
198.38399999999999
 31
0.0
  0
LINE
  5
5E
  8
0
 62
     7
 10
162.21600000000001
 20
127.554
 30
0.0
 11
160.39799999999991
 21
130.58799999999991
 31
0.0
  0
LINE
  5
5F
  8
0
 62
     7
 10
163.9859999999999
 20
127.554
 30
0.0
 11
162.16800000000001
 21
130.58799999999991
 31
0.0
  0
LINE
  5
60
  8
0
 62
     7
 10
165.755
 20
127.554
 30
0.0
 11
163.93700000000001
 21
130.58799999999991
 31
0.0
  0
LINE
  5
61
  8
0
 62
     7
 10
167.52500000000001
 20
127.554
 30
0.0
 11
165.7059999999999
 21
130.58799999999991
 31
0.0
  0
LINE
  5
62
  8
0
 62
     7
 10
169.29400000000001
 20
127.554
 30
0.0
 11
167.47499999999991
 21
130.58799999999991
 31
0.0
  0
LINE
  5
63
  8
0
 62
     7
 10
171.06399999999999
 20
127.554
 30
0.0
 11
169.245
 21
130.58799999999991
 31
0.0
  0
LINE
  5
64
  8
0
 62
     7
 10
172.83199999999999
 20
127.554
 30
0.0
 11
171.01400000000001
 21
130.58799999999991
 31
0.0
  0
LINE
  5
65
  8
0
 62
     7
 10
174.601
 20
127.554
 30
0.0
 11
172.78399999999999
 21
130.58799999999991
 31
0.0
  0
LINE
  5
66
  8
0
 62
     7
 10
160.4739999999999
 20
129.90000000000001
 30
0.0
 11
172.91
 21
129.90000000000001
 31
0.0
  0
LINE
  5
67
  8
0
 62
     7
 10
172.91
 20
129.90000000000001
 30
0.0
 11
175.47499999999999
 21
129.12
 31
0.0
  0
LINE
  5
68
  8
0
 62
     7
 10
160.4739999999999
 20
128.34700000000001
 30
0.0
 11
172.92699999999999
 21
128.34700000000001
 31
0.0
  0
LINE
  5
69
  8
0
 62
     7
 10
172.92699999999999
 20
128.34700000000001
 30
0.0
 11
175.47499999999999
 21
129.12
 31
0.0
  0
LINE
  5
6A
  8
0
 62
     7
 10
151.18600000000001
 20
79.071600000000004
 30
0.0
 11
148.9739999999999
 21
78.479100000000003
 31
0.0
  0
LINE
  5
6B
  8
0
 62
     7
 10
148.9739999999999
 20
78.479100000000003
 30
0.0
 11
151.18600000000001
 21
77.886499999999998
 31
0.0
  0
LINE
  5
6C
  8
0
 62
     7
 10
151.18600000000001
 20
77.886499999999998
 30
0.0
 11
151.18600000000001
 21
79.071600000000004
 31
0.0
  0
LINE
  5
6D
  8
0
 62
     7
 10
158.262
 20
77.90100000000001
 30
0.0
 11
160.4739999999999
 21
78.493600000000001
 31
0.0
  0
LINE
  5
6E
  8
0
 62
     7
 10
160.4739999999999
 20
78.493600000000001
 30
0.0
 11
158.262
 21
79.086100000000002
 31
0.0
  0
LINE
  5
6F
  8
0
 62
     7
 10
158.262
 20
79.086100000000002
 30
0.0
 11
158.262
 21
77.90100000000001
 31
0.0
  0
LINE
  5
70
  8
0
 62
     7
 10
148.9739999999999
 20
78.486299999999986
 30
0.0
 11
160.4739999999999
 21
78.486299999999986
 31
0.0
  0
LINE
  5
71
  8
0
 62
     7
 10
160.4739999999999
 20
77.792500000000004
 30
0.0
 11
160.4739999999999
 21
113.376
 31
0.0
  0
LINE
  5
72
  8
0
 62
     7
 10
148.9739999999999
 20
77.792500000000004
 30
0.0
 11
148.9739999999999
 21
86.420399999999987
 31
0.0
  0
LINE
  5
73
  8
0
  6
AIGENLINE001
 62
     7
 10
148.9739999999999
 20
134.583
 30
0.0
 11
148.9739999999999
 21
87.114599999999996
 31
0.0
  0
LINE
  5
74
  8
0
 62
     7
 10
160.4739999999999
 20
144.84100000000001
 30
0.0
 11
160.4739999999999
 21
150.262
 31
0.0
  0
LINE
  5
75
  8
0
 62
     7
 10
137.79499999999999
 20
131.16200000000001
 30
0.0
 11
137.202
 21
133.37299999999991
 31
0.0
  0
LINE
  5
76
  8
0
 62
     7
 10
137.202
 20
133.37299999999991
 30
0.0
 11
136.60900000000001
 21
131.16200000000001
 31
0.0
  0
LINE
  5
77
  8
0
 62
     7
 10
136.60900000000001
 20
131.16200000000001
 30
0.0
 11
137.79499999999999
 21
131.16200000000001
 31
0.0
  0
LINE
  5
78
  8
0
 62
     7
 10
136.62399999999991
 20
127.08499999999999
 30
0.0
 11
137.21700000000001
 21
124.8739999999999
 31
0.0
  0
LINE
  5
79
  8
0
 62
     7
 10
137.21700000000001
 20
124.8739999999999
 30
0.0
 11
137.81
 21
127.08499999999999
 31
0.0
  0
LINE
  5
7A
  8
0
 62
     7
 10
137.81
 20
127.08499999999999
 30
0.0
 11
136.62399999999991
 21
127.08499999999999
 31
0.0
  0
LINE
  5
7B
  8
0
 62
     7
 10
137.209
 20
133.0989999999999
 30
0.0
 11
137.209
 21
124.8739999999999
 31
0.0
  0
LINE
  5
7C
  8
0
 62
     7
 10
136.63199999999989
 20
124.8739999999999
 30
0.0
 11
144.53299999999999
 21
124.8739999999999
 31
0.0
  0
LINE
  5
7D
  8
0
 62
     7
 10
136.63199999999989
 20
133.37299999999991
 30
0.0
 11
144.53299999999999
 21
133.37299999999991
 31
0.0
  0
LINE
  5
7E
  8
0
 62
     7
 10
147.68600000000001
 20
150.1629999999999
 30
0.0
 11
145.4739999999999
 21
149.56999999999999
 31
0.0
  0
LINE
  5
7F
  8
0
 62
     7
 10
145.4739999999999
 20
149.56999999999999
 30
0.0
 11
147.68600000000001
 21
148.97799999999989
 31
0.0
  0
LINE
  5
80
  8
0
 62
     7
 10
147.68600000000001
 20
148.97799999999989
 30
0.0
 11
147.68600000000001
 21
150.1629999999999
 31
0.0
  0
LINE
  5
81
  8
0
 62
     7
 10
158.262
 20
148.99199999999999
 30
0.0
 11
160.4739999999999
 21
149.58500000000001
 31
0.0
  0
LINE
  5
82
  8
0
 62
     7
 10
160.4739999999999
 20
149.58500000000001
 30
0.0
 11
158.262
 21
150.17699999999999
 31
0.0
  0
LINE
  5
83
  8
0
 62
     7
 10
158.262
 20
150.17699999999999
 30
0.0
 11
158.262
 21
148.99199999999999
 31
0.0
  0
LINE
  5
84
  8
0
 62
     7
 10
145.4739999999999
 20
149.578
 30
0.0
 11
160.4729999999999
 21
149.578
 31
0.0
  0
LINE
  5
85
  8
0
 62
     7
 10
145.4739999999999
 20
150.15499999999989
 30
0.0
 11
145.4739999999999
 21
134.17400000000001
 31
0.0
  0
LINE
  5
86
  8
0
 62
     7
 10
150.9739999999999
 20
102.624
 30
0.0
 11
146.9739999999999
 21
102.624
 31
0.0
  0
LINE
  5
87
  8
0
 62
     7
 10
146.9739999999999
 20
90.123900000000006
 30
0.0
 11
146.9739999999999
 21
124.8739999999999
 31
0.0
  0
LINE
  5
89
  8
0
 62
     7
 10
150.9739999999999
 20
90.123900000000006
 30
0.0
 11
150.9739999999999
 21
124.8739999999999
 31
0.0
  0
ARC
  5
8B
  8
0
 62
     7
 10
149.05093400000001
 20
90.200393999999989
 30
0.0
 40
2.0781259999999988
 50
182.10886099999999
 51
267.88130000000001
  0
ARC
  5
8C
  8
0
 62
     7
 10
148.97410500000001
 20
90.123923000000005
 30
0.0
 40
2.0002349999999991
 50
270.00002000000001
 51
359.99998999999991
  0
LINE
  5
99
  8
0
 62
     7
 10
145.4739999999999
 20
133.37299999999991
 30
0.0
 11
145.4739999999999
 21
124.8739999999999
 31
0.0
  0
LINE
  5
9A
  8
0
 62
     7
 10
159.4739999999999
 20
124.8739999999999
 30
0.0
 11
145.4739999999999
 21
124.8739999999999
 31
0.0
  0
LINE
  5
9B
  8
0
  6
AIGENLINE001
 62
     7
 10
177.3429999999999
 20
129.12399999999991
 30
0.0
 11
144.27699999999999
 21
129.12399999999991
 31
0.0
  0
LINE
  5
9C
  8
0
 62
     7
 10
159.4739999999999
 20
133.37299999999991
 30
0.0
 11
145.4739999999999
 21
133.37299999999991
 31
0.0
  0
LINE
  5
9D
  8
0
 62
     7
 10
159.4739999999999
 20
114.124
 30
0.0
 11
160.4739999999999
 21
114.124
 31
0.0
  0
LINE
  5
9E
  8
0
 62
     7
 10
160.4739999999999
 20
144.124
 30
0.0
 11
159.4739999999999
 21
144.124
 31
0.0
  0
LINE
  5
9F
  8
0
 62
     7
 10
160.4739999999999
 20
144.124
 30
0.0
 11
160.4739999999999
 21
114.124
 31
0.0
  0
LINE
  5
A0
  8
0
 62
     7
 10
159.4739999999999
 20
144.124
 30
0.0
 11
159.4739999999999
 21
114.124
 31
0.0
  0
LINE
  5
A1
  8
0
 62
     7
 10
99.438699999999997
 20
151.25
 30
0.0
 11
101.649
 21
151.84200000000001
 31
0.0
  0
LINE
  5
A2
  8
0
 62
     7
 10
101.649
 20
151.84200000000001
 30
0.0
 11
99.438699999999997
 21
152.434
 31
0.0
  0
LINE
  5
A3
  8
0
 62
     7
 10
99.438699999999997
 20
152.434
 30
0.0
 11
99.438699999999997
 21
151.25
 31
0.0
  0
LINE
  5
A4
  8
0
 62
     7
 10
54.233400000000003
 20
152.4199999999999
 30
0.0
 11
52.022799999999997
 21
151.827
 31
0.0
  0
LINE
  5
A5
  8
0
 62
     7
 10
52.022799999999997
 20
151.827
 30
0.0
 11
54.233400000000003
 21
151.23500000000001
 31
0.0
  0
LINE
  5
A6
  8
0
 62
     7
 10
54.233400000000003
 20
151.23500000000001
 30
0.0
 11
54.233400000000003
 21
152.4199999999999
 31
0.0
  0
LINE
  5
A7
  8
0
 62
     7
 10
101.649
 20
151.83500000000001
 30
0.0
 11
52.022799999999997
 21
151.83500000000001
 31
0.0
  0
LINE
  5
A8
  8
0
 62
     7
 10
113.134
 20
160.08099999999999
 30
0.0
 11
115.345
 21
160.67299999999989
 31
0.0
  0
LINE
  5
A9
  8
0
 62
     7
 10
115.345
 20
160.67299999999989
 30
0.0
 11
113.134
 21
161.26599999999991
 31
0.0
  0
LINE
  5
AA
  8
0
 62
     7
 10
113.134
 20
161.26599999999991
 30
0.0
 11
113.134
 21
160.08099999999999
 31
0.0
  0
LINE
  5
AB
  8
0
 62
     7
 10
41.007699999999993
 20
161.251
 30
0.0
 11
38.797400000000003
 21
160.65899999999991
 31
0.0
  0
LINE
  5
AC
  8
0
 62
     7
 10
38.797400000000003
 20
160.65899999999991
 30
0.0
 11
41.007699999999993
 21
160.06700000000001
 31
0.0
  0
LINE
  5
AD
  8
0
 62
     7
 10
41.007699999999993
 20
160.06700000000001
 30
0.0
 11
41.007699999999993
 21
161.251
 31
0.0
  0
LINE
  5
AE
  8
0
 62
     7
 10
115.345
 20
160.66599999999991
 30
0.0
 11
38.797400000000003
 21
160.66599999999991
 31
0.0
  0
LINE
  5
AF
  8
0
  6
AIGENLINE001
 62
     7
 10
102.151
 20
122.2199999999999
 30
0.0
 11
102.151
 21
136.94599999999991
 31
0.0
  0
LINE
  5
B0
  8
0
 62
     7
 10
123.5449999999999
 20
100.4129999999999
 30
0.0
 11
122.952
 21
102.624
 31
0.0
  0
LINE
  5
B1
  8
0
 62
     7
 10
122.952
 20
102.624
 30
0.0
 11
122.36
 21
100.4129999999999
 31
0.0
  0
LINE
  5
B2
  8
0
 62
     7
 10
122.36
 20
100.4129999999999
 30
0.0
 11
123.5449999999999
 21
100.4129999999999
 31
0.0
  0
LINE
  5
B3
  8
0
 62
     7
 10
122.375
 20
92.334699999999998
 30
0.0
 11
122.967
 21
90.123599999999996
 31
0.0
  0
LINE
  5
B4
  8
0
 62
     7
 10
122.967
 20
90.123599999999996
 30
0.0
 11
123.5589999999999
 21
92.334699999999998
 31
0.0
  0
LINE
  5
B5
  8
0
 62
     7
 10
123.5589999999999
 20
92.334699999999998
 30
0.0
 11
122.375
 21
92.334699999999998
 31
0.0
  0
LINE
  5
B6
  8
0
 62
     7
 10
122.95999999999999
 20
102.34999999999989
 30
0.0
 11
122.95999999999999
 21
90.123599999999996
 31
0.0
  0
LINE
  5
B7
  8
0
 62
     7
 10
123.5449999999999
 20
142.018
 30
0.0
 11
122.952
 21
144.2289999999999
 31
0.0
  0
LINE
  5
B8
  8
0
 62
     7
 10
122.952
 20
144.2289999999999
 30
0.0
 11
122.36
 21
142.018
 31
0.0
  0
LINE
  5
B9
  8
0
 62
     7
 10
122.36
 20
142.018
 30
0.0
 11
123.5449999999999
 21
142.018
 31
0.0
  0
LINE
  5
BA
  8
0
 62
     7
 10
122.375
 20
116.39100000000001
 30
0.0
 11
122.967
 21
114.18000000000001
 31
0.0
  0
LINE
  5
BB
  8
0
 62
     7
 10
122.967
 20
114.18000000000001
 30
0.0
 11
123.5589999999999
 21
116.39100000000001
 31
0.0
  0
LINE
  5
BC
  8
0
 62
     7
 10
123.5589999999999
 20
116.39100000000001
 30
0.0
 11
122.375
 21
116.39100000000001
 31
0.0
  0
LINE
  5
BD
  8
0
 62
     7
 10
122.95999999999999
 20
143.95500000000001
 30
0.0
 11
122.95999999999999
 21
114.18000000000001
 31
0.0
  0
LINE
  5
BE
  8
0
 62
     7
 10
108.191
 20
77.901300000000006
 30
0.0
 11
110.401
 21
78.493600000000001
 31
0.0
  0
LINE
  5
BF
  8
0
 62
     7
 10
110.401
 20
78.493600000000001
 30
0.0
 11
108.191
 21
79.086100000000002
 31
0.0
  0
LINE
  5
C0
  8
0
 62
     7
 10
108.191
 20
79.086100000000002
 30
0.0
 11
108.191
 21
77.901300000000006
 31
0.0
  0
LINE
  5
C1
  8
0
 62
     7
 10
49.671000000000006
 20
79.071299999999994
 30
0.0
 11
47.460500000000003
 21
78.479100000000003
 31
0.0
  0
LINE
  5
C2
  8
0
 62
     7
 10
47.460500000000003
 20
78.479100000000003
 30
0.0
 11
49.671000000000006
 21
77.886899999999983
 31
0.0
  0
LINE
  5
C3
  8
0
 62
     7
 10
49.671000000000006
 20
77.886899999999983
 30
0.0
 11
49.671000000000006
 21
79.071299999999994
 31
0.0
  0
LINE
  5
C4
  8
0
 62
     7
 10
110.402
 20
78.486299999999986
 30
0.0
 11
47.460500000000003
 21
78.486299999999986
 31
0.0
  0
LINE
  5
C5
  8
0
 62
     7
 10
33.662399999999991
 20
126.8979999999999
 30
0.0
 11
33.0702
 21
129.10900000000001
 31
0.0
  0
LINE
  5
C6
  8
0
 62
     7
 10
33.0702
 20
129.10900000000001
 30
0.0
 11
32.477800000000002
 21
126.8979999999999
 31
0.0
  0
LINE
  5
C7
  8
0
 62
     7
 10
32.477800000000002
 20
126.8979999999999
 30
0.0
 11
33.662399999999991
 21
126.8979999999999
 31
0.0
  0
LINE
  5
C8
  8
0
 62
     7
 10
32.492499999999993
 20
92.498999999999995
 30
0.0
 11
33.084699999999991
 21
90.288300000000007
 31
0.0
  0
LINE
  5
C9
  8
0
 62
     7
 10
33.084699999999991
 20
90.288300000000007
 30
0.0
 11
33.677100000000003
 21
92.498999999999995
 31
0.0
  0
LINE
  5
CA
  8
0
 62
     7
 10
33.677100000000003
 20
92.498999999999995
 30
0.0
 11
32.492499999999993
 21
92.498999999999995
 31
0.0
  0
LINE
  5
CB
  8
0
 62
     7
 10
33.07739999999999
 20
128.76300000000001
 30
0.0
 11
33.07739999999999
 21
90.123199999999997
 31
0.0
  0
LINE
  5
CC
  8
0
 62
     7
 10
51.6721
 20
102.756
 30
0.0
 11
49.461500000000001
 21
102.164
 31
0.0
  0
LINE
  5
CD
  8
0
 62
     7
 10
49.461500000000001
 20
102.164
 30
0.0
 11
51.6721
 21
101.5719999999999
 31
0.0
  0
LINE
  5
CE
  8
0
 62
     7
 10
51.6721
 20
101.5719999999999
 30
0.0
 11
51.6721
 21
102.756
 31
0.0
  0
LINE
  5
CF
  8
0
 62
     7
 10
43.2376
 20
101.587
 30
0.0
 11
45.4482
 21
102.1789999999999
 31
0.0
  0
LINE
  5
D0
  8
0
 62
     7
 10
45.4482
 20
102.1789999999999
 30
0.0
 11
43.2376
 21
102.771
 31
0.0
  0
LINE
  5
D1
  8
0
 62
     7
 10
43.2376
 20
102.771
 30
0.0
 11
43.2376
 21
101.587
 31
0.0
  0
LINE
  5
D2
  8
0
 62
     7
 10
40.186799999999991
 20
102.17100000000001
 30
0.0
 11
56.537999999999997
 21
102.17100000000001
 31
0.0
  0
LINE
  5
D3
  8
0
 62
     7
 10
44.51939999999999
 20
90.123199999999997
 30
0.0
 11
31.7438
 21
90.123199999999997
 31
0.0
  0
LINE
  5
D4
  8
0
 62
     7
 10
31.7438
 20
129.12399999999991
 30
0.0
 11
44.859200000000001
 21
129.12399999999991
 31
0.0
  0
LINE
  5
D5
  8
0
  6
AIGENLINE001
 62
     7
 10
52.150599999999997
 20
123.652
 30
0.0
 11
52.150599999999997
 21
136.94599999999991
 31
0.0
  0
LINE
  5
D6
  8
0
 62
     7
 10
102.151
 20
137.745
 30
0.0
 11
102.151
 21
153.16800000000001
 31
0.0
  0
LINE
  5
D7
  8
0
 62
     7
 10
52.150599999999997
 20
137.745
 30
0.0
 11
52.150599999999997
 21
153.16800000000001
 31
0.0
  0
LINE
  5
D8
  8
0
 62
     7
 10
113.101
 20
102.624
 30
0.0
 11
123.6599999999999
 21
102.624
 31
0.0
  0
LINE
  5
D9
  8
0
 62
     7
 10
109.79299999999991
 20
90.123599999999996
 30
0.0
 11
123.6599999999999
 21
90.123599999999996
 31
0.0
  0
LINE
  5
DA
  8
0
 62
     7
 10
116.5179999999999
 20
114.124
 30
0.0
 11
124.29299999999991
 21
114.124
 31
0.0
  0
LINE
  5
DB
  8
0
 62
     7
 10
116.5179999999999
 20
144.124
 30
0.0
 11
124.29299999999991
 21
144.124
 31
0.0
  0
LINE
  5
DC
  8
0
 62
     7
 10
38.900500000000001
 20
145.27199999999999
 30
0.0
 11
38.900500000000001
 21
161.999
 31
0.0
  0
LINE
  5
DD
  8
0
 62
     7
 10
115.401
 20
145.27199999999999
 30
0.0
 11
115.401
 21
161.999
 31
0.0
  0
LINE
  5
DE
  8
0
 62
     7
 10
47.400299999999987
 20
87.286500000000004
 30
0.0
 11
47.400299999999987
 21
77.153099999999995
 31
0.0
  0
LINE
  5
DF
  8
0
 62
     7
 10
110.401
 20
87.517700000000005
 30
0.0
 11
110.401
 21
77.153099999999995
 31
0.0
  0
LINE
  5
E0
  8
0
 62
     7
 10
98.394300000000001
 20
127.1239999999999
 30
0.0
 11
55.90679999999999
 21
127.1239999999999
 31
0.0
  0
LINE
  5
E1
  8
0
 62
     7
 10
98.394300000000001
 20
131.12399999999991
 30
0.0
 11
55.90679999999999
 21
131.12399999999991
 31
0.0
  0
LINE
  5
E2
  8
0
 62
     7
 10
49.400399999999991
 20
113.40900000000001
 30
0.0
 11
49.400399999999991
 21
125.804
 31
0.0
  0
LINE
  5
E3
  8
0
 62
     7
 10
45.400300000000001
 20
113.40900000000001
 30
0.0
 11
45.400300000000001
 21
126.267
 31
0.0
  0
ARC
  5
E4
  8
0
 62
     7
 10
50.318544000000003
 20
126.2413809999999
 30
0.0
 40
4.9183379999999994
 50
135.297177
 51
179.70161899999991
  0
ARC
  5
E5
  8
0
 62
     7
 10
50.261276999999993
 20
126.262775
 30
0.0
 40
4.8626509999999996
 50
116.128316
 51
135.00169600000001
  0
LINE
  5
E6
  8
0
  6
AIGENLINE001
 62
     7
 10
115.944
 20
187.88399999999999
 30
0.0
 11
41.428099999999993
 21
187.88399999999999
 31
0.0
  0
LINE
  5
E7
  8
0
 62
     7
 10
47.400199999999998
 20
185.88399999999999
 30
0.0
 11
47.900700000000001
 21
185.88399999999999
 31
0.0
  0
LINE
  5
E8
  8
0
 62
     7
 10
56.400500000000001
 20
185.88399999999999
 30
0.0
 11
97.901300000000006
 21
185.88399999999999
 31
0.0
  0
LINE
  5
E9
  8
0
 62
     7
 10
106.401
 20
185.88399999999999
 30
0.0
 11
110.401
 21
185.88399999999999
 31
0.0
  0
LINE
  5
EA
  8
0
 62
     7
 10
47.400199999999998
 20
189.88499999999991
 30
0.0
 11
47.900700000000001
 21
189.88499999999991
 31
0.0
  0
LINE
  5
EB
  8
0
 62
     7
 10
56.400500000000001
 20
189.88499999999991
 30
0.0
 11
97.901300000000006
 21
189.88499999999991
 31
0.0
  0
LINE
  5
EC
  8
0
 62
     7
 10
106.401
 20
189.88499999999991
 30
0.0
 11
110.401
 21
189.88499999999991
 31
0.0
  0
LINE
  5
ED
  8
0
  6
AIGENLINE001
 62
     7
 10
110.401
 20
103.9609999999999
 30
0.0
 11
110.401
 21
92.981300000000005
 31
0.0
  0
LINE
  5
EE
  8
0
  6
AIGENLINE001
 62
     7
 10
110.401
 20
92.981300000000005
 30
0.0
 11
107.166
 21
90.123599999999996
 31
0.0
  0
LINE
  5
EF
  8
0
  6
AIGENLINE001
 62
     7
 10
107.166
 20
90.123599999999996
 30
0.0
 11
51.005800000000001
 21
90.123599999999996
 31
0.0
  0
ARC
  5
F0
  8
0
  6
AIGENLINE001
 62
     7
 10
51.000915999999989
 20
95.008347999999984
 30
0.0
 40
4.884771999999999
 50
252.57172499999999
 51
270.05756099999991
  0
ARC
  5
F1
  8
0
  6
AIGENLINE001
 62
     7
 10
50.627485
 20
93.416472999999996
 30
0.0
 40
3.2563589999999998
 50
187.6798159999999
 51
250.45106799999999
  0
LINE
  5
F2
  8
0
  6
AIGENLINE001
 62
     7
 10
47.400299999999987
 20
92.981300000000005
 30
0.0
 11
47.400299999999987
 21
125.961
 31
0.0
  0
ARC
  5
F3
  8
0
  6
AIGENLINE001
 62
     7
 10
49.450074999999998
 20
125.779585
 30
0.0
 40
2.057758999999999
 50
167.33605299999999
 51
174.94027600000001
  0
ARC
  5
F4
  8
0
  6
AIGENLINE001
 62
     7
 10
51.030411999999991
 20
125.4240309999999
 30
0.0
 40
3.677598999999999
 50
97.662852999999984
 51
167.32914
  0
ARC
  5
F5
  8
0
  6
AIGENLINE001
 62
     7
 10
51.325578999999998
 20
123.479657
 30
0.0
 40
5.6440659999999996
 50
89.787156999999993
 51
98.000505000000004
  0
LINE
  5
F6
  8
0
  6
AIGENLINE001
 62
     7
 10
51.346499999999999
 20
129.12399999999991
 30
0.0
 11
108.816
 21
129.12399999999991
 31
0.0
  0
LINE
  5
F7
  8
0
 62
     7
 10
45.400300000000001
 20
113.40900000000001
 30
0.0
 11
45.400300000000001
 21
92.981300000000005
 31
0.0
  0
ARC
  5
F8
  8
0
 62
     7
 10
50.321033999999997
 20
93.006904999999989
 30
0.0
 40
4.9208290000000003
 50
180.29811499999991
 51
224.690899
  0
ARC
  5
F9
  8
0
 62
     7
 10
50.282039000000012
 20
93.040941999999987
 30
0.0
 40
4.9173150000000003
 50
225.29239599999991
 51
269.71458699999988
  0
LINE
  5
FA
  8
0
 62
     7
 10
50.2575
 20
88.123699999999985
 30
0.0
 11
107.5439999999999
 21
88.123699999999985
 31
0.0
  0
ARC
  5
FB
  8
0
 62
     7
 10
107.520269
 20
93.039477000000005
 30
0.0
 40
4.9158470000000003
 50
270.27844900000002
 51
314.714608
  0
ARC
  5
FC
  8
0
 62
     7
 10
107.4820499999999
 20
93.005838999999995
 30
0.0
 40
4.9190959999999988
 50
315.306624
 51
359.71421199999997
  0
LINE
  5
FD
  8
0
 62
     7
 10
112.401
 20
92.981300000000005
 30
0.0
 11
112.401
 21
102.624
 31
0.0
  0
LINE
  5
FE
  8
0
 62
     7
 10
112.401
 20
102.624
 30
0.0
 11
108.401
 21
102.624
 31
0.0
  0
LINE
  5
FF
  8
0
 62
     7
 10
49.400399999999991
 20
113.40900000000001
 30
0.0
 11
49.400399999999991
 21
93.654799999999994
 31
0.0
  0
ARC
  5
100
  8
0
 62
     7
 10
50.760135999999989
 20
93.760746999999995
 30
0.0
 40
1.363858
 50
184.45433399999999
 51
194.07950600000001
  0
ARC
  5
101
  8
0
 62
     7
 10
51.161184999999989
 20
93.823363999999984
 30
0.0
 40
1.768475
 50
192.88629999999989
 51
235.64857299999991
  0
ARC
  5
102
  8
0
 62
     7
 10
51.040753000000002
 20
93.841835000000003
 30
0.0
 40
1.7192819999999991
 50
239.31187399999999
 51
272.47616799999997
  0
LINE
  5
103
  8
0
 62
     7
 10
51.115000000000002
 20
92.124199999999988
 30
0.0
 11
106.97199999999999
 21
92.124199999999988
 31
0.0
  0
LINE
  5
104
  8
0
 62
     7
 10
106.97199999999999
 20
92.124199999999988
 30
0.0
 11
108.401
 21
93.654799999999994
 31
0.0
  0
LINE
  5
105
  8
0
 62
     7
 10
108.401
 20
93.654799999999994
 30
0.0
 11
108.401
 21
102.624
 31
0.0
  0
LINE
  5
106
  8
0
 62
     7
 10
38.876800000000003
 20
114.124
 30
0.0
 11
45.400300000000001
 21
114.124
 31
0.0
  0
LINE
  5
107
  8
0
 62
     7
 10
49.400399999999991
 20
114.124
 30
0.0
 11
115.401
 21
114.124
 31
0.0
  0
LINE
  5
108
  8
0
 62
     7
 10
115.401
 20
114.124
 30
0.0
 11
115.401
 21
144.124
 31
0.0
  0
LINE
  5
109
  8
0
 62
     7
 10
115.401
 20
144.124
 30
0.0
 11
38.900500000000001
 21
144.124
 31
0.0
  0
LINE
  5
10A
  8
0
 62
     7
 10
38.900500000000001
 20
144.124
 30
0.0
 11
38.900500000000001
 21
114.124
 31
0.0
  0
ARC
  5
10B
  8
0
 62
     7
 10
52.065835999999997
 20
129.10260600000001
 30
0.0
 40
4.3368129999999994
 50
0.278469
 51
44.723341999999988
  0
ARC
  5
10C
  8
0
 62
     7
 10
52.093004000000001
 20
129.06708
 30
0.0
 40
4.3427360000000004
 50
45.308603999999988
 51
89.694169999999986
  0
ARC
  5
10D
  8
0
 62
     7
 10
52.138137999999998
 20
129.0717129999999
 30
0.0
 40
4.3380970000000003
 50
90.289958000000027
 51
134.7164379999999
  0
ARC
  5
10E
  8
0
 62
     7
 10
52.168519000000003
 20
129.10305500000001
 30
0.0
 40
4.3374209999999991
 50
135.2929189999999
 51
179.7274699999999
  0
ARC
  5
10F
  8
0
 62
     7
 10
52.168740999999997
 20
129.14475300000001
 30
0.0
 40
4.3376449999999993
 50
180.27831399999999
 51
224.70590200000001
  0
ARC
  5
110
  8
0
 62
     7
 10
52.139211000000003
 20
129.17978099999999
 30
0.0
 40
4.341539
 50
225.30861200000001
 51
269.69611099999992
  0
ARC
  5
111
  8
0
 62
     7
 10
52.094253999999999
 20
129.17880700000001
 30
0.0
 40
4.3405589999999989
 50
270.28948800000001
 51
314.696619
  0
ARC
  5
112
  8
0
 62
     7
 10
52.061409999999988
 20
129.14694299999999
 30
0.0
 40
4.3412509999999997
 50
315.30055099999993
 51
359.6930319999999
  0
ARC
  5
113
  8
0
 62
     7
 10
102.13181999999991
 20
129.10174599999991
 30
0.0
 40
4.3388960000000001
 50
0.289703
 51
44.712108000000001
  0
ARC
  5
114
  8
0
 62
     7
 10
102.161676
 20
129.068566
 30
0.0
 40
4.3412509999999997
 50
45.300541000000003
 51
89.693021999999985
  0
ARC
  5
115
  8
0
 62
     7
 10
102.20688299999991
 20
129.07172600000001
 30
0.0
 40
4.3380839999999994
 50
90.289886999999965
 51
134.71651
  0
ARC
  5
116
  8
0
 62
     7
 10
102.237448
 20
129.10199399999991
 30
0.0
 40
4.3382940000000003
 50
135.28462599999989
 51
179.71352400000001
  0
ARC
  5
117
  8
0
 62
     7
 10
102.2372359999999
 20
129.145633
 30
0.0
 40
4.3380839999999994
 50
180.289917
 51
224.7165399999999
  0
ARC
  5
118
  8
0
 62
     7
 10
102.2061459999999
 20
129.17539600000001
 30
0.0
 40
4.3371449999999987
 50
225.28492799999989
 51
269.71979499999998
  0
ARC
  5
119
  8
0
 62
     7
 10
102.1629939999999
 20
129.17715599999991
 30
0.0
 40
4.3389079999999991
 50
270.28973400000001
 51
314.70558299999988
  0
ARC
  5
11A
  8
0
 62
     7
 10
102.13243199999989
 20
129.14571599999999
 30
0.0
 40
4.3382839999999989
 50
315.284561
 51
359.709023
  0
LINE
  5
11B
  8
_________2
 62
     7
 10
205.2999999999999
 20
127.411
 30
0.0
 11
183.55000000000001
 21
127.411
 31
0.0
  0
LINE
  5
11C
  8
_________2
 62
     7
 10
100.2999999999999
 20
-4.0910799999999998
 30
0.0
 11
100.2999999999999
 21
-21.071400000000001
 31
0.0
  0
LINE
  5
11D
  8
_________2
 62
     7
 10
100.2999999999999
 20
275.93099999999993
 30
0.0
 11
100.2999999999999
 21
258.911
 31
0.0
  0
LINE
  5
11E
  8
_________2
 62
     7
 10
17.049499999999998
 20
127.411
 30
0.0
 11
-4.7008599999999987
 21
127.411
 31
0.0
  0
LINE
  5
11F
  8
_________2
 62
     7
 10
76.741
 20
29.8047
 30
0.0
 11
74.554699999999997
 21
29.8047
 31
0.0
  0
LINE
  5
120
  8
_________2
 62
     7
 10
77.233699999999999
 20
29.8047
 30
0.0
 11
76.981499999999997
 21
29.8047
 31
0.0
  0
LINE
  5
121
  8
_________2
 62
     7
 10
77.726299999999995
 20
29.8047
 30
0.0
 11
80.651200000000003
 21
29.8047
 31
0.0
  0
LINE
  5
122
  8
_________2
 62
     7
 10
77.233699999999999
 20
29.8047
 30
0.0
 11
77.485200000000006
 21
29.8047
 31
0.0
  0
LINE
  5
123
  8
_________2
 62
     7
 10
70.836799999999997
 20
29.8047
 30
0.0
 11
68.650499999999994
 21
29.8047
 31
0.0
  0
LINE
  5
124
  8
_________2
 62
     7
 10
71.329400000000007
 20
29.8047
 30
0.0
 11
71.077200000000005
 21
29.8047
 31
0.0
  0
LINE
  5
125
  8
_________2
 62
     7
 10
71.329400000000007
 20
30.2974
 30
0.0
 11
71.329400000000007
 21
32.484400000000001
 31
0.0
  0
LINE
  5
126
  8
_________2
 62
     7
 10
71.329400000000007
 20
29.8047
 30
0.0
 11
71.329400000000007
 21
30.056899999999992
 31
0.0
  0
LINE
  5
127
  8
_________2
 62
     7
 10
71.822100000000006
 20
29.8047
 30
0.0
 11
74.009
 21
29.8047
 31
0.0
  0
LINE
  5
128
  8
_________2
 62
     7
 10
71.329400000000007
 20
29.8047
 30
0.0
 11
71.581599999999995
 21
29.8047
 31
0.0
  0
LINE
  5
129
  8
_________2
 62
     7
 10
71.329400000000007
 20
29.312799999999999
 30
0.0
 11
71.329400000000007
 21
27.125800000000002
 31
0.0
  0
LINE
  5
12A
  8
_________2
 62
     7
 10
71.329400000000007
 20
29.8047
 30
0.0
 11
71.329400000000007
 21
29.5532
 31
0.0
  0
LINE
  5
12B
  8
_________2
 62
     7
 10
75.040499999999994
 20
28.5852
 30
0.0
 11
80.218500000000006
 21
27.720400000000001
 31
0.0
  0
LINE
  5
12C
  8
_________2
 62
     7
 10
75.040499999999994
 20
31.0243
 30
0.0
 11
80.218500000000006
 21
31.889700000000001
 31
0.0
  0
LINE
  5
12D
  8
_________2
 62
     7
 10
80.218500000000006
 20
27.720400000000001
 30
0.0
 11
80.218500000000006
 21
31.889700000000001
 31
0.0
  0
LINE
  5
12E
  8
_________2
 62
     7
 10
75.040499999999994
 20
28.5852
 30
0.0
 11
75.040499999999994
 21
31.0243
 31
0.0
  0
ARC
  5
12F
  8
_________2
 62
     7
 10
71.282522999999983
 20
29.75783599999999
 30
0.0
 40
1.267347
 50
2.1211329999999999
 51
87.878856999999996
  0
ARC
  5
130
  8
_________2
 62
     7
 10
71.375959999999992
 20
29.758213000000001
 30
0.0
 40
1.2669559999999991
 50
92.104701000000006
 51
177.8952689999999
  0
ARC
  5
131
  8
_________2
 62
     7
 10
71.376357999999996
 20
29.851671
 30
0.0
 40
1.2673680000000001
 50
182.12203600000001
 51
267.877993
  0
ARC
  5
132
  8
_________2
 62
     7
 10
71.282522999999983
 20
29.851649999999999
 30
0.0
 40
1.267347
 50
272.12114300000002
 51
357.87886700000001
  0
ARC
  5
133
  8
_________2
 62
     7
 10
71.329430000000002
 20
29.804742999999998
 30
0.0
 40
2.0849849999999992
 50
0.00001
 51
89.999980000000008
  0
ARC
  5
134
  8
_________2
 62
     7
 10
71.329431
 20
29.804742999999998
 30
0.0
 40
2.0849849999999992
 50
90.0
 51
179.99996999999991
  0
ARC
  5
135
  8
_________2
 62
     7
 10
71.408771999999999
 20
29.884799999999998
 30
0.0
 40
2.165807
 50
182.1183979999999
 51
267.90056900000002
  0
ARC
  5
136
  8
_________2
 62
     7
 10
71.249459000000002
 20
29.885429999999989
 30
0.0
 40
2.1664590000000001
 50
272.11546800000002
 51
357.86560400000002
  0
TEXT
  5
137
  8
_________2
 62
     7
 10
104.604
 20
1.6794899999999999
 30
0.0
 40
3.0923400000000001
  1
図番
 41
0.5
  0
LINE
  5
138
  8
_________2
 62
     7
 10
103.55
 20
5.9087199999999989
 30
0.0
 11
183.55099999999999
 21
5.9087199999999989
 31
0.0
  0
TEXT
  5
139
  8
_________2
 62
     7
 10
104.604
 20
11.679299999999991
 30
0.0
 40
3.0923400000000001
  1
品番
 41
0.5
  0
TEXT
  5
13A
  8
_________2
 62
     7
 10
104.604
 20
31.818100000000001
 30
0.0
 40
3.0923400000000001
  1
名称
 41
0.5
  0
TEXT
  5
13B
  8
_________2
 62
     7
 10
91.845058333333341
 20
26.821999999999989
 30
0.0
 40
3.6545800000000002
  1
mm
 41
0.5
 72
     1
 11
93.367800000000003
 21
26.821999999999989
 31
0.0
  0
TEXT
  5
13C
  8
_________2
 62
     7
 10
85.643199999999993
 20
31.818100000000001
 30
0.0
 40
3.0923400000000001
  1
単位
 41
0.5
  0
TEXT
  5
13D
  8
_________2
 62
     7
 10
85.643199999999993
 20
19.410799999999991
 30
0.0
 40
3.0923400000000001
  1
尺度
 41
0.5
  0
TEXT
  5
13E
  8
_________2
 62
     7
 10
90.548758666666686
 20
13.2179
 30
0.0
 40
3.6545800000000002
  1
1 ： 2
 41
0.5
 72
     1
 11
93.959699999999998
 21
13.2179
 31
0.0
  0
TEXT
  5
13F
  8
_________2
 62
     7
 10
138.62937500000001
 20
9.1078600000000005
 30
0.0
 40
3.9357000000000002
  1
VL.T12
 41
0.5
 72
     1
 11
143.54900000000001
 21
9.1078600000000005
 31
0.0
  0
TEXT
  5
140
  8
_________2
 62
     7
 10
138.95734999999999
 20
-0.8926299999999999
 30
0.0
 40
3.9357000000000002
  1
VLT12
 41
0.5
 72
     1
 11
143.54900000000001
 21
-0.8926299999999999
 31
0.0
  0
TEXT
  5
141
  8
_________2
 62
     7
 10
109.1779999999999
 20
24.2257
 30
0.0
 40
3.9357000000000002
  1
ボラ　ペーパーホルダー
 41
0.5
  0
TEXT
  5
142
  8
_________2
 62
     7
 10
39.303480999999991
 20
13.603
 30
0.0
 40
3.6545800000000002
  1
田尻
 41
0.5
 72
     1
 11
41.313499999999998
 21
13.603
 31
0.0
  0
TEXT
  5
143
  8
_________2
 62
     7
 10
20.789690666666662
 20
13.603
 30
0.0
 40
3.6545800000000002
  1
石原
 41
0.5
 72
     1
 11
22.738800000000001
 21
13.603
 31
0.0
  0
TEXT
  5
144
  8
_________2
 62
     7
 10
67.7851
 20
13.2179
 30
0.0
 40
3.6545800000000002
  1
10.07.14
 41
0.5
  0
TEXT
  5
145
  8
_________2
 62
     7
 10
66.593100000000007
 20
19.410799999999991
 30
0.0
 40
3.0923400000000001
  1
日付
 41
0.5
  0
TEXT
  5
146
  8
_________2
 62
     7
 10
29.639399999999998
 20
19.410799999999991
 30
0.0
 40
3.0923400000000001
  1
検図
 41
0.5
  0
TEXT
  5
147
  8
_________2
 62
     7
 10
18.021100000000001
 20
5.21143
 30
0.0
 40
3.0923400000000001
  1
備考
 41
0.5
  0
TEXT
  5
148
  8
_________2
 62
     7
 10
18.021100000000001
 20
19.410799999999991
 30
0.0
 40
3.0923400000000001
  1
製図
 41
0.5
  0
TEXT
  5
149
  8
_________2
 62
     7
 10
23.788465333333338
 20
27.936800000000002
 30
0.0
 40
4.4979399999999989
  1
セラトレーディング株式会社
 41
0.5
 72
     1
 11
41.180500000000002
 21
27.936800000000002
 31
0.0
  0
LINE
  5
14A
  8
_________2
 62
     7
 10
183.55099999999999
 20
-4.0910799999999998
 30
0.0
 11
17.049499999999998
 21
-4.0910799999999998
 31
0.0
  0
LINE
  5
14B
  8
_________2
 62
     7
 10
17.049499999999998
 20
-4.0910799999999998
 30
0.0
 11
17.049499999999998
 21
258.911
 31
0.0
  0
LINE
  5
14C
  8
_________2
 62
     7
 10
17.049499999999998
 20
258.911
 30
0.0
 11
183.55099999999999
 21
258.911
 31
0.0
  0
LINE
  5
14D
  8
_________2
 62
     7
 10
183.55099999999999
 20
258.911
 30
0.0
 11
183.55099999999999
 21
-4.0910799999999998
 31
0.0
  0
LINE
  5
14E
  8
_________2
 62
     7
 10
65.549199999999999
 20
9.4089600000000004
 30
0.0
 11
65.549199999999999
 21
35.908799999999999
 31
0.0
  0
LINE
  5
14F
  8
_________2
 62
     7
 10
84.549700000000016
 20
9.4089600000000004
 30
0.0
 11
84.549700000000016
 21
35.908799999999999
 31
0.0
  0
LINE
  5
150
  8
_________2
 62
     7
 10
103.55
 20
-4.0910799999999998
 30
0.0
 11
103.55
 21
35.908799999999999
 31
0.0
  0
LINE
  5
151
  8
_________2
 62
     7
 10
28.549299999999992
 20
9.4089600000000004
 30
0.0
 11
28.549299999999992
 21
23.409199999999998
 31
0.0
  0
LINE
  5
152
  8
_________2
 62
     7
 10
17.049499999999998
 20
9.4089600000000004
 30
0.0
 11
103.55
 21
9.4089600000000004
 31
0.0
  0
LINE
  5
153
  8
_________2
 62
     7
 10
17.049499999999998
 20
23.409199999999998
 30
0.0
 11
103.55
 21
23.409199999999998
 31
0.0
  0
LINE
  5
154
  8
_________2
 62
     7
 10
103.55
 20
15.9085
 30
0.0
 11
183.55099999999999
 21
15.9085
 31
0.0
  0
LINE
  5
155
  8
_________2
 62
     7
 10
17.049499999999998
 20
35.908799999999999
 30
0.0
 11
183.55099999999999
 21
35.908799999999999
 31
0.0
  0
TEXT
  5
156
  8
_________2
 62
     7
 10
141.05480999999989
 20
39.068699999999993
 30
0.0
 40
3.9357000000000002
  1
注：色番号はカタログを参照ください
 41
0.5
 72
     2
 11
180.54300000000001
 21
39.068699999999993
 31
0.0
  0
ARC
  5
175
  8
0
 62
     7
 10
40.761836363636249
 20
187.8845
 30
0.0
 40
7.4138636532240492
 50
344.3457110770803
 51
15.6542889229196
  0
LINE
  5
176
  8
0
 62
     7
 10
47.900700000000001
 20
184.38399999999999
 30
0.0
 11
47.900700000000001
 21
185.88399999999999
 31
0.0
  0
ARC
  5
17B
  8
0
 62
     7
 10
60.152499999999918
 20
187.8845
 30
0.0
 40
4.2520000293978581
 50
151.93425057346559
 51
208.06574942653421
  0
LINE
  5
17C
  8
0
 62
     7
 10
56.400500000000001
 20
185.88399999999999
 30
0.0
 11
56.400500000000001
 21
184.38399999999999
 31
0.0
  0
ARC
  5
17F
  8
0
 62
     7
 10
94.149300000000025
 20
187.8845
 30
0.0
 40
4.2520000293978946
 50
331.93425057346599
 51
28.065749426534008
  0
LINE
  5
180
  8
0
 62
     7
 10
97.901300000000006
 20
184.38399999999999
 30
0.0
 11
97.901300000000006
 21
185.88399999999999
 31
0.0
  0
ENDSEC
  0
EOF
