  0
SECTION
  2
HEADER
  9
$ACADVER
  1
AC1009
  9
$INSBASE
 10
0.0
 20
0.0
 30
0.0
  9
$EXTMIN
 10
-4.7008599999999987
 20
-21.071400000000001
 30
0.0
  9
$EXTMAX
 10
205.30000000000001
 20
275.93099999999998
 30
0.0
  9
$LIMMIN
 10
0.0
 20
0.0
  9
$LIMMAX
 10
12.0
 20
9.0
  9
$ORTHOMODE
 70
     0
  9
$REGENMODE
 70
     1
  9
$FILLMODE
 70
     1
  9
$QTEXTMODE
 70
     0
  9
$MIRRTEXT
 70
     1
  9
$DRAGMODE
 70
     2
  9
$LTSCALE
 40
1.0
  9
$OSMODE
 70
    37
  9
$ATTMODE
 70
     1
  9
$TEXTSIZE
 40
0.0
  9
$TRACEWID
 40
0.05
  9
$TEXTSTYLE
  7
STANDARD
  9
$CLAYER
  8
0
  9
$CELTYPE
  6
CONTINUOUS
  9
$CECOLOR
 62
   256
  9
$DIMSCALE
 40
1.0
  9
$DIMASZ
 40
0.18
  9
$DIMEXO
 40
0.0625
  9
$DIMDLI
 40
0.38
  9
$DIMRND
 40
0.0
  9
$DIMDLE
 40
0.0
  9
$DIMEXE
 40
0.18
  9
$DIMTP
 40
0.0
  9
$DIMTM
 40
0.0
  9
$DIMTXT
 40
0.18
  9
$DIMCEN
 40
0.09
  9
$DIMTSZ
 40
0.0
  9
$DIMTOL
 70
     0
  9
$DIMLIM
 70
     0
  9
$DIMTIH
 70
     1
  9
$DIMTOH
 70
     1
  9
$DIMSE1
 70
     0
  9
$DIMSE2
 70
     0
  9
$DIMTAD
 70
     0
  9
$DIMZIN
 70
     0
  9
$DIMBLK
  1

  9
$DIMASO
 70
     1
  9
$DIMSHO
 70
     1
  9
$DIMPOST
  1

  9
$DIMAPOST
  1

  9
$DIMALT
 70
     0
  9
$DIMALTD
 70
     2
  9
$DIMALTF
 40
25.399999999999999
  9
$DIMLFAC
 40
1.0
  9
$DIMTOFL
 70
     0
  9
$DIMTVP
 40
0.0
  9
$DIMTIX
 70
     0
  9
$DIMSOXD
 70
     0
  9
$DIMSAH
 70
     0
  9
$DIMBLK1
  1

  9
$DIMBLK2
  1

  9
$DIMSTYLE
  2
STANDARD
  9
$DIMCLRD
 70
     0
  9
$DIMCLRE
 70
     0
  9
$DIMCLRT
 70
     0
  9
$DIMTFAC
 40
1.0
  9
$DIMGAP
 40
0.09
  9
$LUNITS
 70
     2
  9
$LUPREC
 70
     4
  9
$SKETCHINC
 40
0.1
  9
$FILLETRAD
 40
0.0
  9
$AUNITS
 70
     0
  9
$AUPREC
 70
     0
  9
$MENU
  1
.
  9
$ELEVATION
 40
0.0
  9
$PELEVATION
 40
0.0
  9
$THICKNESS
 40
0.0
  9
$LIMCHECK
 70
     0
  9
$BLIPMODE
 70
     0
  9
$CHAMFERA
 40
0.0
  9
$CHAMFERB
 40
0.0
  9
$SKPOLY
 70
     0
  9
$TDCREATE
 40
2444972.375
  9
$TDUPDATE
 40
2457164.2541073612
  9
$TDINDWG
 40
0.0000285764
  9
$TDUSRTIMER
 40
0.0000285764
  9
$USRTIMER
 70
     1
  9
$ANGBASE
 50
0.0
  9
$ANGDIR
 70
     0
  9
$PDMODE
 70
     0
  9
$PDSIZE
 40
0.0
  9
$PLINEWID
 40
0.0
  9
$COORDS
 70
     1
  9
$SPLFRAME
 70
     0
  9
$SPLINETYPE
 70
     6
  9
$SPLINESEGS
 70
     8
  9
$ATTDIA
 70
     1
  9
$ATTREQ
 70
     1
  9
$HANDLING
 70
     1
  9
$HANDSEED
  5
218
  9
$SURFTAB1
 70
     6
  9
$SURFTAB2
 70
     6
  9
$SURFTYPE
 70
     6
  9
$SURFU
 70
     6
  9
$SURFV
 70
     6
  9
$UCSNAME
  2

  9
$UCSORG
 10
0.0
 20
0.0
 30
0.0
  9
$UCSXDIR
 10
1.0
 20
0.0
 30
0.0
  9
$UCSYDIR
 10
0.0
 20
1.0
 30
0.0
  9
$PUCSNAME
  2

  9
$PUCSORG
 10
0.0
 20
0.0
 30
0.0
  9
$PUCSXDIR
 10
1.0
 20
0.0
 30
0.0
  9
$PUCSYDIR
 10
0.0
 20
1.0
 30
0.0
  9
$USERI1
 70
     0
  9
$USERI2
 70
     0
  9
$USERI3
 70
     0
  9
$USERI4
 70
     0
  9
$USERI5
 70
     0
  9
$USERR1
 40
0.0
  9
$USERR2
 40
0.0
  9
$USERR3
 40
0.0
  9
$USERR4
 40
0.0
  9
$USERR5
 40
0.0
  9
$WORLDVIEW
 70
     1
  9
$SHADEDGE
 70
     3
  9
$SHADEDIF
 70
    70
  9
$TILEMODE
 70
     1
  9
$MAXACTVP
 70
    48
  9
$PLIMCHECK
 70
     0
  9
$PEXTMIN
 10
1.0000000000000000E+020
 20
1.0000000000000000E+020
 30
1.0000000000000000E+020
  9
$PEXTMAX
 10
-1.0000000000000000E+020
 20
-1.0000000000000000E+020
 30
-1.0000000000000000E+020
  9
$PLIMMIN
 10
0.0
 20
0.0
  9
$PLIMMAX
 10
12.0
 20
9.0
  9
$UNITMODE
 70
     0
  9
$VISRETAIN
 70
     1
  9
$PLINEGEN
 70
     0
  9
$PSLTSCALE
 70
     1
  0
ENDSEC
  0
SECTION
  2
TABLES
  0
TABLE
  2
VPORT
 70
     1
  0
VPORT
  2
*ACTIVE
 70
     0
 10
0.0
 20
0.0
 11
1.0
 21
1.0
 12
136.77572561306471
 22
127.4298
 13
0.0
 23
0.0
 14
1.0
 24
1.0
 15
0.0
 25
0.0
 16
0.0
 26
0.0
 36
1.0
 17
0.0
 27
0.0
 37
0.0
 40
283.65153601864881
 41
1.9691714836223499
 42
50.0
 43
0.0
 44
0.0
 50
0.0
 51
0.0
 71
     0
 72
   100
 73
     1
 74
     1
 75
     0
 76
     0
 77
     0
 78
     0
  0
ENDTAB
  0
TABLE
  2
LTYPE
 70
     3
  0
LTYPE
  2
CONTINUOUS
 70
     0
  3
Solid line
 72
    65
 73
     0
 40
0.0
  0
LTYPE
  2
AIGENLINE001
 70
     0
  3
generate AI->DXF Converter
 72
    65
 73
     4
 40
5.8561449999999988
 49
3.5278
 49
-0.776115
 49
0.776115
 49
-0.776115
  0
LTYPE
  2
AIGENLINE002
 70
     0
  3
generate AI->DXF Converter
 72
    65
 73
     3
 40
1.5522299999999991
 49
0.776115
 49
-0.776115
 49
0.0
  0
ENDTAB
  0
TABLE
  2
LAYER
 70
     2
  0
LAYER
  2
0
 70
     0
 62
     7
  6
CONTINUOUS
  0
LAYER
  2
_________2
 70
     0
 62
     7
  6
CONTINUOUS
  0
ENDTAB
  0
TABLE
  2
STYLE
 70
     1
  0
STYLE
  2
STANDARD
 70
     0
 40
0.0
 41
0.0
 50
0.0
 71
     0
 42
0.0
  3
TXT
  4
EXTFONT.SHX
  0
ENDTAB
  0
TABLE
  2
VIEW
 70
     0
  0
ENDTAB
  0
TABLE
  2
UCS
 70
     0
  0
ENDTAB
  0
TABLE
  2
APPID
 70
     3
  0
APPID
  2
ACAD
 70
     0
  0
APPID
  2
ACAD_NAV_VCDISPLAY
 70
     0
  0
APPID
  2
ACAD_MLEADERVER
 70
     0
  0
ENDTAB
  0
TABLE
  2
DIMSTYLE
 70
     1
  0
DIMSTYLE
  2
STANDARD
 70
     0
  3

  4

  5

  6

  7

 40
1.0
 41
0.18
 42
0.0625
 43
0.38
 44
0.18
 45
0.0
 46
0.0
 47
0.0
 48
0.0
140
0.18
141
0.09
142
0.0
143
25.399999999999999
144
1.0
145
0.0
146
1.0
147
0.09
 71
     0
 72
     0
 73
     1
 74
     1
 75
     0
 76
     0
 77
     0
 78
     0
170
     0
171
     2
172
     0
173
     0
174
     0
175
     0
176
     0
177
     0
178
     0
  0
ENDTAB
  0
ENDSEC
  0
SECTION
  2
BLOCKS
  0
BLOCK
  8
0
  2
$MODEL_SPACE
 70
     0
 10
0.0
 20
0.0
 30
0.0
  3
$MODEL_SPACE
  1

  0
ENDBLK
  5
1A
  8
0
  0
BLOCK
 67
     1
  8
0
  2
$PAPER_SPACE
 70
     0
 10
0.0
 20
0.0
 30
0.0
  3
$PAPER_SPACE
  1

  0
ENDBLK
  5
17
 67
     1
  8
0
  0
ENDSEC
  0
SECTION
  2
ENTITIES
  0
TEXT
  5
23
  8
0
 62
     7
 10
117.68549899999999
 20
203.08099999999999
 30
0.0
 40
3.0923400000000001
  1
樹脂プラグ%%c6\U+00D730付
 41
0.5
 72
     2
 11
136.18799999999999
 21
203.08099999999999
 31
0.0
  0
TEXT
  5
24
  8
0
 62
     7
 10
108.963025
 20
207.73599999999999
 30
0.0
 40
3.0923400000000001
  1
SSクロメート皿木ねじ%%c4\U+00D740
 41
0.5
 72
     2
 11
136.02099999999999
 21
207.73599999999999
 31
0.0
  0
TEXT
  5
25
  8
0
 62
     7
 10
78.793234999999996
 20
146.43100000000001
 30
0.0
 40
3.0923400000000001
  1
153
 41
0.5
 72
     1
 11
80.597099999999998
 21
146.43100000000001
 31
0.0
  0
TEXT
  5
26
  8
0
 62
     7
 10
156.17552499999999
 20
89.682599999999994
 30
0.0
 40
3.0923400000000001
  1
23
 41
0.5
 72
     1
 11
157.464
 21
89.682599999999994
 31
0.0
  0
TEXT
  5
27
  8
0
 62
     7
 10
144.25999999999999
 20
119.976135
 30
0.0
 40
3.0923400000000001
  1
%%c17
 50
90.0
 41
0.5
 72
     1
 11
144.25999999999999
 21
121.78
 31
0.0
  0
TEXT
  5
28
  8
0
 62
     7
 10
134.92500000000001
 20
113.1059825
 30
0.0
 40
3.0923400000000001
  1
102
 50
90.0
 41
0.5
 72
     1
 11
134.92500000000001
 21
114.78100000000001
 31
0.0
  0
TEXT
  5
29
  8
0
 62
     7
 10
127.45
 20
120.6203725
 30
0.0
 40
3.0923400000000001
  1
60
 50
90.0
 41
0.5
 72
     1
 11
127.45
 21
121.78
 31
0.0
  0
TEXT
  5
2A
  8
0
 62
     7
 10
175.23500000000001
 20
125.62137250000001
 30
0.0
 40
3.0923400000000001
  1
30
 50
90.0
 41
0.5
 72
     1
 11
175.23500000000001
 21
126.78100000000001
 31
0.0
  0
TEXT
  5
2B
  8
0
 62
     7
 10
155.1323725
 20
136.57300000000001
 30
0.0
 40
3.0923400000000001
  1
30
 41
0.5
 72
     1
 11
156.292
 21
136.57300000000001
 31
0.0
  0
TEXT
  5
2C
  8
0
 62
     7
 10
78.624440000000007
 20
89.682599999999994
 30
0.0
 40
3.0923400000000001
  1
242
 41
0.5
 72
     1
 11
80.686000000000007
 21
89.682599999999994
 31
0.0
  0
TEXT
  5
2D
  8
0
 62
     7
 10
79.397525000000002
 20
139.53399999999999
 30
0.0
 40
3.0923400000000001
  1
99
 41
0.5
 72
     1
 11
80.686000000000007
 21
139.53399999999999
 31
0.0
  0
TEXT
  5
2E
  8
0
 62
     7
 10
32.855200000000004
 20
109.158525
 30
0.0
 40
3.0923400000000001
  1
76
 50
90.0
 41
0.5
 72
     1
 11
32.855200000000004
 21
110.447
 31
0.0
  0
TEXT
  5
2F
  8
0
 62
     7
 10
54.615600000000001
 20
103.94105
 30
0.0
 40
3.0923400000000001
  1
%%c8
 50
90.0
 41
0.5
 72
     2
 11
54.615600000000001
 21
106.518
 31
0.0
  0
ARC
  5
30
  8
0
 62
     7
 10
64.185806999999997
 20
121.780073
 30
0.0
 40
2.8332649999999999
 50
270.00002000000001
 51
359.99999000000003
  0
ARC
  5
31
  8
0
 62
     7
 10
64.185806999999997
 20
121.780072
 30
0.0
 40
2.8332639999999989
 50
179.99996999999999
 51
270.00002000000001
  0
ARC
  5
32
  8
0
 62
     7
 10
64.185807999999994
 20
121.780072
 30
0.0
 40
2.8332649999999999
 50
90.0
 51
179.99996999999999
  0
ARC
  5
33
  8
0
 62
     7
 10
64.185806999999997
 20
121.780072
 30
0.0
 40
2.8332649999999999
 50
0.00001
 51
89.999980000000008
  0
ARC
  5
34
  8
0
 62
     7
 10
97.186068999999989
 20
121.780073
 30
0.0
 40
2.8332649999999999
 50
270.00002000000001
 51
359.99999000000003
  0
ARC
  5
35
  8
0
 62
     7
 10
97.186068999999989
 20
121.780072
 30
0.0
 40
2.8332639999999989
 50
179.99996999999999
 51
270.00002000000001
  0
ARC
  5
36
  8
0
 62
     7
 10
97.186068999999989
 20
121.780072
 30
0.0
 40
2.8332649999999999
 50
90.0
 51
179.99996999999999
  0
ARC
  5
37
  8
0
 62
     7
 10
97.186068999999989
 20
121.780072
 30
0.0
 40
2.8332649999999999
 50
0.00001
 51
89.999980000000008
  0
LINE
  5
38
  8
0
 62
     7
 10
61.352499999999999
 20
180.63900000000001
 30
0.0
 11
67.019099999999995
 21
180.63900000000001
 31
0.0
  0
LINE
  5
39
  8
0
 62
     7
 10
67.019099999999995
 20
189.97200000000001
 30
0.0
 11
67.019099999999995
 21
180.63900000000001
 31
0.0
  0
LINE
  5
3A
  8
0
 62
     7
 10
61.352499999999999
 20
189.97200000000001
 30
0.0
 11
61.352499999999999
 21
180.63900000000001
 31
0.0
  0
LINE
  5
3B
  8
0
 62
     7
 10
65.232399999999998
 20
191.80000000000001
 30
0.0
 11
63.209499999999991
 21
190.58799999999999
 31
0.0
  0
LINE
  5
3C
  8
0
 62
     7
 10
65.232399999999998
 20
192.97999999999999
 30
0.0
 11
63.209499999999991
 21
191.767
 31
0.0
  0
LINE
  5
3D
  8
0
 62
     7
 10
65.232399999999998
 20
194.15899999999999
 30
0.0
 11
63.209499999999991
 21
192.947
 31
0.0
  0
LINE
  5
3E
  8
0
 62
     7
 10
65.232399999999998
 20
195.33799999999999
 30
0.0
 11
63.209499999999991
 21
194.12599999999989
 31
0.0
  0
LINE
  5
3F
  8
0
 62
     7
 10
65.232399999999998
 20
196.518
 30
0.0
 11
63.209499999999991
 21
195.3059999999999
 31
0.0
  0
LINE
  5
40
  8
0
 62
     7
 10
65.232399999999998
 20
197.69800000000001
 30
0.0
 11
63.209499999999991
 21
196.48500000000001
 31
0.0
  0
LINE
  5
41
  8
0
 62
     7
 10
65.232399999999998
 20
198.87700000000001
 30
0.0
 11
63.209499999999991
 21
197.66499999999999
 31
0.0
  0
LINE
  5
42
  8
0
 62
     7
 10
65.232399999999998
 20
200.05600000000001
 30
0.0
 11
63.209499999999991
 21
198.845
 31
0.0
  0
LINE
  5
43
  8
0
 62
     7
 10
63.668399999999991
 20
190.63800000000001
 30
0.0
 11
63.668399999999991
 21
198.929
 31
0.0
  0
LINE
  5
44
  8
0
 62
     7
 10
63.668399999999991
 20
198.929
 30
0.0
 11
64.187899999999999
 21
200.63900000000001
 31
0.0
  0
LINE
  5
45
  8
0
 62
     7
 10
64.703999999999994
 20
190.63800000000001
 30
0.0
 11
64.703999999999994
 21
198.94
 31
0.0
  0
LINE
  5
46
  8
0
 62
     7
 10
64.703999999999994
 20
198.94
 30
0.0
 11
64.187899999999999
 21
200.63900000000001
 31
0.0
  0
LINE
  5
47
  8
0
  6
AIGENLINE001
 62
     7
 10
64.1858
 20
202.82900000000001
 30
0.0
 11
64.1858
 21
178.61600000000001
 31
0.0
  0
LINE
  5
48
  8
0
 62
     7
 10
94.352999999999994
 20
180.63900000000001
 30
0.0
 11
100.01900000000001
 21
180.63900000000001
 31
0.0
  0
LINE
  5
49
  8
0
 62
     7
 10
100.01900000000001
 20
189.97200000000001
 30
0.0
 11
100.01900000000001
 21
180.63900000000001
 31
0.0
  0
LINE
  5
4A
  8
0
 62
     7
 10
94.352999999999994
 20
189.97200000000001
 30
0.0
 11
94.352999999999994
 21
180.63900000000001
 31
0.0
  0
ARC
  5
4B
  8
0
 62
     7
 10
120.968407
 20
182.92057199999999
 30
0.0
 40
1.3851830000000001
 50
2.109329999999999
 51
87.890659999999997
  0
ARC
  5
4C
  8
0
 62
     7
 10
120.968397
 20
183.02255
 30
0.0
 40
1.3851929999999999
 50
272.109737
 51
357.89027299999998
  0
ARC
  5
4D
  8
0
 62
     7
 10
40.403469000000001
 20
183.02253899999999
 30
0.0
 40
1.385181999999999
 50
182.10933299999999
 51
267.89069699999999
  0
ARC
  5
4E
  8
0
 62
     7
 10
40.403872
 20
182.92017000000001
 30
0.0
 40
1.385599
 50
92.125329000000008
 51
177.874641
  0
LINE
  5
4F
  8
0
 62
     7
 10
98.893500000000003
 20
200.898
 30
0.0
 11
97.704200000000014
 21
198.94
 31
0.0
  0
LINE
  5
50
  8
0
 62
     7
 10
97.704200000000014
 20
198.94
 30
0.0
 11
99.712699999999998
 21
200.041
 31
0.0
  0
LINE
  5
51
  8
0
 62
     7
 10
99.712699999999998
 20
200.041
 30
0.0
 11
98.893500000000003
 21
200.898
 31
0.0
  0
LINE
  5
52
  8
0
 62
     7
 10
136.02099999999999
 20
207.036
 30
0.0
 11
106.161
 21
207.036
 31
0.0
  0
LINE
  5
53
  8
0
 62
     7
 10
106.161
 20
207.036
 30
0.0
 11
97.704200000000014
 21
198.94
 31
0.0
  0
LINE
  5
54
  8
0
 62
     7
 10
119.547
 20
88.592600000000004
 30
0.0
 11
121.02
 21
88.987399999999994
 31
0.0
  0
LINE
  5
55
  8
0
 62
     7
 10
121.02
 20
88.987399999999994
 30
0.0
 11
119.547
 21
89.382199999999983
 31
0.0
  0
LINE
  5
56
  8
0
 62
     7
 10
119.547
 20
89.382199999999983
 30
0.0
 11
119.547
 21
88.592600000000004
 31
0.0
  0
LINE
  5
57
  8
0
 62
     7
 10
41.826300000000003
 20
89.372500000000002
 30
0.0
 11
40.352499999999999
 21
88.977699999999984
 31
0.0
  0
LINE
  5
58
  8
0
 62
     7
 10
40.352499999999999
 20
88.977699999999984
 30
0.0
 11
41.826300000000003
 21
88.582899999999995
 31
0.0
  0
LINE
  5
59
  8
0
 62
     7
 10
41.826300000000003
 20
88.582899999999995
 30
0.0
 11
41.826300000000003
 21
89.372500000000002
 31
0.0
  0
LINE
  5
5A
  8
0
 62
     7
 10
121.021
 20
88.982600000000005
 30
0.0
 11
40.352499999999999
 21
88.982600000000005
 31
0.0
  0
LINE
  5
5B
  8
0
 62
     7
 10
121.02
 20
88.277699999999996
 30
0.0
 11
121.02
 21
98.953400000000002
 31
0.0
  0
LINE
  5
5C
  8
0
 62
     7
 10
40.352499999999999
 20
88.277699999999996
 30
0.0
 11
40.352499999999999
 21
98.953400000000002
 31
0.0
  0
LINE
  5
5D
  8
0
 62
     7
 10
98.232699999999994
 20
191.80000000000001
 30
0.0
 11
96.209900000000005
 21
190.58799999999999
 31
0.0
  0
LINE
  5
5E
  8
0
 62
     7
 10
98.232699999999994
 20
192.97999999999999
 30
0.0
 11
96.209900000000005
 21
191.767
 31
0.0
  0
LINE
  5
5F
  8
0
 62
     7
 10
98.232699999999994
 20
194.15899999999999
 30
0.0
 11
96.209900000000005
 21
192.947
 31
0.0
  0
LINE
  5
60
  8
0
 62
     7
 10
98.232699999999994
 20
195.33799999999999
 30
0.0
 11
96.209900000000005
 21
194.12599999999989
 31
0.0
  0
LINE
  5
61
  8
0
 62
     7
 10
98.232699999999994
 20
196.518
 30
0.0
 11
96.209900000000005
 21
195.3059999999999
 31
0.0
  0
LINE
  5
62
  8
0
 62
     7
 10
98.232699999999994
 20
197.69800000000001
 30
0.0
 11
96.209900000000005
 21
196.48500000000001
 31
0.0
  0
LINE
  5
63
  8
0
 62
     7
 10
98.232699999999994
 20
198.87700000000001
 30
0.0
 11
96.209900000000005
 21
197.66499999999999
 31
0.0
  0
LINE
  5
64
  8
0
 62
     7
 10
98.232699999999994
 20
200.05600000000001
 30
0.0
 11
96.209900000000005
 21
198.845
 31
0.0
  0
LINE
  5
65
  8
0
 62
     7
 10
96.668599999999984
 20
190.63800000000001
 30
0.0
 11
96.668599999999984
 21
198.929
 31
0.0
  0
LINE
  5
66
  8
0
 62
     7
 10
96.668599999999984
 20
198.929
 30
0.0
 11
97.188100000000006
 21
200.63900000000001
 31
0.0
  0
LINE
  5
67
  8
0
 62
     7
 10
97.704200000000014
 20
190.63800000000001
 30
0.0
 11
97.704200000000014
 21
198.94
 31
0.0
  0
LINE
  5
68
  8
0
 62
     7
 10
97.704200000000014
 20
198.94
 30
0.0
 11
97.188100000000006
 21
200.63900000000001
 31
0.0
  0
LINE
  5
69
  8
0
  6
AIGENLINE001
 62
     7
 10
97.186099999999996
 20
202.82900000000001
 30
0.0
 11
97.186099999999996
 21
178.61600000000001
 31
0.0
  0
LINE
  5
6A
  8
0
 62
     7
 10
106.01900000000001
 20
189.97200000000001
 30
0.0
 11
106.01900000000001
 21
190.63800000000001
 31
0.0
  0
LINE
  5
6B
  8
0
 62
     7
 10
55.352499999999999
 20
190.63800000000001
 30
0.0
 11
55.352499999999999
 21
189.97200000000001
 31
0.0
  0
LINE
  5
6C
  8
0
 62
     7
 10
55.352499999999999
 20
190.63800000000001
 30
0.0
 11
106.01900000000001
 21
190.63800000000001
 31
0.0
  0
LINE
  5
6D
  8
0
 62
     7
 10
55.352499999999999
 20
189.97200000000001
 30
0.0
 11
106.01900000000001
 21
189.97200000000001
 31
0.0
  0
LINE
  5
6E
  8
0
 62
     7
 10
162.453
 20
120.733
 30
0.0
 11
161.24000000000001
 21
122.756
 31
0.0
  0
LINE
  5
6F
  8
0
 62
     7
 10
163.63300000000001
 20
120.733
 30
0.0
 11
162.41999999999999
 21
122.756
 31
0.0
  0
LINE
  5
70
  8
0
 62
     7
 10
164.81200000000001
 20
120.733
 30
0.0
 11
163.59999999999999
 21
122.756
 31
0.0
  0
LINE
  5
71
  8
0
 62
     7
 10
165.99100000000001
 20
120.733
 30
0.0
 11
164.779
 21
122.756
 31
0.0
  0
LINE
  5
72
  8
0
 62
     7
 10
167.17099999999999
 20
120.733
 30
0.0
 11
165.959
 21
122.756
 31
0.0
  0
LINE
  5
73
  8
0
 62
     7
 10
168.351
 20
120.733
 30
0.0
 11
167.13800000000001
 21
122.756
 31
0.0
  0
LINE
  5
74
  8
0
 62
     7
 10
169.53
 20
120.733
 30
0.0
 11
168.31800000000001
 21
122.756
 31
0.0
  0
LINE
  5
75
  8
0
 62
     7
 10
170.709
 20
120.733
 30
0.0
 11
169.49799999999999
 21
122.756
 31
0.0
  0
LINE
  5
76
  8
0
 62
     7
 10
161.291
 20
122.298
 30
0.0
 11
169.58199999999999
 21
122.298
 31
0.0
  0
LINE
  5
77
  8
0
 62
     7
 10
169.58199999999999
 20
122.298
 30
0.0
 11
171.292
 21
121.77800000000001
 31
0.0
  0
LINE
  5
78
  8
0
 62
     7
 10
161.291
 20
121.26300000000001
 30
0.0
 11
169.59299999999999
 21
121.26300000000001
 31
0.0
  0
LINE
  5
79
  8
0
 62
     7
 10
169.59299999999999
 20
121.26300000000001
 30
0.0
 11
171.292
 21
121.77800000000001
 31
0.0
  0
LINE
  5
7A
  8
0
 62
     7
 10
155.09899999999999
 20
89.372500000000002
 30
0.0
 11
153.625
 21
88.977699999999984
 31
0.0
  0
LINE
  5
7B
  8
0
 62
     7
 10
153.625
 20
88.977699999999984
 30
0.0
 11
155.09899999999999
 21
88.582899999999995
 31
0.0
  0
LINE
  5
7C
  8
0
 62
     7
 10
155.09899999999999
 20
88.582899999999995
 30
0.0
 11
155.09899999999999
 21
89.372500000000002
 31
0.0
  0
LINE
  5
7D
  8
0
 62
     7
 10
159.81700000000001
 20
88.592600000000004
 30
0.0
 11
161.291
 21
88.987399999999994
 31
0.0
  0
LINE
  5
7E
  8
0
 62
     7
 10
161.291
 20
88.987399999999994
 30
0.0
 11
159.81700000000001
 21
89.382900000000006
 31
0.0
  0
LINE
  5
7F
  8
0
 62
     7
 10
159.81700000000001
 20
89.382900000000006
 30
0.0
 11
159.81700000000001
 21
88.592600000000004
 31
0.0
  0
LINE
  5
80
  8
0
 62
     7
 10
154.00800000000001
 20
88.982600000000005
 30
0.0
 11
161.291
 21
88.982600000000005
 31
0.0
  0
LINE
  5
81
  8
0
 62
     7
 10
161.291
 20
88.520200000000017
 30
0.0
 11
161.291
 21
110.789
 31
0.0
  0
LINE
  5
82
  8
0
 62
     7
 10
153.625
 20
88.520200000000017
 30
0.0
 11
153.625
 21
96.153199999999998
 31
0.0
  0
LINE
  5
83
  8
0
  6
AIGENLINE001
 62
     7
 10
153.625
 20
125.42
 30
0.0
 11
153.625
 21
97.107500000000002
 31
0.0
  0
LINE
  5
84
  8
0
 62
     7
 10
176.63
 20
131.78100000000001
 30
0.0
 11
161.99100000000001
 21
131.78100000000001
 31
0.0
  0
LINE
  5
85
  8
0
 62
     7
 10
175.54499999999999
 20
123.255
 30
0.0
 11
175.94
 21
121.78100000000001
 31
0.0
  0
LINE
  5
86
  8
0
 62
     7
 10
175.94
 20
121.78100000000001
 30
0.0
 11
176.33500000000001
 21
123.255
 31
0.0
  0
LINE
  5
87
  8
0
 62
     7
 10
176.33500000000001
 20
123.255
 30
0.0
 11
175.54499999999999
 21
123.255
 31
0.0
  0
LINE
  5
88
  8
0
 62
     7
 10
176.32599999999999
 20
130.30600000000001
 30
0.0
 11
175.93000000000001
 21
131.78100000000001
 31
0.0
  0
LINE
  5
89
  8
0
 62
     7
 10
175.93000000000001
 20
131.78100000000001
 30
0.0
 11
175.535
 21
130.30600000000001
 31
0.0
  0
LINE
  5
8A
  8
0
 62
     7
 10
175.535
 20
130.30600000000001
 30
0.0
 11
176.32599999999999
 21
130.30600000000001
 31
0.0
  0
LINE
  5
8B
  8
0
 62
     7
 10
175.935
 20
122.033
 30
0.0
 11
175.935
 21
131.78
 31
0.0
  0
LINE
  5
8C
  8
0
 62
     7
 10
173.364
 20
121.78100000000001
 30
0.0
 11
176.63999999999999
 21
121.78100000000001
 31
0.0
  0
LINE
  5
8D
  8
0
 62
     7
 10
161.291
 20
132.47999999999999
 30
0.0
 11
161.291
 21
136.39699999999999
 31
0.0
  0
LINE
  5
8E
  8
0
 62
     7
 10
145.34999999999999
 20
123.139
 30
0.0
 11
144.95500000000001
 21
124.614
 31
0.0
  0
LINE
  5
8F
  8
0
 62
     7
 10
144.95500000000001
 20
124.614
 30
0.0
 11
144.56100000000001
 21
123.139
 31
0.0
  0
LINE
  5
90
  8
0
 62
     7
 10
144.56100000000001
 20
123.139
 30
0.0
 11
145.34999999999999
 21
123.139
 31
0.0
  0
LINE
  5
91
  8
0
 62
     7
 10
144.56999999999999
 20
120.42100000000001
 30
0.0
 11
144.965
 21
118.947
 31
0.0
  0
LINE
  5
92
  8
0
 62
     7
 10
144.965
 20
118.947
 30
0.0
 11
145.36099999999999
 21
120.42100000000001
 31
0.0
  0
LINE
  5
93
  8
0
 62
     7
 10
145.36099999999999
 20
120.42100000000001
 30
0.0
 11
144.56999999999999
 21
120.42100000000001
 31
0.0
  0
LINE
  5
94
  8
0
 62
     7
 10
144.96000000000001
 20
124.435
 30
0.0
 11
144.96000000000001
 21
118.94799999999999
 31
0.0
  0
LINE
  5
95
  8
0
 62
     7
 10
144.57499999999999
 20
118.947
 30
0.0
 11
150.67599999999999
 21
118.947
 31
0.0
  0
LINE
  5
96
  8
0
 62
     7
 10
144.57499999999999
 20
124.614
 30
0.0
 11
150.67599999999999
 21
124.614
 31
0.0
  0
LINE
  5
97
  8
0
 62
     7
 10
152.76599999999999
 20
136.26400000000001
 30
0.0
 11
151.292
 21
135.86799999999999
 31
0.0
  0
LINE
  5
98
  8
0
 62
     7
 10
151.292
 20
135.86799999999999
 30
0.0
 11
152.76599999999999
 21
135.4729999999999
 31
0.0
  0
LINE
  5
99
  8
0
 62
     7
 10
152.76599999999999
 20
135.4729999999999
 30
0.0
 11
152.76599999999999
 21
136.26400000000001
 31
0.0
  0
LINE
  5
9A
  8
0
 62
     7
 10
159.81700000000001
 20
135.483
 30
0.0
 11
161.291
 21
135.87799999999999
 31
0.0
  0
LINE
  5
9B
  8
0
 62
     7
 10
161.291
 20
135.87799999999999
 30
0.0
 11
159.81700000000001
 21
136.273
 31
0.0
  0
LINE
  5
9C
  8
0
 62
     7
 10
159.81700000000001
 20
136.273
 30
0.0
 11
159.81700000000001
 21
135.483
 31
0.0
  0
LINE
  5
9D
  8
0
 62
     7
 10
151.54400000000001
 20
135.87299999999999
 30
0.0
 11
161.291
 21
135.87299999999999
 31
0.0
  0
LINE
  5
9E
  8
0
 62
     7
 10
151.292
 20
136.25800000000001
 30
0.0
 11
151.292
 21
125.369
 31
0.0
  0
LINE
  5
9F
  8
0
 62
     7
 10
152.291
 20
99.114000000000004
 30
0.0
 11
152.291
 21
118.947
 31
0.0
  0
LINE
  5
A0
  8
0
 62
     7
 10
152.291
 20
118.947
 30
0.0
 11
152.291
 21
121.78
 31
0.0
  0
LINE
  5
A1
  8
0
 62
     7
 10
154.958
 20
99.114000000000004
 30
0.0
 11
154.958
 21
118.947
 31
0.0
  0
LINE
  5
A2
  8
0
 62
     7
 10
154.958
 20
118.947
 30
0.0
 11
154.958
 21
121.78
 31
0.0
  0
ARC
  5
A3
  8
0
 62
     7
 10
153.67565200000001
 20
99.164940000000001
 30
0.0
 40
1.385181999999999
 50
182.10933299999999
 51
267.89069699999999
  0
ARC
  5
A4
  8
0
 62
     7
 10
153.57368500000001
 20
99.164940000000001
 30
0.0
 40
1.3851830000000001
 50
272.10933999999997
 51
357.89067
  0
ARC
  5
A5
  8
0
  6
AIGENLINE002
 62
     7
 10
64.153397999999996
 20
121.74802
 30
0.0
 40
0.8663770000000001
 50
2.120153999999999
 51
87.856155000000001
  0
ARC
  5
A6
  8
0
  6
AIGENLINE002
 62
     7
 10
64.217515000000006
 20
121.74908000000001
 30
0.0
 40
0.865292
 50
92.099968999999973
 51
177.947372
  0
ARC
  5
A7
  8
0
  6
AIGENLINE002
 62
     7
 10
64.217872999999997
 20
121.812138
 30
0.0
 40
0.8656889999999998
 50
182.122784
 51
267.87724600000001
  0
ARC
  5
A8
  8
0
  6
AIGENLINE002
 62
     7
 10
64.154157999999995
 20
121.812079
 30
0.0
 40
0.8656149999999998
 50
272.09538600000002
 51
357.88093300000003
  0
ARC
  5
A9
  8
0
  6
AIGENLINE002
 62
     7
 10
97.153718000000012
 20
121.748437
 30
0.0
 40
0.865958
 50
2.093615999999999
 51
87.859002000000004
  0
ARC
  5
AA
  8
0
  6
AIGENLINE002
 62
     7
 10
97.217757999999989
 20
121.74856200000001
 30
0.0
 40
0.8658079999999999
 50
92.097481000000002
 51
177.91432800000001
  0
ARC
  5
AB
  8
0
  6
AIGENLINE002
 62
     7
 10
97.217241999999999
 20
121.81178199999999
 30
0.0
 40
0.865301
 50
182.10014100000001
 51
267.93542100000002
  0
ARC
  5
AC
  8
0
  6
AIGENLINE002
 62
     7
 10
97.154405000000011
 20
121.811736
 30
0.0
 40
0.865273
 50
272.097148
 51
357.90286200000003
  0
ARC
  5
AD
  8
0
 62
     7
 10
153.57298800000001
 20
121.729107
 30
0.0
 40
1.3858790000000001
 50
2.107518999999999
 51
87.862868999999975
  0
ARC
  5
AE
  8
0
 62
     7
 10
153.675701
 20
121.729755
 30
0.0
 40
1.385205999999999
 50
92.111281999999989
 51
177.91829100000001
  0
LINE
  5
B0
  8
0
 62
     7
 10
151.292
 20
124.614
 30
0.0
 11
151.292
 21
118.947
 31
0.0
  0
LINE
  5
B1
  8
0
 62
     7
 10
160.624
 20
118.947
 30
0.0
 11
154.958
 21
118.947
 31
0.0
  0
LINE
  5
B2
  8
0
 62
     7
 10
152.291
 20
118.947
 30
0.0
 11
151.292
 21
118.947
 31
0.0
  0
LINE
  5
B3
  8
0
  6
AIGENLINE001
 62
     7
 10
172.53700000000001
 20
121.78
 30
0.0
 11
150.001
 21
121.78
 31
0.0
  0
LINE
  5
B4
  8
0
 62
     7
 10
160.624
 20
124.614
 30
0.0
 11
151.292
 21
124.614
 31
0.0
  0
LINE
  5
B5
  8
0
 62
     7
 10
160.624
 20
111.78
 30
0.0
 11
161.291
 21
111.78
 31
0.0
  0
LINE
  5
B6
  8
0
 62
     7
 10
161.291
 20
131.78
 30
0.0
 11
160.624
 21
131.78
 31
0.0
  0
LINE
  5
B7
  8
0
 62
     7
 10
161.291
 20
131.78
 30
0.0
 11
161.291
 21
111.78
 31
0.0
  0
LINE
  5
B8
  8
0
 62
     7
 10
160.624
 20
131.78
 30
0.0
 11
160.624
 21
111.78
 31
0.0
  0
LINE
  5
B9
  8
0
 62
     7
 10
95.712799999999987
 20
138.43899999999999
 30
0.0
 11
97.186099999999996
 21
138.834
 31
0.0
  0
LINE
  5
BA
  8
0
 62
     7
 10
97.186099999999996
 20
138.834
 30
0.0
 11
95.712799999999987
 21
139.22799999999989
 31
0.0
  0
LINE
  5
BB
  8
0
 62
     7
 10
95.712799999999987
 20
139.22799999999989
 30
0.0
 11
95.712799999999987
 21
138.43899999999999
 31
0.0
  0
LINE
  5
BC
  8
0
 62
     7
 10
65.659599999999998
 20
139.22799999999989
 30
0.0
 11
64.1858
 21
138.834
 31
0.0
  0
LINE
  5
BD
  8
0
 62
     7
 10
64.1858
 20
138.834
 30
0.0
 11
65.659599999999998
 21
138.43899999999999
 31
0.0
  0
LINE
  5
BE
  8
0
 62
     7
 10
65.659599999999998
 20
138.43899999999999
 30
0.0
 11
65.659599999999998
 21
139.22799999999989
 31
0.0
  0
LINE
  5
BF
  8
0
 62
     7
 10
97.186099999999996
 20
138.834
 30
0.0
 11
64.1858
 21
138.834
 31
0.0
  0
LINE
  5
C0
  8
0
 62
     7
 10
104.67400000000001
 20
145.34100000000001
 30
0.0
 11
106.148
 21
145.73599999999999
 31
0.0
  0
LINE
  5
C1
  8
0
 62
     7
 10
106.148
 20
145.73599999999999
 30
0.0
 11
104.67400000000001
 21
146.131
 31
0.0
  0
LINE
  5
C2
  8
0
 62
     7
 10
104.67400000000001
 20
146.131
 30
0.0
 11
104.67400000000001
 21
145.34100000000001
 31
0.0
  0
LINE
  5
C3
  8
0
 62
     7
 10
56.590699999999991
 20
146.12100000000001
 30
0.0
 11
55.116900000000001
 21
145.726
 31
0.0
  0
LINE
  5
C4
  8
0
 62
     7
 10
55.116900000000001
 20
145.726
 30
0.0
 11
56.590699999999991
 21
145.33099999999999
 31
0.0
  0
LINE
  5
C5
  8
0
 62
     7
 10
56.590699999999991
 20
145.33099999999999
 30
0.0
 11
56.590699999999991
 21
146.12100000000001
 31
0.0
  0
LINE
  5
C6
  8
0
 62
     7
 10
106.148
 20
145.73099999999999
 30
0.0
 11
55.116900000000001
 21
145.73099999999999
 31
0.0
  0
LINE
  5
C7
  8
0
 62
     7
 10
136.01499999999999
 20
130.37700000000001
 30
0.0
 11
135.62100000000001
 21
131.84999999999999
 31
0.0
  0
LINE
  5
C8
  8
0
 62
     7
 10
135.62100000000001
 20
131.84999999999999
 30
0.0
 11
135.226
 21
130.37700000000001
 31
0.0
  0
LINE
  5
C9
  8
0
 62
     7
 10
135.226
 20
130.37700000000001
 30
0.0
 11
136.01499999999999
 21
130.37700000000001
 31
0.0
  0
LINE
  5
CA
  8
0
 62
     7
 10
135.23599999999999
 20
99.292400000000001
 30
0.0
 11
135.63
 21
97.818600000000004
 31
0.0
  0
LINE
  5
CB
  8
0
 62
     7
 10
135.63
 20
97.818600000000004
 30
0.0
 11
136.02600000000001
 21
99.292400000000001
 31
0.0
  0
LINE
  5
CC
  8
0
 62
     7
 10
136.02600000000001
 20
99.292400000000001
 30
0.0
 11
135.23599999999999
 21
99.292400000000001
 31
0.0
  0
LINE
  5
CD
  8
0
 62
     7
 10
135.625
 20
131.672
 30
0.0
 11
135.625
 21
97.818600000000004
 31
0.0
  0
LINE
  5
CE
  8
0
 62
     7
 10
119.916
 20
97.780699999999996
 30
0.0
 11
136.51499999999999
 21
97.780699999999996
 31
0.0
  0
LINE
  5
CF
  8
0
 62
     7
 10
128.53999999999999
 20
130.37700000000001
 30
0.0
 11
128.14599999999999
 21
131.84999999999999
 31
0.0
  0
LINE
  5
D0
  8
0
 62
     7
 10
128.14599999999999
 20
131.84999999999999
 30
0.0
 11
127.75
 21
130.37700000000001
 31
0.0
  0
LINE
  5
D1
  8
0
 62
     7
 10
127.75
 20
130.37700000000001
 30
0.0
 11
128.53999999999999
 21
130.37700000000001
 31
0.0
  0
LINE
  5
D2
  8
0
 62
     7
 10
127.761
 20
113.292
 30
0.0
 11
128.155
 21
111.818
 31
0.0
  0
LINE
  5
D3
  8
0
 62
     7
 10
128.155
 20
111.818
 30
0.0
 11
128.55000000000001
 21
113.292
 31
0.0
  0
LINE
  5
D4
  8
0
 62
     7
 10
128.55000000000001
 20
113.292
 30
0.0
 11
127.761
 21
113.292
 31
0.0
  0
LINE
  5
D5
  8
0
 62
     7
 10
128.15000000000001
 20
131.672
 30
0.0
 11
128.15000000000001
 21
111.818
 31
0.0
  0
LINE
  5
D6
  8
0
 62
     7
 10
33.945300000000003
 20
121.631
 30
0.0
 11
33.55040000000001
 21
123.104
 31
0.0
  0
LINE
  5
D7
  8
0
 62
     7
 10
33.55040000000001
 20
123.104
 30
0.0
 11
33.1556
 21
121.631
 31
0.0
  0
LINE
  5
D8
  8
0
 62
     7
 10
33.1556
 20
121.631
 30
0.0
 11
33.945300000000003
 21
121.631
 31
0.0
  0
LINE
  5
D9
  8
0
 62
     7
 10
33.165300000000002
 20
99.364800000000017
 30
0.0
 11
33.560099999999998
 21
97.890900000000016
 31
0.0
  0
LINE
  5
DA
  8
0
 62
     7
 10
33.560099999999998
 20
97.890900000000016
 30
0.0
 11
33.954900000000009
 21
99.364800000000017
 31
0.0
  0
LINE
  5
DB
  8
0
 62
     7
 10
33.954900000000009
 20
99.364800000000017
 30
0.0
 11
33.165300000000002
 21
99.364800000000017
 31
0.0
  0
LINE
  5
DC
  8
0
 62
     7
 10
33.555300000000003
 20
123.104
 30
0.0
 11
33.555300000000003
 21
97.890900000000016
 31
0.0
  0
LINE
  5
DD
  8
0
 62
     7
 10
54.925699999999999
 20
101.93000000000001
 30
0.0
 11
55.320500000000003
 21
100.456
 31
0.0
  0
LINE
  5
DE
  8
0
 62
     7
 10
55.320500000000003
 20
100.456
 30
0.0
 11
55.715299999999999
 21
101.93000000000001
 31
0.0
  0
LINE
  5
DF
  8
0
 62
     7
 10
55.715299999999999
 20
101.93000000000001
 30
0.0
 11
54.925699999999999
 21
101.93000000000001
 31
0.0
  0
LINE
  5
E0
  8
0
 62
     7
 10
55.7057
 20
96.306900000000013
 30
0.0
 11
55.3108
 21
97.780699999999996
 31
0.0
  0
LINE
  5
E1
  8
0
 62
     7
 10
55.3108
 20
97.780699999999996
 30
0.0
 11
54.915700000000001
 21
96.306900000000013
 31
0.0
  0
LINE
  5
E2
  8
0
 62
     7
 10
54.915700000000001
 20
96.306900000000013
 30
0.0
 11
55.7057
 21
96.306900000000013
 31
0.0
  0
LINE
  5
E3
  8
0
 62
     7
 10
55.3157
 20
94.953599999999994
 30
0.0
 11
55.3157
 21
106.518
 31
0.0
  0
LINE
  5
E4
  8
0
 62
     7
 10
41.183399999999992
 20
97.780699999999996
 30
0.0
 11
32.66640000000001
 21
97.780699999999996
 31
0.0
  0
LINE
  5
E5
  8
0
 62
     7
 10
32.66640000000001
 20
123.114
 30
0.0
 11
41.40979999999999
 21
123.114
 31
0.0
  0
LINE
  5
E6
  8
0
  6
AIGENLINE001
 62
     7
 10
97.186099999999996
 20
118.133
 30
0.0
 11
97.186099999999996
 21
126.995
 31
0.0
  0
LINE
  5
E7
  8
0
 62
     7
 10
97.186099999999996
 20
127.52800000000001
 30
0.0
 11
97.186099999999996
 21
139.53399999999999
 31
0.0
  0
LINE
  5
E8
  8
0
  6
AIGENLINE001
 62
     7
 10
64.1858
 20
118.133
 30
0.0
 11
64.1858
 21
126.995
 31
0.0
  0
LINE
  5
E9
  8
0
 62
     7
 10
64.1858
 20
127.52800000000001
 30
0.0
 11
64.1858
 21
139.53399999999999
 31
0.0
  0
LINE
  5
EA
  8
0
 62
     7
 10
106.931
 20
111.78
 30
0.0
 11
129.03999999999999
 21
111.78
 31
0.0
  0
LINE
  5
EB
  8
0
 62
     7
 10
106.931
 20
131.78100000000001
 30
0.0
 11
136.321
 21
131.78100000000001
 31
0.0
  0
LINE
  5
EC
  8
0
 62
     7
 10
55.1479
 20
132.48099999999999
 30
0.0
 11
55.1479
 21
146.43600000000001
 31
0.0
  0
LINE
  5
ED
  8
0
 62
     7
 10
106.148
 20
132.48099999999999
 30
0.0
 11
106.148
 21
146.43600000000001
 31
0.0
  0
LINE
  5
EE
  8
0
 62
     7
 10
118.35299999999999
 20
111.304
 30
0.0
 11
118.35299999999999
 21
119.568
 31
0.0
  0
ARC
  5
EF
  8
0
 62
     7
 10
117.471962
 20
119.539078
 30
0.0
 40
0.8817139999999998
 50
1.854908
 51
76.132475999999997
  0
ARC
  5
F0
  8
0
 62
     7
 10
117.284229
 20
118.907408
 30
0.0
 40
1.5402759999999991
 50
74.984307000000001
 51
90.885588000000013
  0
LINE
  5
F1
  8
0
 62
     7
 10
117.26000000000001
 20
120.44799999999999
 30
0.0
 11
99.686499999999995
 21
120.44799999999999
 31
0.0
  0
LINE
  5
F2
  8
0
 62
     7
 10
121.02
 20
111.304
 30
0.0
 11
121.02
 21
119.876
 31
0.0
  0
ARC
  5
F3
  8
0
 62
     7
 10
118.89367900000001
 20
119.79242600000001
 30
0.0
 40
2.1276830000000002
 50
2.2406320000000002
 51
9.7217869999999991
  0
ARC
  5
F4
  8
0
 62
     7
 10
117.358209
 20
119.590839
 30
0.0
 40
3.675641999999999
 50
8.777216000000001
 51
45.870801999999998
  0
ARC
  5
F5
  8
0
 62
     7
 10
117.77797200000001
 20
119.841916
 30
0.0
 40
3.205651
 50
48.131909999999998
 51
73.854922000000002
  0
ARC
  5
F6
  8
0
 62
     7
 10
117.347415
 20
118.507102
 30
0.0
 40
4.6077409999999999
 50
73.327632999999992
 51
91.08176899999998
  0
LINE
  5
F7
  8
0
 62
     7
 10
117.26000000000001
 20
123.114
 30
0.0
 11
99.685699999999997
 21
123.114
 31
0.0
  0
ARC
  5
F8
  8
0
  6
AIGENLINE001
 62
     7
 10
117.286618
 20
102.26125500000001
 30
0.0
 40
3.1472999999999991
 50
269.93707599999999
 51
291.47788000000003
  0
ARC
  5
F9
  8
0
  6
AIGENLINE001
 62
     7
 10
117.55972199999999
 20
101.28750700000001
 30
0.0
 40
2.1436220000000001
 50
294.21565499999991
 51
352.807187
  0
LINE
  5
FA
  8
0
  6
AIGENLINE001
 62
     7
 10
119.68600000000001
 20
101.01900000000001
 30
0.0
 11
119.68600000000001
 21
119.672
 31
0.0
  0
ARC
  5
FB
  8
0
  6
AIGENLINE001
 62
     7
 10
118.18539699999999
 20
119.53618400000001
 30
0.0
 40
1.507239999999999
 50
5.1832050000000001
 51
13.885979000000001
  0
ARC
  5
FC
  8
0
  6
AIGENLINE001
 62
     7
 10
117.278657
 20
119.324955
 30
0.0
 40
2.4382069999999989
 50
13.590992
 51
80.254297999999991
  0
ARC
  5
FD
  8
0
  6
AIGENLINE001
 62
     7
 10
117.074837
 20
118.109172
 30
0.0
 40
3.6709489999999989
 50
80.331143000000026
 51
90.297386000000003
  0
LINE
  5
FE
  8
0
 62
     7
 10
121.02
 20
111.304
 30
0.0
 11
121.02
 21
101.01900000000001
 31
0.0
  0
ARC
  5
FF
  8
0
 62
     7
 10
117.73952199999999
 20
101.03558700000001
 30
0.0
 40
3.2802539999999998
 50
315.31275799999997
 51
359.71213999999998
  0
ARC
  5
100
  8
0
 62
     7
 10
117.766813
 20
101.05615299999999
 30
0.0
 40
3.275488999999999
 50
270.25385299999999
 51
314.72126900000001
  0
LINE
  5
101
  8
0
 62
     7
 10
118.35299999999999
 20
111.304
 30
0.0
 11
118.35299999999999
 21
101.468
 31
0.0
  0
ARC
  5
102
  8
0
 62
     7
 10
117.20807499999999
 20
101.599884
 30
0.0
 40
1.1526689999999991
 50
270.10188199999999
 51
353.44754699999999
  0
LINE
  5
103
  8
0
 62
     7
 10
43.019399999999997
 20
111.304
 30
0.0
 11
43.019399999999997
 21
119.568
 31
0.0
  0
ARC
  5
104
  8
0
 62
     7
 10
43.899957000000001
 20
119.53968399999999
 30
0.0
 40
0.8810480000000001
 50
103.85653000000001
 51
178.18306999999999
  0
ARC
  5
105
  8
0
 62
     7
 10
44.087972000000001
 20
118.907735
 30
0.0
 40
1.539949999999999
 50
89.113455999999999
 51
105.017323
  0
LINE
  5
106
  8
0
 62
     7
 10
44.111800000000002
 20
120.44799999999999
 30
0.0
 11
61.685000000000002
 21
120.44799999999999
 31
0.0
  0
LINE
  5
107
  8
0
 62
     7
 10
40.352499999999999
 20
111.304
 30
0.0
 11
40.352499999999999
 21
119.876
 31
0.0
  0
ARC
  5
108
  8
0
 62
     7
 10
42.490673000000001
 20
119.79111399999999
 30
0.0
 40
2.1398559999999991
 50
170.2983899999999
 51
177.736942
  0
ARC
  5
109
  8
0
 62
     7
 10
44.013684999999988
 20
119.590898
 30
0.0
 40
3.6753049999999998
 50
134.125078
 51
171.22288
  0
ARC
  5
10A
  8
0
 62
     7
 10
43.594406999999997
 20
119.84165299999999
 30
0.0
 40
3.2058869999999988
 50
106.142768
 51
131.86574899999999
  0
ARC
  5
10B
  8
0
 62
     7
 10
44.02512999999999
 20
118.506373
 30
0.0
 40
4.6084699999999987
 50
88.918115999999998
 51
106.67103
  0
LINE
  5
10C
  8
0
 62
     7
 10
44.112099999999991
 20
123.114
 30
0.0
 11
61.685899999999997
 21
123.114
 31
0.0
  0
LINE
  5
10D
  8
0
  6
AIGENLINE001
 62
     7
 10
124.467
 20
182.97200000000001
 30
0.0
 11
36.884599999999999
 21
182.97200000000001
 31
0.0
  0
LINE
  5
10E
  8
0
 62
     7
 10
40.352499999999999
 20
181.63800000000001
 30
0.0
 11
61.352499999999999
 21
181.63800000000001
 31
0.0
  0
LINE
  5
10F
  8
0
 62
     7
 10
67.019099999999995
 20
181.63800000000001
 30
0.0
 11
94.352999999999994
 21
181.63800000000001
 31
0.0
  0
LINE
  5
110
  8
0
 62
     7
 10
100.01900000000001
 20
181.63800000000001
 30
0.0
 11
121.01900000000001
 21
181.63800000000001
 31
0.0
  0
LINE
  5
111
  8
0
 62
     7
 10
40.352499999999999
 20
184.30500000000001
 30
0.0
 11
61.352499999999999
 21
184.30500000000001
 31
0.0
  0
LINE
  5
112
  8
0
 62
     7
 10
67.019099999999995
 20
184.30500000000001
 30
0.0
 11
94.352999999999994
 21
184.30500000000001
 31
0.0
  0
LINE
  5
113
  8
0
 62
     7
 10
100.01900000000001
 20
184.30500000000001
 30
0.0
 11
121.01900000000001
 21
184.30500000000001
 31
0.0
  0
LINE
  5
114
  8
0
  6
AIGENLINE001
 62
     7
 10
117.283
 20
99.114000000000004
 30
0.0
 11
44.089700000000001
 21
99.114000000000004
 31
0.0
  0
ARC
  5
115
  8
0
  6
AIGENLINE001
 62
     7
 10
44.086289999999998
 20
102.26308400000001
 30
0.0
 40
3.1491299999999991
 50
248.52845500000001
 51
270.06296099999997
  0
ARC
  5
116
  8
0
  6
AIGENLINE001
 62
     7
 10
43.812690000000003
 20
101.287825
 30
0.0
 40
2.1438509999999988
 50
187.20062100000001
 51
245.79146800000001
  0
LINE
  5
117
  8
0
  6
AIGENLINE001
 62
     7
 10
41.68569999999999
 20
101.01900000000001
 30
0.0
 11
41.68569999999999
 21
119.672
 31
0.0
  0
ARC
  5
118
  8
0
  6
AIGENLINE001
 62
     7
 10
43.183475000000001
 20
119.536503
 30
0.0
 40
1.5038769999999999
 50
166.09482299999999
 51
174.81733600000001
  0
ARC
  5
119
  8
0
  6
AIGENLINE001
 62
     7
 10
44.093941000000001
 20
119.324524
 30
0.0
 40
2.4386380000000001
 50
99.744850000000014
 51
166.401016
  0
ARC
  5
11A
  8
0
  6
AIGENLINE001
 62
     7
 10
44.297724000000002
 20
118.10916899999999
 30
0.0
 40
3.6709519999999989
 50
89.702517
 51
99.668835000000016
  0
LINE
  5
11B
  8
0
  6
AIGENLINE001
 62
     7
 10
44.316800000000001
 20
121.78
 30
0.0
 11
117.056
 21
121.78
 31
0.0
  0
LINE
  5
11C
  8
0
 62
     7
 10
40.352499999999999
 20
111.304
 30
0.0
 11
40.352499999999999
 21
101.01900000000001
 31
0.0
  0
ARC
  5
11D
  8
0
 62
     7
 10
43.633953999999989
 20
101.036457
 30
0.0
 40
3.281514
 50
180.3029719999999
 51
224.68688499999999
  0
ARC
  5
11E
  8
0
 62
     7
 10
43.606959000000003
 20
101.059062
 30
0.0
 40
3.2784049999999998
 50
225.2995390000001
 51
269.71928600000001
  0
LINE
  5
11F
  8
0
 62
     7
 10
43.590899999999998
 20
97.780699999999996
 30
0.0
 11
117.78100000000001
 21
97.780699999999996
 31
0.0
  0
LINE
  5
120
  8
0
 62
     7
 10
43.019399999999997
 20
111.304
 30
0.0
 11
43.019399999999997
 21
101.468
 31
0.0
  0
ARC
  5
121
  8
0
 62
     7
 10
44.164490999999998
 20
101.599884
 30
0.0
 40
1.1526689999999991
 50
186.55247299999999
 51
269.89813800000002
  0
LINE
  5
122
  8
0
 62
     7
 10
44.162399999999998
 20
100.447
 30
0.0
 11
117.20999999999999
 21
100.447
 31
0.0
  0
LINE
  5
123
  8
0
 62
     7
 10
55.1858
 20
111.78
 30
0.0
 11
106.18600000000001
 21
111.78
 31
0.0
  0
LINE
  5
124
  8
0
  6
AIGENLINE001
 62
     7
 10
80.686000000000007
 20
193.74799999999999
 30
0.0
 11
80.686000000000007
 21
178.511
 31
0.0
  0
LINE
  5
125
  8
0
  6
AIGENLINE001
 62
     7
 10
80.686000000000007
 20
134.53700000000001
 30
0.0
 11
80.686000000000007
 21
109.078
 31
0.0
  0
LINE
  5
126
  8
0
 62
     7
 10
106.18600000000001
 20
111.78
 30
0.0
 11
106.18600000000001
 21
120.44799999999999
 31
0.0
  0
LINE
  5
127
  8
0
 62
     7
 10
106.18600000000001
 20
123.114
 30
0.0
 11
106.18600000000001
 21
131.78100000000001
 31
0.0
  0
LINE
  5
128
  8
0
 62
     7
 10
106.18600000000001
 20
131.78100000000001
 30
0.0
 11
55.1858
 21
131.78100000000001
 31
0.0
  0
LINE
  5
129
  8
0
 62
     7
 10
55.1858
 20
131.78100000000001
 30
0.0
 11
55.1858
 21
123.114
 31
0.0
  0
LINE
  5
12A
  8
0
 62
     7
 10
55.1858
 20
120.44799999999999
 30
0.0
 11
55.1858
 21
111.78
 31
0.0
  0
LINE
  5
12B
  8
_________2
 62
     7
 10
205.30000000000001
 20
127.411
 30
0.0
 11
183.55000000000001
 21
127.411
 31
0.0
  0
LINE
  5
12C
  8
_________2
 62
     7
 10
100.3
 20
-4.0910799999999998
 30
0.0
 11
100.3
 21
-21.071400000000001
 31
0.0
  0
LINE
  5
12D
  8
_________2
 62
     7
 10
100.3
 20
275.93099999999998
 30
0.0
 11
100.3
 21
258.911
 31
0.0
  0
LINE
  5
12E
  8
_________2
 62
     7
 10
17.049499999999998
 20
127.411
 30
0.0
 11
-4.7008599999999987
 21
127.411
 31
0.0
  0
LINE
  5
12F
  8
_________2
 62
     7
 10
76.741
 20
29.8047
 30
0.0
 11
74.554699999999997
 21
29.8047
 31
0.0
  0
LINE
  5
130
  8
_________2
 62
     7
 10
77.233699999999999
 20
29.8047
 30
0.0
 11
76.981499999999997
 21
29.8047
 31
0.0
  0
LINE
  5
131
  8
_________2
 62
     7
 10
77.726299999999995
 20
29.8047
 30
0.0
 11
80.651200000000003
 21
29.8047
 31
0.0
  0
LINE
  5
132
  8
_________2
 62
     7
 10
77.233699999999999
 20
29.8047
 30
0.0
 11
77.485200000000006
 21
29.8047
 31
0.0
  0
LINE
  5
133
  8
_________2
 62
     7
 10
70.836799999999997
 20
29.8047
 30
0.0
 11
68.650499999999994
 21
29.8047
 31
0.0
  0
LINE
  5
134
  8
_________2
 62
     7
 10
71.329400000000007
 20
29.8047
 30
0.0
 11
71.077200000000005
 21
29.8047
 31
0.0
  0
LINE
  5
135
  8
_________2
 62
     7
 10
71.329400000000007
 20
30.2974
 30
0.0
 11
71.329400000000007
 21
32.484400000000001
 31
0.0
  0
LINE
  5
136
  8
_________2
 62
     7
 10
71.329400000000007
 20
29.8047
 30
0.0
 11
71.329400000000007
 21
30.056899999999999
 31
0.0
  0
LINE
  5
137
  8
_________2
 62
     7
 10
71.822100000000006
 20
29.8047
 30
0.0
 11
74.009
 21
29.8047
 31
0.0
  0
LINE
  5
138
  8
_________2
 62
     7
 10
71.329400000000007
 20
29.8047
 30
0.0
 11
71.581599999999995
 21
29.8047
 31
0.0
  0
LINE
  5
139
  8
_________2
 62
     7
 10
71.329400000000007
 20
29.312799999999999
 30
0.0
 11
71.329400000000007
 21
27.125800000000002
 31
0.0
  0
LINE
  5
13A
  8
_________2
 62
     7
 10
71.329400000000007
 20
29.8047
 30
0.0
 11
71.329400000000007
 21
29.5532
 31
0.0
  0
LINE
  5
13B
  8
_________2
 62
     7
 10
75.040499999999994
 20
28.5852
 30
0.0
 11
80.218500000000006
 21
27.720400000000001
 31
0.0
  0
LINE
  5
13C
  8
_________2
 62
     7
 10
75.040499999999994
 20
31.0243
 30
0.0
 11
80.218500000000006
 21
31.889700000000001
 31
0.0
  0
LINE
  5
13D
  8
_________2
 62
     7
 10
80.218500000000006
 20
27.720400000000001
 30
0.0
 11
80.218500000000006
 21
31.889700000000001
 31
0.0
  0
LINE
  5
13E
  8
_________2
 62
     7
 10
75.040499999999994
 20
28.5852
 30
0.0
 11
75.040499999999994
 21
31.0243
 31
0.0
  0
ARC
  5
13F
  8
_________2
 62
     7
 10
71.282522999999983
 20
29.757836000000001
 30
0.0
 40
1.267347
 50
2.1211329999999999
 51
87.878856999999996
  0
ARC
  5
140
  8
_________2
 62
     7
 10
71.375959999999992
 20
29.758213000000001
 30
0.0
 40
1.2669559999999991
 50
92.104701000000006
 51
177.89526900000001
  0
ARC
  5
141
  8
_________2
 62
     7
 10
71.376357999999996
 20
29.851671
 30
0.0
 40
1.2673680000000001
 50
182.12203600000001
 51
267.877993
  0
ARC
  5
142
  8
_________2
 62
     7
 10
71.282522999999983
 20
29.851649999999999
 30
0.0
 40
1.267347
 50
272.12114300000002
 51
357.87886700000001
  0
ARC
  5
143
  8
_________2
 62
     7
 10
71.329430000000002
 20
29.804742999999998
 30
0.0
 40
2.0849849999999992
 50
0.00001
 51
89.999980000000008
  0
ARC
  5
144
  8
_________2
 62
     7
 10
71.329431
 20
29.804742999999998
 30
0.0
 40
2.0849849999999992
 50
90.0
 51
179.99996999999999
  0
ARC
  5
145
  8
_________2
 62
     7
 10
71.408771999999999
 20
29.884799999999998
 30
0.0
 40
2.165807
 50
182.1183979999999
 51
267.90056900000002
  0
ARC
  5
146
  8
_________2
 62
     7
 10
71.249459000000002
 20
29.885429999999999
 30
0.0
 40
2.1664590000000001
 50
272.11546800000002
 51
357.86560400000002
  0
TEXT
  5
147
  8
_________2
 62
     7
 10
104.604
 20
1.6794899999999999
 30
0.0
 40
3.0923400000000001
  1
図番
 41
0.5
  0
LINE
  5
148
  8
_________2
 62
     7
 10
103.55
 20
5.9087199999999989
 30
0.0
 11
183.55099999999999
 21
5.9087199999999989
 31
0.0
  0
TEXT
  5
149
  8
_________2
 62
     7
 10
104.604
 20
11.6793
 30
0.0
 40
3.0923400000000001
  1
品番
 41
0.5
  0
TEXT
  5
14A
  8
_________2
 62
     7
 10
104.604
 20
31.818100000000001
 30
0.0
 40
3.0923400000000001
  1
名称
 41
0.5
  0
TEXT
  5
14B
  8
_________2
 62
     7
 10
91.845058333333341
 20
26.821999999999999
 30
0.0
 40
3.6545800000000002
  1
mm
 41
0.5
 72
     1
 11
93.367800000000003
 21
26.821999999999999
 31
0.0
  0
TEXT
  5
14C
  8
_________2
 62
     7
 10
85.643199999999993
 20
31.818100000000001
 30
0.0
 40
3.0923400000000001
  1
単位
 41
0.5
  0
TEXT
  5
14D
  8
_________2
 62
     7
 10
85.643199999999993
 20
19.410799999999998
 30
0.0
 40
3.0923400000000001
  1
尺度
 41
0.5
  0
TEXT
  5
14E
  8
_________2
 62
     7
 10
90.548758666666686
 20
13.2179
 30
0.0
 40
3.6545800000000002
  1
1 ： 3
 41
0.5
 72
     1
 11
93.959699999999998
 21
13.2179
 31
0.0
  0
TEXT
  5
14F
  8
_________2
 62
     7
 10
138.62937500000001
 20
9.1078600000000005
 30
0.0
 40
3.9357000000000002
  1
VL.T15
 41
0.5
 72
     1
 11
143.54900000000001
 21
9.1078600000000005
 31
0.0
  0
TEXT
  5
150
  8
_________2
 62
     7
 10
138.95734999999999
 20
-0.8926299999999999
 30
0.0
 40
3.9357000000000002
  1
VLT15
 41
0.5
 72
     1
 11
143.54900000000001
 21
-0.8926299999999999
 31
0.0
  0
TEXT
  5
151
  8
_________2
 62
     7
 10
109.178
 20
24.2257
 30
0.0
 40
3.9357000000000002
  1
ボラ　タオルリング
 41
0.5
  0
TEXT
  5
152
  8
_________2
 62
     7
 10
39.425300333333333
 20
13.603
 30
0.0
 40
3.6545800000000002
  1
早川
 41
0.5
 72
     1
 11
41.313499999999998
 21
13.603
 31
0.0
  0
TEXT
  5
153
  8
_________2
 62
     7
 10
20.789690666666669
 20
13.603
 30
0.0
 40
3.6545800000000002
  1
石原
 41
0.5
 72
     1
 11
22.738800000000001
 21
13.603
 31
0.0
  0
TEXT
  5
154
  8
_________2
 62
     7
 10
67.7851
 20
13.2179
 30
0.0
 40
3.6545800000000002
  1
15.05.20
 41
0.5
  0
TEXT
  5
155
  8
_________2
 62
     7
 10
66.593100000000007
 20
19.410799999999998
 30
0.0
 40
3.0923400000000001
  1
日付
 41
0.5
  0
TEXT
  5
156
  8
_________2
 62
     7
 10
29.639399999999998
 20
19.410799999999998
 30
0.0
 40
3.0923400000000001
  1
検図
 41
0.5
  0
TEXT
  5
157
  8
_________2
 62
     7
 10
18.021100000000001
 20
5.21143
 30
0.0
 40
3.0923400000000001
  1
備考
 41
0.5
  0
TEXT
  5
158
  8
_________2
 62
     7
 10
18.021100000000001
 20
19.410799999999998
 30
0.0
 40
3.0923400000000001
  1
製図
 41
0.5
  0
TEXT
  5
159
  8
_________2
 62
     7
 10
23.788465333333338
 20
27.936800000000002
 30
0.0
 40
4.4979399999999989
  1
セラトレーディング株式会社
 41
0.5
 72
     1
 11
41.180500000000002
 21
27.936800000000002
 31
0.0
  0
LINE
  5
15A
  8
_________2
 62
     7
 10
183.55099999999999
 20
-4.0910799999999998
 30
0.0
 11
17.049499999999998
 21
-4.0910799999999998
 31
0.0
  0
LINE
  5
15B
  8
_________2
 62
     7
 10
17.049499999999998
 20
-4.0910799999999998
 30
0.0
 11
17.049499999999998
 21
258.911
 31
0.0
  0
LINE
  5
15C
  8
_________2
 62
     7
 10
17.049499999999998
 20
258.911
 30
0.0
 11
183.55099999999999
 21
258.911
 31
0.0
  0
LINE
  5
15D
  8
_________2
 62
     7
 10
183.55099999999999
 20
258.911
 30
0.0
 11
183.55099999999999
 21
-4.0910799999999998
 31
0.0
  0
LINE
  5
15E
  8
_________2
 62
     7
 10
65.549199999999999
 20
9.4089600000000004
 30
0.0
 11
65.549199999999999
 21
35.908799999999999
 31
0.0
  0
LINE
  5
15F
  8
_________2
 62
     7
 10
84.549700000000016
 20
9.4089600000000004
 30
0.0
 11
84.549700000000016
 21
35.908799999999999
 31
0.0
  0
LINE
  5
160
  8
_________2
 62
     7
 10
103.55
 20
-4.0910799999999998
 30
0.0
 11
103.55
 21
35.908799999999999
 31
0.0
  0
LINE
  5
161
  8
_________2
 62
     7
 10
28.549299999999999
 20
9.4089600000000004
 30
0.0
 11
28.549299999999999
 21
23.409199999999998
 31
0.0
  0
LINE
  5
162
  8
_________2
 62
     7
 10
17.049499999999998
 20
9.4089600000000004
 30
0.0
 11
103.55
 21
9.4089600000000004
 31
0.0
  0
LINE
  5
163
  8
_________2
 62
     7
 10
17.049499999999998
 20
23.409199999999998
 30
0.0
 11
103.55
 21
23.409199999999998
 31
0.0
  0
LINE
  5
164
  8
_________2
 62
     7
 10
103.55
 20
15.9085
 30
0.0
 11
183.55099999999999
 21
15.9085
 31
0.0
  0
LINE
  5
165
  8
_________2
 62
     7
 10
17.049499999999998
 20
35.908799999999999
 30
0.0
 11
183.55099999999999
 21
35.908799999999999
 31
0.0
  0
TEXT
  5
166
  8
_________2
 62
     7
 10
141.05481
 20
39.0687
 30
0.0
 40
3.9357000000000002
  1
注：色番号はカタログを参照ください
 41
0.5
 72
     2
 11
180.54300000000001
 21
39.0687
 31
0.0
  0
ENDSEC
  0
EOF
