  0
SECTION
  2
HEADER
  9
$ACADVER
  1
AC1009
  9
$INSBASE
 10
0.0
 20
0.0
 30
0.0
  9
$EXTMIN
 10
-4.7008599999999987
 20
-21.071400000000001
 30
0.0
  9
$EXTMAX
 10
205.2999999999999
 20
275.93099999999993
 30
0.0
  9
$LIMMIN
 10
0.0
 20
0.0
  9
$LIMMAX
 10
12.0
 20
9.0
  9
$ORTHOMODE
 70
     0
  9
$REGENMODE
 70
     1
  9
$FILLMODE
 70
     1
  9
$QTEXTMODE
 70
     0
  9
$MIRRTEXT
 70
     1
  9
$DRAGMODE
 70
     2
  9
$LTSCALE
 40
1.0
  9
$OSMODE
 70
    37
  9
$ATTMODE
 70
     1
  9
$TEXTSIZE
 40
0.0
  9
$TRACEWID
 40
0.05
  9
$TEXTSTYLE
  7
STANDARD
  9
$CLAYER
  8
0
  9
$CELTYPE
  6
CONTINUOUS
  9
$CECOLOR
 62
   256
  9
$DIMSCALE
 40
1.0
  9
$DIMASZ
 40
0.18
  9
$DIMEXO
 40
0.0625
  9
$DIMDLI
 40
0.38
  9
$DIMRND
 40
0.0
  9
$DIMDLE
 40
0.0
  9
$DIMEXE
 40
0.18
  9
$DIMTP
 40
0.0
  9
$DIMTM
 40
0.0
  9
$DIMTXT
 40
0.18
  9
$DIMCEN
 40
0.09
  9
$DIMTSZ
 40
0.0
  9
$DIMTOL
 70
     0
  9
$DIMLIM
 70
     0
  9
$DIMTIH
 70
     1
  9
$DIMTOH
 70
     1
  9
$DIMSE1
 70
     0
  9
$DIMSE2
 70
     0
  9
$DIMTAD
 70
     0
  9
$DIMZIN
 70
     0
  9
$DIMBLK
  1

  9
$DIMASO
 70
     1
  9
$DIMSHO
 70
     1
  9
$DIMPOST
  1

  9
$DIMAPOST
  1

  9
$DIMALT
 70
     0
  9
$DIMALTD
 70
     2
  9
$DIMALTF
 40
25.399999999999999
  9
$DIMLFAC
 40
1.0
  9
$DIMTOFL
 70
     0
  9
$DIMTVP
 40
0.0
  9
$DIMTIX
 70
     0
  9
$DIMSOXD
 70
     0
  9
$DIMSAH
 70
     0
  9
$DIMBLK1
  1

  9
$DIMBLK2
  1

  9
$DIMSTYLE
  2
STANDARD
  9
$DIMCLRD
 70
     0
  9
$DIMCLRE
 70
     0
  9
$DIMCLRT
 70
     0
  9
$DIMTFAC
 40
1.0
  9
$DIMGAP
 40
0.09
  9
$LUNITS
 70
     2
  9
$LUPREC
 70
     4
  9
$SKETCHINC
 40
0.1
  9
$FILLETRAD
 40
0.0
  9
$AUNITS
 70
     0
  9
$AUPREC
 70
     0
  9
$MENU
  1
.
  9
$ELEVATION
 40
0.0
  9
$PELEVATION
 40
0.0
  9
$THICKNESS
 40
0.0
  9
$LIMCHECK
 70
     0
  9
$BLIPMODE
 70
     0
  9
$CHAMFERA
 40
0.0
  9
$CHAMFERB
 40
0.0
  9
$SKPOLY
 70
     0
  9
$TDCREATE
 40
2444972.375
  9
$TDUPDATE
 40
2455398.3793654051
  9
$TDINDWG
 40
0.0001853241
  9
$TDUSRTIMER
 40
0.0001853241
  9
$USRTIMER
 70
     1
  9
$ANGBASE
 50
0.0
  9
$ANGDIR
 70
     0
  9
$PDMODE
 70
     0
  9
$PDSIZE
 40
0.0
  9
$PLINEWID
 40
0.0
  9
$COORDS
 70
     1
  9
$SPLFRAME
 70
     0
  9
$SPLINETYPE
 70
     6
  9
$SPLINESEGS
 70
     8
  9
$ATTDIA
 70
     0
  9
$ATTREQ
 70
     1
  9
$HANDLING
 70
     1
  9
$HANDSEED
  5
D0
  9
$SURFTAB1
 70
     6
  9
$SURFTAB2
 70
     6
  9
$SURFTYPE
 70
     6
  9
$SURFU
 70
     6
  9
$SURFV
 70
     6
  9
$UCSNAME
  2

  9
$UCSORG
 10
0.0
 20
0.0
 30
0.0
  9
$UCSXDIR
 10
1.0
 20
0.0
 30
0.0
  9
$UCSYDIR
 10
0.0
 20
1.0
 30
0.0
  9
$PUCSNAME
  2

  9
$PUCSORG
 10
0.0
 20
0.0
 30
0.0
  9
$PUCSXDIR
 10
1.0
 20
0.0
 30
0.0
  9
$PUCSYDIR
 10
0.0
 20
1.0
 30
0.0
  9
$USERI1
 70
     0
  9
$USERI2
 70
     0
  9
$USERI3
 70
     0
  9
$USERI4
 70
     0
  9
$USERI5
 70
     0
  9
$USERR1
 40
0.0
  9
$USERR2
 40
0.0
  9
$USERR3
 40
0.0
  9
$USERR4
 40
0.0
  9
$USERR5
 40
0.0
  9
$WORLDVIEW
 70
     1
  9
$SHADEDGE
 70
     3
  9
$SHADEDIF
 70
    70
  9
$TILEMODE
 70
     1
  9
$MAXACTVP
 70
    48
  9
$PLIMCHECK
 70
     0
  9
$PEXTMIN
 10
1.0000000000000000E+020
 20
1.0000000000000000E+020
 30
1.0000000000000000E+020
  9
$PEXTMAX
 10
-1.0000000000000000E+020
 20
-1.0000000000000000E+020
 30
-1.0000000000000000E+020
  9
$PLIMMIN
 10
0.0
 20
0.0
  9
$PLIMMAX
 10
12.0
 20
9.0
  9
$UNITMODE
 70
     0
  9
$VISRETAIN
 70
     1
  9
$PLINEGEN
 70
     0
  9
$PSLTSCALE
 70
     1
  0
ENDSEC
  0
SECTION
  2
TABLES
  0
TABLE
  2
VPORT
 70
     2
  0
VPORT
  2
*ACTIVE
 70
     0
 10
0.0
 20
0.0
 11
1.0
 21
1.0
 12
205.310015494591
 22
127.4297999999999
 13
0.0
 23
0.0
 14
1.0
 24
1.0
 15
0.0
 25
0.0
 16
0.0
 26
0.0
 36
1.0
 17
0.0
 27
0.0
 37
0.0
 40
299.2467506297229
 41
2.2894736842105261
 42
50.0
 43
0.0
 44
0.0
 50
0.0
 51
0.0
 71
     0
 72
   100
 73
     1
 74
     1
 75
     0
 76
     0
 77
     0
 78
     0
  0
ENDTAB
  0
TABLE
  2
LTYPE
 70
     3
  0
LTYPE
  2
CONTINUOUS
 70
     0
  3
Solid line
 72
    65
 73
     0
 40
0.0
  0
LTYPE
  2
AIGENLINE001
 70
     0
  3
generate AI->DXF Converter
 72
    65
 73
     4
 40
5.8561449999999988
 49
3.5278
 49
-0.776115
 49
0.776115
 49
-0.776115
  0
LTYPE
  2
AIGENLINE002
 70
     0
  3
generate AI->DXF Converter
 72
    65
 73
     2
 40
1.5522299999999991
 49
0.776115
 49
-0.776115
  0
ENDTAB
  0
TABLE
  2
LAYER
 70
     2
  0
LAYER
  2
0
 70
     0
 62
     7
  6
CONTINUOUS
  0
LAYER
  2
_________2
 70
     0
 62
     7
  6
CONTINUOUS
  0
ENDTAB
  0
TABLE
  2
STYLE
 70
     1
  0
STYLE
  2
STANDARD
 70
     0
 40
0.0
 41
0.0
 50
0.0
 71
     0
 42
0.0
  3
TXT
  4
EXTFONT.SHX
  0
ENDTAB
  0
TABLE
  2
VIEW
 70
     0
  0
ENDTAB
  0
TABLE
  2
UCS
 70
     0
  0
ENDTAB
  0
TABLE
  2
APPID
 70
     1
  0
APPID
  2
ACAD
 70
     0
  0
ENDTAB
  0
TABLE
  2
DIMSTYLE
 70
     1
  0
DIMSTYLE
  2
STANDARD
 70
     0
  3

  4

  5

  6

  7

 40
1.0
 41
0.18
 42
0.0625
 43
0.38
 44
0.18
 45
0.0
 46
0.0
 47
0.0
 48
0.0
140
0.18
141
0.09
142
0.0
143
25.399999999999999
144
1.0
145
0.0
146
1.0
147
0.09
 71
     0
 72
     0
 73
     1
 74
     1
 75
     0
 76
     0
 77
     0
 78
     0
170
     0
171
     2
172
     0
173
     0
174
     0
175
     0
176
     0
177
     0
178
     0
  0
ENDTAB
  0
ENDSEC
  0
SECTION
  2
BLOCKS
  0
BLOCK
  8
0
  2
$MODEL_SPACE
 70
     0
 10
0.0
 20
0.0
 30
0.0
  3
$MODEL_SPACE
  1

  0
ENDBLK
  5
1A
  8
0
  0
BLOCK
 67
     1
  8
0
  2
$PAPER_SPACE
 70
     0
 10
0.0
 20
0.0
 30
0.0
  3
$PAPER_SPACE
  1

  0
ENDBLK
  5
17
 67
     1
  8
0
  0
ENDSEC
  0
SECTION
  2
ENTITIES
  0
TEXT
  5
23
  8
0
 62
     7
 10
141.478499
 20
187.65199999999999
 30
0.0
 40
3.0923400000000001
  1
樹脂プラグ%%c6×30付
 41
0.5
 72
     2
 11
159.98099999999991
 21
187.65199999999999
 31
0.0
  0
TEXT
  5
24
  8
0
 62
     7
 10
132.92302499999991
 20
192.89099999999991
 30
0.0
 40
3.0923400000000001
  1
SSクロメート皿木ねじ%%c4×40
 41
0.5
 72
     2
 11
159.98099999999991
 21
192.89099999999991
 31
0.0
  0
TEXT
  5
25
  8
0
 62
     7
 10
110.4385249999999
 20
105.166
 30
0.0
 40
3.0923400000000001
  1
28
 41
0.5
 72
     1
 11
111.7269999999999
 21
105.166
 31
0.0
  0
TEXT
  5
26
  8
0
 62
     7
 10
88.320699999999988
 20
120.175135
 30
0.0
 40
3.0923400000000001
  1
%%c15
 50
90.0
 41
0.5
 72
     1
 11
88.320699999999988
 21
121.9789999999999
 31
0.0
  0
LINE
  5
27
  8
0
 62
     7
 10
137.05799999999991
 20
175.78
 30
0.0
 11
138.65899999999991
 21
174.14199999999991
 31
0.0
  0
LINE
  5
28
  8
0
 62
     7
 10
138.65899999999991
 20
174.14199999999991
 30
0.0
 11
138.09100000000001
 21
176.3609999999999
 31
0.0
  0
LINE
  5
29
  8
0
 62
     7
 10
138.09100000000001
 20
176.3609999999999
 30
0.0
 11
137.05799999999991
 21
175.78
 31
0.0
  0
LINE
  5
2A
  8
0
 62
     7
 10
159.98099999999991
 20
191.608
 30
0.0
 11
128.83000000000001
 21
191.608
 31
0.0
  0
LINE
  5
2B
  8
0
 62
     7
 10
128.83000000000001
 20
191.608
 30
0.0
 11
138.65899999999991
 21
174.14199999999991
 31
0.0
  0
ARC
  5
34
  8
0
 62
     7
 10
104.782207
 20
127.30776399999991
 30
0.0
 40
4.800082999999999
 50
270.00002000000001
 51
359.99998999999991
  0
ARC
  5
35
  8
0
 62
     7
 10
104.782207
 20
127.307762
 30
0.0
 40
4.8000809999999987
 50
179.99996999999991
 51
270.00002000000001
  0
LINE
  5
36
  8
0
 62
     7
 10
109.58199999999999
 20
127.30799999999989
 30
0.0
 11
109.58199999999999
 21
129.708
 31
0.0
  0
LINE
  5
37
  8
0
 62
     7
 10
99.982100000000003
 20
127.30799999999989
 30
0.0
 11
99.982100000000003
 21
129.708
 31
0.0
  0
LINE
  5
38
  8
0
 62
     7
 10
109.58199999999999
 20
129.708
 30
0.0
 11
126.032
 21
129.708
 31
0.0
  0
LINE
  5
39
  8
0
 62
     7
 10
126.032
 20
129.708
 30
0.0
 11
126.032
 21
114.708
 31
0.0
  0
LINE
  5
3A
  8
0
 62
     7
 10
126.032
 20
114.708
 30
0.0
 11
98.032200000000003
 21
114.708
 31
0.0
  0
LINE
  5
3B
  8
0
 62
     7
 10
98.032200000000003
 20
114.708
 30
0.0
 11
98.032200000000003
 21
129.708
 31
0.0
  0
LINE
  5
3C
  8
0
 62
     7
 10
98.032200000000003
 20
129.708
 30
0.0
 11
99.982100000000003
 21
129.708
 31
0.0
  0
ARC
  5
3D
  8
0
  6
AIGENLINE002
 62
     7
 10
49.200064000000012
 20
122.207612
 30
0.0
 40
2.4997780000000001
 50
270.00002000000001
 51
359.99998999999991
  0
ARC
  5
3E
  8
0
  6
AIGENLINE002
 62
     7
 10
49.199891000000001
 20
122.20778300000001
 30
0.0
 40
2.4999489999999991
 50
180.00395800000001
 51
270.00396799999999
  0
ARC
  5
3F
  8
0
  6
AIGENLINE002
 62
     7
 10
49.200065000000002
 20
122.207611
 30
0.0
 40
2.5001220000000002
 50
90.0
 51
179.99996999999991
  0
ARC
  5
40
  8
0
  6
AIGENLINE002
 62
     7
 10
49.199891000000001
 20
122.20778300000001
 30
0.0
 40
2.4999500000000001
 50
359.99606199999999
 51
89.996032000000014
  0
ARC
  5
41
  8
0
 62
     7
 10
49.200063
 20
122.207612
 30
0.0
 40
7.5000220000000004
 50
270.00002000000001
 51
359.99998999999991
  0
ARC
  5
42
  8
0
 62
     7
 10
49.200063
 20
122.2076099999999
 30
0.0
 40
7.5000189999999991
 50
179.99996999999991
 51
270.00002000000001
  0
ARC
  5
43
  8
0
 62
     7
 10
49.200065000000002
 20
122.2076099999999
 30
0.0
 40
7.5000220000000004
 50
90.0
 51
179.99996999999991
  0
ARC
  5
44
  8
0
 62
     7
 10
49.200063
 20
122.2076099999999
 30
0.0
 40
7.5000220000000004
 50
0.00001
 51
89.999980000000008
  0
LINE
  5
45
  8
0
 62
     7
 10
129.51699999999991
 20
119.0679999999999
 30
0.0
 11
125.8809999999999
 21
125.137
 31
0.0
  0
LINE
  5
46
  8
0
 62
     7
 10
133.05600000000001
 20
119.0679999999999
 30
0.0
 11
129.4199999999999
 21
125.137
 31
0.0
  0
LINE
  5
47
  8
0
 62
     7
 10
136.59399999999991
 20
119.0679999999999
 30
0.0
 11
132.95799999999991
 21
125.137
 31
0.0
  0
LINE
  5
48
  8
0
 62
     7
 10
140.1329999999999
 20
119.0679999999999
 30
0.0
 11
136.49600000000001
 21
125.137
 31
0.0
  0
LINE
  5
49
  8
0
 62
     7
 10
143.672
 20
119.0679999999999
 30
0.0
 11
140.03499999999991
 21
125.137
 31
0.0
  0
LINE
  5
4A
  8
0
 62
     7
 10
147.21100000000001
 20
119.0679999999999
 30
0.0
 11
143.5739999999999
 21
125.137
 31
0.0
  0
LINE
  5
4B
  8
0
 62
     7
 10
150.74899999999991
 20
119.0679999999999
 30
0.0
 11
147.11199999999991
 21
125.137
 31
0.0
  0
LINE
  5
4C
  8
0
 62
     7
 10
154.286
 20
119.0679999999999
 30
0.0
 11
150.65100000000001
 21
125.137
 31
0.0
  0
LINE
  5
4D
  8
0
 62
     7
 10
126.032
 20
123.761
 30
0.0
 11
150.90299999999991
 21
123.761
 31
0.0
  0
LINE
  5
4E
  8
0
 62
     7
 10
150.90299999999991
 20
123.761
 30
0.0
 11
156.0329999999999
 21
122.20099999999999
 31
0.0
  0
LINE
  5
4F
  8
0
 62
     7
 10
126.032
 20
120.6539999999999
 30
0.0
 11
150.93700000000001
 21
120.6539999999999
 31
0.0
  0
LINE
  5
50
  8
0
 62
     7
 10
150.93700000000001
 20
120.6539999999999
 30
0.0
 11
156.0329999999999
 21
122.20099999999999
 31
0.0
  0
LINE
  5
51
  8
0
  6
AIGENLINE001
 62
     7
 10
38.814399999999992
 20
122.208
 30
0.0
 11
59.628399999999992
 21
122.208
 31
0.0
  0
LINE
  5
52
  8
0
  6
AIGENLINE001
 62
     7
 10
95.373599999999996
 20
122.208
 30
0.0
 11
158.44499999999991
 21
122.208
 31
0.0
  0
LINE
  5
53
  8
0
 62
     7
 10
129.51699999999991
 20
169.44900000000001
 30
0.0
 11
125.8809999999999
 21
175.518
 31
0.0
  0
LINE
  5
54
  8
0
 62
     7
 10
133.05600000000001
 20
169.44900000000001
 30
0.0
 11
129.4199999999999
 21
175.518
 31
0.0
  0
LINE
  5
55
  8
0
 62
     7
 10
136.59399999999991
 20
169.44900000000001
 30
0.0
 11
132.95799999999991
 21
175.518
 31
0.0
  0
LINE
  5
56
  8
0
 62
     7
 10
140.1329999999999
 20
169.44900000000001
 30
0.0
 11
136.49600000000001
 21
175.518
 31
0.0
  0
LINE
  5
57
  8
0
 62
     7
 10
143.672
 20
169.44900000000001
 30
0.0
 11
140.03499999999991
 21
175.518
 31
0.0
  0
LINE
  5
58
  8
0
 62
     7
 10
147.21100000000001
 20
169.44900000000001
 30
0.0
 11
143.5739999999999
 21
175.518
 31
0.0
  0
LINE
  5
59
  8
0
 62
     7
 10
150.74799999999991
 20
169.44900000000001
 30
0.0
 11
147.11199999999991
 21
175.518
 31
0.0
  0
LINE
  5
5A
  8
0
 62
     7
 10
154.286
 20
169.44900000000001
 30
0.0
 11
150.65000000000001
 21
175.518
 31
0.0
  0
LINE
  5
5B
  8
0
 62
     7
 10
126.032
 20
174.14199999999991
 30
0.0
 11
150.90299999999991
 21
174.14199999999991
 31
0.0
  0
LINE
  5
5C
  8
0
 62
     7
 10
150.90299999999991
 20
174.14199999999991
 30
0.0
 11
156.0329999999999
 21
172.58199999999991
 31
0.0
  0
LINE
  5
5D
  8
0
 62
     7
 10
126.032
 20
171.035
 30
0.0
 11
150.93700000000001
 21
171.035
 31
0.0
  0
LINE
  5
5E
  8
0
 62
     7
 10
150.93700000000001
 20
171.035
 30
0.0
 11
156.0329999999999
 21
172.58199999999991
 31
0.0
  0
LINE
  5
5F
  8
0
  6
AIGENLINE001
 62
     7
 10
49.200099999999999
 20
112.276
 30
0.0
 11
49.200099999999999
 21
131.827
 31
0.0
  0
LINE
  5
60
  8
0
  6
AIGENLINE001
 62
     7
 10
95.373599999999996
 20
172.58799999999999
 30
0.0
 11
158.44499999999991
 21
172.58799999999999
 31
0.0
  0
LINE
  5
61
  8
0
 62
     7
 10
90.603099999999984
 20
127.50700000000001
 30
0.0
 11
90.010900000000007
 21
129.71700000000001
 31
0.0
  0
LINE
  5
62
  8
0
 62
     7
 10
90.010900000000007
 20
129.71700000000001
 30
0.0
 11
89.418400000000005
 21
127.50700000000001
 31
0.0
  0
LINE
  5
63
  8
0
 62
     7
 10
89.418400000000005
 20
127.50700000000001
 30
0.0
 11
90.603099999999984
 21
127.50700000000001
 31
0.0
  0
LINE
  5
64
  8
0
 62
     7
 10
89.433199999999985
 20
116.96599999999999
 30
0.0
 11
90.025400000000005
 21
114.755
 31
0.0
  0
LINE
  5
65
  8
0
 62
     7
 10
90.025400000000005
 20
114.755
 30
0.0
 11
90.617599999999996
 21
116.96599999999999
 31
0.0
  0
LINE
  5
66
  8
0
 62
     7
 10
90.617599999999996
 20
116.96599999999999
 30
0.0
 11
89.433199999999985
 21
116.96599999999999
 31
0.0
  0
LINE
  5
67
  8
0
 62
     7
 10
90.018199999999993
 20
129.364
 30
0.0
 11
90.018199999999993
 21
114.755
 31
0.0
  0
LINE
  5
68
  8
0
 62
     7
 10
100.33799999999989
 20
104.732
 30
0.0
 11
98.127300000000005
 21
104.139
 31
0.0
  0
LINE
  5
69
  8
0
 62
     7
 10
98.127300000000005
 20
104.139
 30
0.0
 11
100.33799999999989
 21
103.547
 31
0.0
  0
LINE
  5
6A
  8
0
 62
     7
 10
100.33799999999989
 20
103.547
 30
0.0
 11
100.33799999999989
 21
104.732
 31
0.0
  0
LINE
  5
6B
  8
0
 62
     7
 10
123.80799999999989
 20
103.562
 30
0.0
 11
126.0179999999999
 21
104.1539999999999
 31
0.0
  0
LINE
  5
6C
  8
0
 62
     7
 10
126.0179999999999
 20
104.1539999999999
 30
0.0
 11
123.80799999999989
 21
104.746
 31
0.0
  0
LINE
  5
6D
  8
0
 62
     7
 10
123.80799999999989
 20
104.746
 30
0.0
 11
123.80799999999989
 21
103.562
 31
0.0
  0
LINE
  5
6E
  8
0
 62
     7
 10
98.127300000000005
 20
104.14700000000001
 30
0.0
 11
126.0179999999999
 21
104.14700000000001
 31
0.0
  0
LINE
  5
6F
  8
0
 62
     7
 10
96.531800000000004
 20
114.70699999999999
 30
0.0
 11
89.059700000000007
 21
114.70699999999999
 31
0.0
  0
LINE
  5
70
  8
0
 62
     7
 10
96.531800000000004
 20
129.70699999999991
 30
0.0
 11
89.177499999999995
 21
129.70699999999991
 31
0.0
  0
LINE
  5
71
  8
0
 62
     7
 10
98.032200000000003
 20
113.2079999999999
 30
0.0
 11
98.032200000000003
 21
103.339
 31
0.0
  0
LINE
  5
72
  8
0
 62
     7
 10
126.032
 20
113.2079999999999
 30
0.0
 11
126.032
 21
103.235
 31
0.0
  0
ARC
  5
73
  8
0
 62
     7
 10
104.7815189999999
 20
184.6795129999999
 30
0.0
 40
19.588723999999988
 50
255.81666899999991
 51
284.1833509999999
  0
ARC
  5
74
  8
0
 62
     7
 10
104.7815189999999
 20
160.50747599999991
 30
0.0
 40
19.578182999999989
 50
75.808852999999999
 51
104.19112699999999
  0
LINE
  5
75
  8
0
 62
     7
 10
99.981800000000007
 20
165.6879999999999
 30
0.0
 11
99.981800000000007
 21
179.488
 31
0.0
  0
LINE
  5
76
  8
0
 62
     7
 10
109.5809999999999
 20
165.6879999999999
 30
0.0
 11
109.5809999999999
 21
179.488
 31
0.0
  0
LINE
  5
77
  8
0
 62
     7
 10
98.031800000000004
 20
165.08799999999991
 30
0.0
 11
126.032
 21
165.08799999999991
 31
0.0
  0
LINE
  5
78
  8
0
 62
     7
 10
126.032
 20
165.08799999999991
 30
0.0
 11
126.032
 21
180.08799999999999
 31
0.0
  0
LINE
  5
79
  8
0
 62
     7
 10
126.032
 20
180.08799999999999
 30
0.0
 11
98.031800000000004
 21
180.08799999999999
 31
0.0
  0
LINE
  5
7A
  8
0
 62
     7
 10
98.031800000000004
 20
180.08799999999999
 30
0.0
 11
98.031800000000004
 21
165.08799999999991
 31
0.0
  0
LINE
  5
7B
  8
_________2
 62
     7
 10
205.2999999999999
 20
127.411
 30
0.0
 11
183.55000000000001
 21
127.411
 31
0.0
  0
LINE
  5
7C
  8
_________2
 62
     7
 10
100.2999999999999
 20
-4.0910799999999998
 30
0.0
 11
100.2999999999999
 21
-21.071400000000001
 31
0.0
  0
LINE
  5
7D
  8
_________2
 62
     7
 10
100.2999999999999
 20
275.93099999999993
 30
0.0
 11
100.2999999999999
 21
258.911
 31
0.0
  0
LINE
  5
7E
  8
_________2
 62
     7
 10
17.049499999999998
 20
127.411
 30
0.0
 11
-4.7008599999999987
 21
127.411
 31
0.0
  0
LINE
  5
7F
  8
_________2
 62
     7
 10
76.741
 20
29.8047
 30
0.0
 11
74.554699999999997
 21
29.8047
 31
0.0
  0
LINE
  5
80
  8
_________2
 62
     7
 10
77.233699999999999
 20
29.8047
 30
0.0
 11
76.981499999999997
 21
29.8047
 31
0.0
  0
LINE
  5
81
  8
_________2
 62
     7
 10
77.726299999999995
 20
29.8047
 30
0.0
 11
80.651200000000003
 21
29.8047
 31
0.0
  0
LINE
  5
82
  8
_________2
 62
     7
 10
77.233699999999999
 20
29.8047
 30
0.0
 11
77.485200000000006
 21
29.8047
 31
0.0
  0
LINE
  5
83
  8
_________2
 62
     7
 10
70.836799999999997
 20
29.8047
 30
0.0
 11
68.650499999999994
 21
29.8047
 31
0.0
  0
LINE
  5
84
  8
_________2
 62
     7
 10
71.329400000000007
 20
29.8047
 30
0.0
 11
71.077200000000005
 21
29.8047
 31
0.0
  0
LINE
  5
85
  8
_________2
 62
     7
 10
71.329400000000007
 20
30.2974
 30
0.0
 11
71.329400000000007
 21
32.484400000000001
 31
0.0
  0
LINE
  5
86
  8
_________2
 62
     7
 10
71.329400000000007
 20
29.8047
 30
0.0
 11
71.329400000000007
 21
30.056899999999992
 31
0.0
  0
LINE
  5
87
  8
_________2
 62
     7
 10
71.822100000000006
 20
29.8047
 30
0.0
 11
74.009
 21
29.8047
 31
0.0
  0
LINE
  5
88
  8
_________2
 62
     7
 10
71.329400000000007
 20
29.8047
 30
0.0
 11
71.581599999999995
 21
29.8047
 31
0.0
  0
LINE
  5
89
  8
_________2
 62
     7
 10
71.329400000000007
 20
29.312799999999999
 30
0.0
 11
71.329400000000007
 21
27.125800000000002
 31
0.0
  0
LINE
  5
8A
  8
_________2
 62
     7
 10
71.329400000000007
 20
29.8047
 30
0.0
 11
71.329400000000007
 21
29.5532
 31
0.0
  0
LINE
  5
8B
  8
_________2
 62
     7
 10
75.040499999999994
 20
28.5852
 30
0.0
 11
80.218500000000006
 21
27.720400000000001
 31
0.0
  0
LINE
  5
8C
  8
_________2
 62
     7
 10
75.040499999999994
 20
31.0243
 30
0.0
 11
80.218500000000006
 21
31.889700000000001
 31
0.0
  0
LINE
  5
8D
  8
_________2
 62
     7
 10
80.218500000000006
 20
27.720400000000001
 30
0.0
 11
80.218500000000006
 21
31.889700000000001
 31
0.0
  0
LINE
  5
8E
  8
_________2
 62
     7
 10
75.040499999999994
 20
28.5852
 30
0.0
 11
75.040499999999994
 21
31.0243
 31
0.0
  0
ARC
  5
8F
  8
_________2
 62
     7
 10
71.282522999999983
 20
29.75783599999999
 30
0.0
 40
1.267347
 50
2.1211329999999999
 51
87.878856999999996
  0
ARC
  5
90
  8
_________2
 62
     7
 10
71.375959999999992
 20
29.758213000000001
 30
0.0
 40
1.2669559999999991
 50
92.104701000000006
 51
177.8952689999999
  0
ARC
  5
91
  8
_________2
 62
     7
 10
71.376357999999996
 20
29.851671
 30
0.0
 40
1.2673680000000001
 50
182.12203600000001
 51
267.877993
  0
ARC
  5
92
  8
_________2
 62
     7
 10
71.282522999999983
 20
29.851649999999999
 30
0.0
 40
1.267347
 50
272.12114300000002
 51
357.87886700000001
  0
ARC
  5
93
  8
_________2
 62
     7
 10
71.329430000000002
 20
29.804742999999998
 30
0.0
 40
2.0849849999999992
 50
0.00001
 51
89.999980000000008
  0
ARC
  5
94
  8
_________2
 62
     7
 10
71.329431
 20
29.804742999999998
 30
0.0
 40
2.0849849999999992
 50
90.0
 51
179.99996999999991
  0
ARC
  5
95
  8
_________2
 62
     7
 10
71.408771999999999
 20
29.884799999999998
 30
0.0
 40
2.165807
 50
182.1183979999999
 51
267.90056900000002
  0
ARC
  5
96
  8
_________2
 62
     7
 10
71.249459000000002
 20
29.885429999999989
 30
0.0
 40
2.1664590000000001
 50
272.11546800000002
 51
357.86560400000002
  0
TEXT
  5
97
  8
_________2
 62
     7
 10
104.604
 20
1.6794899999999999
 30
0.0
 40
3.0923400000000001
  1
図番
 41
0.5
  0
LINE
  5
98
  8
_________2
 62
     7
 10
103.55
 20
5.9087199999999989
 30
0.0
 11
183.55099999999999
 21
5.9087199999999989
 31
0.0
  0
TEXT
  5
99
  8
_________2
 62
     7
 10
104.604
 20
11.679299999999991
 30
0.0
 40
3.0923400000000001
  1
品番
 41
0.5
  0
TEXT
  5
9A
  8
_________2
 62
     7
 10
104.604
 20
31.818100000000001
 30
0.0
 40
3.0923400000000001
  1
名称
 41
0.5
  0
TEXT
  5
9B
  8
_________2
 62
     7
 10
91.845058333333341
 20
26.821999999999989
 30
0.0
 40
3.6545800000000002
  1
mm
 41
0.5
 72
     1
 11
93.367800000000003
 21
26.821999999999989
 31
0.0
  0
TEXT
  5
9C
  8
_________2
 62
     7
 10
85.643199999999993
 20
31.818100000000001
 30
0.0
 40
3.0923400000000001
  1
単位
 41
0.5
  0
TEXT
  5
9D
  8
_________2
 62
     7
 10
85.643199999999993
 20
19.410799999999991
 30
0.0
 40
3.0923400000000001
  1
尺度
 41
0.5
  0
TEXT
  5
9E
  8
_________2
 62
     7
 10
90.853307000000001
 20
13.2179
 30
0.0
 40
3.6545800000000002
  1
1 ： 1
 41
0.5
 72
     1
 11
93.959699999999998
 21
13.2179
 31
0.0
  0
TEXT
  5
9F
  8
_________2
 62
     7
 10
138.62937500000001
 20
9.1078600000000005
 30
0.0
 40
3.9357000000000002
  1
VL.T17
 41
0.5
 72
     1
 11
143.54900000000001
 21
9.1078600000000005
 31
0.0
  0
TEXT
  5
A0
  8
_________2
 62
     7
 10
138.95734999999999
 20
-0.8926299999999999
 30
0.0
 40
3.9357000000000002
  1
VLT17
 41
0.5
 72
     1
 11
143.54900000000001
 21
-0.8926299999999999
 31
0.0
  0
TEXT
  5
A1
  8
_________2
 62
     7
 10
109.1779999999999
 20
24.2257
 30
0.0
 40
3.9357000000000002
  1
ボラ　フック
 41
0.5
  0
TEXT
  5
A2
  8
_________2
 62
     7
 10
39.303480999999991
 20
13.603
 30
0.0
 40
3.6545800000000002
  1
田尻
 41
0.5
 72
     1
 11
41.313499999999998
 21
13.603
 31
0.0
  0
TEXT
  5
A3
  8
_________2
 62
     7
 10
20.789690666666662
 20
13.603
 30
0.0
 40
3.6545800000000002
  1
石原
 41
0.5
 72
     1
 11
22.738800000000001
 21
13.603
 31
0.0
  0
TEXT
  5
A4
  8
_________2
 62
     7
 10
67.7851
 20
13.2179
 30
0.0
 40
3.6545800000000002
  1
10.07.14
 41
0.5
  0
TEXT
  5
A5
  8
_________2
 62
     7
 10
66.593100000000007
 20
19.410799999999991
 30
0.0
 40
3.0923400000000001
  1
日付
 41
0.5
  0
TEXT
  5
A6
  8
_________2
 62
     7
 10
29.639399999999998
 20
19.410799999999991
 30
0.0
 40
3.0923400000000001
  1
検図
 41
0.5
  0
TEXT
  5
A7
  8
_________2
 62
     7
 10
18.021100000000001
 20
5.21143
 30
0.0
 40
3.0923400000000001
  1
備考
 41
0.5
  0
TEXT
  5
A8
  8
_________2
 62
     7
 10
18.021100000000001
 20
19.410799999999991
 30
0.0
 40
3.0923400000000001
  1
製図
 41
0.5
  0
TEXT
  5
A9
  8
_________2
 62
     7
 10
23.788465333333338
 20
27.936800000000002
 30
0.0
 40
4.4979399999999989
  1
セラトレーディング株式会社
 41
0.5
 72
     1
 11
41.180500000000002
 21
27.936800000000002
 31
0.0
  0
LINE
  5
AA
  8
_________2
 62
     7
 10
183.55099999999999
 20
-4.0910799999999998
 30
0.0
 11
17.049499999999998
 21
-4.0910799999999998
 31
0.0
  0
LINE
  5
AB
  8
_________2
 62
     7
 10
17.049499999999998
 20
-4.0910799999999998
 30
0.0
 11
17.049499999999998
 21
258.911
 31
0.0
  0
LINE
  5
AC
  8
_________2
 62
     7
 10
17.049499999999998
 20
258.911
 30
0.0
 11
183.55099999999999
 21
258.911
 31
0.0
  0
LINE
  5
AD
  8
_________2
 62
     7
 10
183.55099999999999
 20
258.911
 30
0.0
 11
183.55099999999999
 21
-4.0910799999999998
 31
0.0
  0
LINE
  5
AE
  8
_________2
 62
     7
 10
65.549199999999999
 20
9.4089600000000004
 30
0.0
 11
65.549199999999999
 21
35.908799999999999
 31
0.0
  0
LINE
  5
AF
  8
_________2
 62
     7
 10
84.549700000000016
 20
9.4089600000000004
 30
0.0
 11
84.549700000000016
 21
35.908799999999999
 31
0.0
  0
LINE
  5
B0
  8
_________2
 62
     7
 10
103.55
 20
-4.0910799999999998
 30
0.0
 11
103.55
 21
35.908799999999999
 31
0.0
  0
LINE
  5
B1
  8
_________2
 62
     7
 10
28.549299999999992
 20
9.4089600000000004
 30
0.0
 11
28.549299999999992
 21
23.409199999999998
 31
0.0
  0
LINE
  5
B2
  8
_________2
 62
     7
 10
17.049499999999998
 20
9.4089600000000004
 30
0.0
 11
103.55
 21
9.4089600000000004
 31
0.0
  0
LINE
  5
B3
  8
_________2
 62
     7
 10
17.049499999999998
 20
23.409199999999998
 30
0.0
 11
103.55
 21
23.409199999999998
 31
0.0
  0
LINE
  5
B4
  8
_________2
 62
     7
 10
103.55
 20
15.9085
 30
0.0
 11
183.55099999999999
 21
15.9085
 31
0.0
  0
LINE
  5
B5
  8
_________2
 62
     7
 10
17.049499999999998
 20
35.908799999999999
 30
0.0
 11
183.55099999999999
 21
35.908799999999999
 31
0.0
  0
TEXT
  5
B6
  8
_________2
 62
     7
 10
141.05480999999989
 20
39.068699999999993
 30
0.0
 40
3.9357000000000002
  1
注：色番号はカタログを参照ください
 41
0.5
 72
     2
 11
180.54300000000001
 21
39.068699999999993
 31
0.0
  0
ENDSEC
  0
EOF
