  0
SECTION
  2
HEADER
  9
$ACADVER
  1
AC1009
  9
$INSBASE
 10
0.0
 20
0.0
 30
0.0
  9
$EXTMIN
 10
-4.7008599999999987
 20
-21.071400000000001
 30
0.0
  9
$EXTMAX
 10
205.2999999999999
 20
275.93099999999993
 30
0.0
  9
$LIMMIN
 10
0.0
 20
0.0
  9
$LIMMAX
 10
12.0
 20
9.0
  9
$ORTHOMODE
 70
     0
  9
$REGENMODE
 70
     1
  9
$FILLMODE
 70
     1
  9
$QTEXTMODE
 70
     0
  9
$MIRRTEXT
 70
     1
  9
$DRAGMODE
 70
     2
  9
$LTSCALE
 40
1.0
  9
$OSMODE
 70
    37
  9
$ATTMODE
 70
     1
  9
$TEXTSIZE
 40
0.0
  9
$TRACEWID
 40
0.05
  9
$TEXTSTYLE
  7
STANDARD
  9
$CLAYER
  8
0
  9
$CELTYPE
  6
CONTINUOUS
  9
$CECOLOR
 62
   256
  9
$DIMSCALE
 40
1.0
  9
$DIMASZ
 40
0.18
  9
$DIMEXO
 40
0.0625
  9
$DIMDLI
 40
0.38
  9
$DIMRND
 40
0.0
  9
$DIMDLE
 40
0.0
  9
$DIMEXE
 40
0.18
  9
$DIMTP
 40
0.0
  9
$DIMTM
 40
0.0
  9
$DIMTXT
 40
0.18
  9
$DIMCEN
 40
0.09
  9
$DIMTSZ
 40
0.0
  9
$DIMTOL
 70
     0
  9
$DIMLIM
 70
     0
  9
$DIMTIH
 70
     1
  9
$DIMTOH
 70
     1
  9
$DIMSE1
 70
     0
  9
$DIMSE2
 70
     0
  9
$DIMTAD
 70
     0
  9
$DIMZIN
 70
     0
  9
$DIMBLK
  1

  9
$DIMASO
 70
     1
  9
$DIMSHO
 70
     1
  9
$DIMPOST
  1

  9
$DIMAPOST
  1

  9
$DIMALT
 70
     0
  9
$DIMALTD
 70
     2
  9
$DIMALTF
 40
25.399999999999999
  9
$DIMLFAC
 40
1.0
  9
$DIMTOFL
 70
     0
  9
$DIMTVP
 40
0.0
  9
$DIMTIX
 70
     0
  9
$DIMSOXD
 70
     0
  9
$DIMSAH
 70
     0
  9
$DIMBLK1
  1

  9
$DIMBLK2
  1

  9
$DIMSTYLE
  2
STANDARD
  9
$DIMCLRD
 70
     0
  9
$DIMCLRE
 70
     0
  9
$DIMCLRT
 70
     0
  9
$DIMTFAC
 40
1.0
  9
$DIMGAP
 40
0.09
  9
$LUNITS
 70
     2
  9
$LUPREC
 70
     4
  9
$SKETCHINC
 40
0.1
  9
$FILLETRAD
 40
0.0
  9
$AUNITS
 70
     0
  9
$AUPREC
 70
     0
  9
$MENU
  1
.
  9
$ELEVATION
 40
0.0
  9
$PELEVATION
 40
0.0
  9
$THICKNESS
 40
0.0
  9
$LIMCHECK
 70
     0
  9
$BLIPMODE
 70
     0
  9
$CHAMFERA
 40
0.0
  9
$CHAMFERB
 40
0.0
  9
$SKPOLY
 70
     0
  9
$TDCREATE
 40
2444972.375
  9
$TDUPDATE
 40
2455398.3789149178
  9
$TDINDWG
 40
0.0001950579
  9
$TDUSRTIMER
 40
0.0001950579
  9
$USRTIMER
 70
     1
  9
$ANGBASE
 50
0.0
  9
$ANGDIR
 70
     0
  9
$PDMODE
 70
     0
  9
$PDSIZE
 40
0.0
  9
$PLINEWID
 40
0.0
  9
$COORDS
 70
     1
  9
$SPLFRAME
 70
     0
  9
$SPLINETYPE
 70
     6
  9
$SPLINESEGS
 70
     8
  9
$ATTDIA
 70
     0
  9
$ATTREQ
 70
     1
  9
$HANDLING
 70
     1
  9
$HANDSEED
  5
E4
  9
$SURFTAB1
 70
     6
  9
$SURFTAB2
 70
     6
  9
$SURFTYPE
 70
     6
  9
$SURFU
 70
     6
  9
$SURFV
 70
     6
  9
$UCSNAME
  2

  9
$UCSORG
 10
0.0
 20
0.0
 30
0.0
  9
$UCSXDIR
 10
1.0
 20
0.0
 30
0.0
  9
$UCSYDIR
 10
0.0
 20
1.0
 30
0.0
  9
$PUCSNAME
  2

  9
$PUCSORG
 10
0.0
 20
0.0
 30
0.0
  9
$PUCSXDIR
 10
1.0
 20
0.0
 30
0.0
  9
$PUCSYDIR
 10
0.0
 20
1.0
 30
0.0
  9
$USERI1
 70
     0
  9
$USERI2
 70
     0
  9
$USERI3
 70
     0
  9
$USERI4
 70
     0
  9
$USERI5
 70
     0
  9
$USERR1
 40
0.0
  9
$USERR2
 40
0.0
  9
$USERR3
 40
0.0
  9
$USERR4
 40
0.0
  9
$USERR5
 40
0.0
  9
$WORLDVIEW
 70
     1
  9
$SHADEDGE
 70
     3
  9
$SHADEDIF
 70
    70
  9
$TILEMODE
 70
     1
  9
$MAXACTVP
 70
    48
  9
$PLIMCHECK
 70
     0
  9
$PEXTMIN
 10
1.0000000000000000E+020
 20
1.0000000000000000E+020
 30
1.0000000000000000E+020
  9
$PEXTMAX
 10
-1.0000000000000000E+020
 20
-1.0000000000000000E+020
 30
-1.0000000000000000E+020
  9
$PLIMMIN
 10
0.0
 20
0.0
  9
$PLIMMAX
 10
12.0
 20
9.0
  9
$UNITMODE
 70
     0
  9
$VISRETAIN
 70
     1
  9
$PLINEGEN
 70
     0
  9
$PSLTSCALE
 70
     1
  0
ENDSEC
  0
SECTION
  2
TABLES
  0
TABLE
  2
VPORT
 70
     2
  0
VPORT
  2
*ACTIVE
 70
     0
 10
0.0
 20
0.0
 11
1.0
 21
1.0
 12
205.310015494591
 22
127.4297999999999
 13
0.0
 23
0.0
 14
1.0
 24
1.0
 15
0.0
 25
0.0
 16
0.0
 26
0.0
 36
1.0
 17
0.0
 27
0.0
 37
0.0
 40
299.2467506297229
 41
2.2894736842105261
 42
50.0
 43
0.0
 44
0.0
 50
0.0
 51
0.0
 71
     0
 72
   100
 73
     1
 74
     1
 75
     0
 76
     0
 77
     0
 78
     0
  0
ENDTAB
  0
TABLE
  2
LTYPE
 70
     3
  0
LTYPE
  2
CONTINUOUS
 70
     0
  3
Solid line
 72
    65
 73
     0
 40
0.0
  0
LTYPE
  2
AIGENLINE001
 70
     0
  3
generate AI->DXF Converter
 72
    65
 73
     4
 40
5.8561449999999988
 49
3.5278
 49
-0.776115
 49
0.776115
 49
-0.776115
  0
LTYPE
  2
AIGENLINE002
 70
     0
  3
generate AI->DXF Converter
 72
    65
 73
     2
 40
1.5522299999999991
 49
0.776115
 49
-0.776115
  0
ENDTAB
  0
TABLE
  2
LAYER
 70
     2
  0
LAYER
  2
0
 70
     0
 62
     7
  6
CONTINUOUS
  0
LAYER
  2
_________2
 70
     0
 62
     7
  6
CONTINUOUS
  0
ENDTAB
  0
TABLE
  2
STYLE
 70
     1
  0
STYLE
  2
STANDARD
 70
     0
 40
0.0
 41
0.0
 50
0.0
 71
     0
 42
0.0
  3
TXT
  4
EXTFONT.SHX
  0
ENDTAB
  0
TABLE
  2
VIEW
 70
     0
  0
ENDTAB
  0
TABLE
  2
UCS
 70
     0
  0
ENDTAB
  0
TABLE
  2
APPID
 70
     1
  0
APPID
  2
ACAD
 70
     0
  0
ENDTAB
  0
TABLE
  2
DIMSTYLE
 70
     1
  0
DIMSTYLE
  2
STANDARD
 70
     0
  3

  4

  5

  6

  7

 40
1.0
 41
0.18
 42
0.0625
 43
0.38
 44
0.18
 45
0.0
 46
0.0
 47
0.0
 48
0.0
140
0.18
141
0.09
142
0.0
143
25.399999999999999
144
1.0
145
0.0
146
1.0
147
0.09
 71
     0
 72
     0
 73
     1
 74
     1
 75
     0
 76
     0
 77
     0
 78
     0
170
     0
171
     2
172
     0
173
     0
174
     0
175
     0
176
     0
177
     0
178
     0
  0
ENDTAB
  0
ENDSEC
  0
SECTION
  2
BLOCKS
  0
BLOCK
  8
0
  2
$MODEL_SPACE
 70
     0
 10
0.0
 20
0.0
 30
0.0
  3
$MODEL_SPACE
  1

  0
ENDBLK
  5
1A
  8
0
  0
BLOCK
 67
     1
  8
0
  2
$PAPER_SPACE
 70
     0
 10
0.0
 20
0.0
 30
0.0
  3
$PAPER_SPACE
  1

  0
ENDBLK
  5
17
 67
     1
  8
0
  0
ENDSEC
  0
SECTION
  2
ENTITIES
  0
TEXT
  5
23
  8
0
 62
     7
 10
141.1014989999999
 20
189.565
 30
0.0
 40
3.0923400000000001
  1
樹脂プラグ%%c6×30付
 41
0.5
 72
     2
 11
159.6039999999999
 21
189.565
 31
0.0
  0
TEXT
  5
24
  8
0
 62
     7
 10
132.5460249999999
 20
194.53700000000001
 30
0.0
 40
3.0923400000000001
  1
SSクロメート皿木ねじ%%c4×40
 41
0.5
 72
     2
 11
159.6039999999999
 21
194.53700000000001
 31
0.0
  0
TEXT
  5
25
  8
0
 62
     7
 10
100.891525
 20
102.50099999999991
 30
0.0
 40
3.0923400000000001
  1
56
 41
0.5
 72
     1
 11
102.18000000000001
 21
102.50099999999991
 31
0.0
  0
TEXT
  5
26
  8
0
 62
     7
 10
62.350799999999992
 20
117.6051349999999
 30
0.0
 40
3.0923400000000001
  1
%%c15
 50
90.0
 41
0.5
 72
     1
 11
62.350799999999992
 21
119.40899999999991
 31
0.0
  0
LINE
  5
27
  8
0
 62
     7
 10
138.846
 20
173.57900000000001
 30
0.0
 11
140.446
 21
171.94099999999989
 31
0.0
  0
LINE
  5
28
  8
0
 62
     7
 10
140.446
 20
171.94099999999989
 30
0.0
 11
139.87899999999991
 21
174.16
 31
0.0
  0
LINE
  5
29
  8
0
 62
     7
 10
139.87899999999991
 20
174.16
 30
0.0
 11
138.846
 21
173.57900000000001
 31
0.0
  0
LINE
  5
2A
  8
0
 62
     7
 10
159.6039999999999
 20
193.25399999999999
 30
0.0
 11
128.452
 21
193.25399999999999
 31
0.0
  0
LINE
  5
2B
  8
0
 62
     7
 10
128.452
 20
193.25399999999999
 30
0.0
 11
140.446
 21
171.94099999999989
 31
0.0
  0
LINE
  5
2C
  8
0
 62
     7
 10
134.08999999999989
 20
116.40299999999991
 30
0.0
 11
130.45400000000001
 21
122.473
 31
0.0
  0
LINE
  5
2D
  8
0
 62
     7
 10
137.62899999999999
 20
116.40299999999991
 30
0.0
 11
133.99299999999999
 21
122.473
 31
0.0
  0
LINE
  5
2E
  8
0
 62
     7
 10
141.16699999999989
 20
116.40299999999991
 30
0.0
 11
137.53100000000001
 21
122.473
 31
0.0
  0
LINE
  5
2F
  8
0
 62
     7
 10
144.70599999999999
 20
116.40299999999991
 30
0.0
 11
141.0689999999999
 21
122.473
 31
0.0
  0
LINE
  5
30
  8
0
 62
     7
 10
148.245
 20
116.40299999999991
 30
0.0
 11
144.608
 21
122.473
 31
0.0
  0
LINE
  5
31
  8
0
 62
     7
 10
151.78399999999991
 20
116.40299999999991
 30
0.0
 11
148.14699999999999
 21
122.473
 31
0.0
  0
LINE
  5
32
  8
0
 62
     7
 10
155.322
 20
116.40299999999991
 30
0.0
 11
151.68499999999989
 21
122.473
 31
0.0
  0
LINE
  5
33
  8
0
 62
     7
 10
158.85900000000001
 20
116.40299999999991
 30
0.0
 11
155.2239999999999
 21
122.473
 31
0.0
  0
LINE
  5
34
  8
0
 62
     7
 10
130.6049999999999
 20
121.09699999999999
 30
0.0
 11
155.47599999999991
 21
121.09699999999999
 31
0.0
  0
LINE
  5
35
  8
0
 62
     7
 10
155.47599999999991
 20
121.09699999999999
 30
0.0
 11
160.607
 21
119.53700000000001
 31
0.0
  0
LINE
  5
36
  8
0
 62
     7
 10
130.6049999999999
 20
117.9889999999999
 30
0.0
 11
155.51099999999991
 21
117.9889999999999
 31
0.0
  0
LINE
  5
37
  8
0
 62
     7
 10
155.51099999999991
 20
117.9889999999999
 30
0.0
 11
160.607
 21
119.53700000000001
 31
0.0
  0
LINE
  5
38
  8
0
  6
AIGENLINE001
 62
     7
 10
32.042499999999997
 20
119.54299999999991
 30
0.0
 11
52.856499999999997
 21
119.54299999999991
 31
0.0
  0
LINE
  5
39
  8
0
  6
AIGENLINE001
 62
     7
 10
71.947000000000003
 20
119.54299999999991
 30
0.0
 11
163.018
 21
119.54299999999991
 31
0.0
  0
LINE
  5
3A
  8
0
 62
     7
 10
134.08999999999989
 20
167.24799999999999
 30
0.0
 11
130.45400000000001
 21
173.31599999999989
 31
0.0
  0
LINE
  5
3B
  8
0
 62
     7
 10
137.62899999999999
 20
167.24799999999999
 30
0.0
 11
133.99299999999999
 21
173.31599999999989
 31
0.0
  0
LINE
  5
3C
  8
0
 62
     7
 10
141.16699999999989
 20
167.24799999999999
 30
0.0
 11
137.53100000000001
 21
173.31599999999989
 31
0.0
  0
LINE
  5
3D
  8
0
 62
     7
 10
144.70599999999999
 20
167.24799999999999
 30
0.0
 11
141.0689999999999
 21
173.31599999999989
 31
0.0
  0
LINE
  5
3E
  8
0
 62
     7
 10
148.245
 20
167.24799999999999
 30
0.0
 11
144.608
 21
173.31599999999989
 31
0.0
  0
LINE
  5
3F
  8
0
 62
     7
 10
151.78399999999991
 20
167.24799999999999
 30
0.0
 11
148.14699999999999
 21
173.31599999999989
 31
0.0
  0
LINE
  5
40
  8
0
 62
     7
 10
155.322
 20
167.24799999999999
 30
0.0
 11
151.68499999999989
 21
173.31599999999989
 31
0.0
  0
LINE
  5
41
  8
0
 62
     7
 10
158.85900000000001
 20
167.24799999999999
 30
0.0
 11
155.2239999999999
 21
173.31599999999989
 31
0.0
  0
LINE
  5
42
  8
0
 62
     7
 10
130.6049999999999
 20
171.94099999999989
 30
0.0
 11
155.47599999999991
 21
171.94099999999989
 31
0.0
  0
LINE
  5
43
  8
0
 62
     7
 10
155.47599999999991
 20
171.94099999999989
 30
0.0
 11
160.607
 21
170.38099999999989
 31
0.0
  0
LINE
  5
44
  8
0
 62
     7
 10
130.6049999999999
 20
168.834
 30
0.0
 11
155.51099999999991
 21
168.834
 31
0.0
  0
LINE
  5
45
  8
0
 62
     7
 10
155.51099999999991
 20
168.834
 30
0.0
 11
160.607
 21
170.38099999999989
 31
0.0
  0
LINE
  5
46
  8
0
  6
AIGENLINE001
 62
     7
 10
42.428199999999997
 20
109.61199999999999
 30
0.0
 11
42.428199999999997
 21
129.16199999999989
 31
0.0
  0
LINE
  5
47
  8
0
  6
AIGENLINE001
 62
     7
 10
71.947000000000003
 20
170.387
 30
0.0
 11
163.018
 21
170.387
 31
0.0
  0
ARC
  5
58
  8
0
  6
AIGENLINE002
 62
     7
 10
42.400548999999991
 20
119.530621
 30
0.0
 40
2.527946
 50
0.284133
 51
44.744438000000002
  0
ARC
  5
59
  8
0
  6
AIGENLINE002
 62
     7
 10
42.41487399999999
 20
119.5119389999999
 30
0.0
 40
2.531029999999999
 50
45.273091999999998
 51
89.699007999999992
  0
ARC
  5
5A
  8
0
  6
AIGENLINE002
 62
     7
 10
42.439844000000001
 20
119.517523
 30
0.0
 40
2.5254389999999991
 50
90.264863000000005
 51
134.7787999999999
  0
ARC
  5
5B
  8
0
  6
AIGENLINE002
 62
     7
 10
42.456882
 20
119.53045400000001
 30
0.0
 40
2.5283500000000001
 50
135.25928500000001
 51
179.71210400000001
  0
ARC
  5
5C
  8
0
  6
AIGENLINE002
 62
     7
 10
42.458914999999998
 20
119.555662
 30
0.0
 40
2.5303810000000002
 50
180.28316499999991
 51
224.72174899999999
  0
ARC
  5
5D
  8
0
  6
AIGENLINE002
 62
     7
 10
42.439486999999993
 20
119.568083
 30
0.0
 40
2.525417
 50
225.2321499999999
 51
269.74324999999999
  0
ARC
  5
5E
  8
0
  6
AIGENLINE002
 62
     7
 10
42.416513999999999
 20
119.570573
 30
0.0
 40
2.527908
 50
270.2641799999999
 51
314.74466200000001
  0
ARC
  5
5F
  8
0
  6
AIGENLINE002
 62
     7
 10
42.398632999999997
 20
119.555447
 30
0.0
 40
2.5298599999999989
 50
315.27344799999992
 51
359.721678
  0
LINE
  5
60
  8
0
 62
     7
 10
64.983000000000004
 20
124.842
 30
0.0
 11
64.390799999999999
 21
127.0529999999999
 31
0.0
  0
LINE
  5
61
  8
0
 62
     7
 10
64.390799999999999
 20
127.0529999999999
 30
0.0
 11
63.798400000000001
 21
124.842
 31
0.0
  0
LINE
  5
62
  8
0
 62
     7
 10
63.798400000000001
 20
124.842
 30
0.0
 11
64.983000000000004
 21
124.842
 31
0.0
  0
LINE
  5
63
  8
0
 62
     7
 10
63.813000000000002
 20
114.301
 30
0.0
 11
64.405299999999997
 21
112.09099999999999
 31
0.0
  0
LINE
  5
64
  8
0
 62
     7
 10
64.405299999999997
 20
112.09099999999999
 30
0.0
 11
64.997600000000006
 21
114.301
 31
0.0
  0
LINE
  5
65
  8
0
 62
     7
 10
64.997600000000006
 20
114.301
 30
0.0
 11
63.813000000000002
 21
114.301
 31
0.0
  0
LINE
  5
66
  8
0
 62
     7
 10
64.397999999999996
 20
126.7
 30
0.0
 11
64.397999999999996
 21
112.09099999999999
 31
0.0
  0
LINE
  5
67
  8
0
 62
     7
 10
76.9114
 20
102.06699999999999
 30
0.0
 11
74.700800000000001
 21
101.47499999999999
 31
0.0
  0
LINE
  5
68
  8
0
 62
     7
 10
74.700800000000001
 20
101.47499999999999
 30
0.0
 11
76.9114
 21
100.8829999999999
 31
0.0
  0
LINE
  5
69
  8
0
 62
     7
 10
76.9114
 20
100.8829999999999
 30
0.0
 11
76.9114
 21
102.06699999999999
 31
0.0
  0
LINE
  5
6A
  8
0
 62
     7
 10
128.381
 20
100.89700000000001
 30
0.0
 11
130.59100000000001
 21
101.4889999999999
 31
0.0
  0
LINE
  5
6B
  8
0
 62
     7
 10
130.59100000000001
 20
101.4889999999999
 30
0.0
 11
128.381
 21
102.08199999999999
 31
0.0
  0
LINE
  5
6C
  8
0
 62
     7
 10
128.381
 20
102.08199999999999
 30
0.0
 11
128.381
 21
100.89700000000001
 31
0.0
  0
LINE
  5
6D
  8
0
 62
     7
 10
74.700800000000001
 20
101.482
 30
0.0
 11
130.59100000000001
 21
101.482
 31
0.0
  0
LINE
  5
6E
  8
0
 62
     7
 10
73.105199999999996
 20
112.0419999999999
 30
0.0
 11
63.439799999999998
 21
112.0419999999999
 31
0.0
  0
LINE
  5
6F
  8
0
 62
     7
 10
73.105199999999996
 20
127.04299999999991
 30
0.0
 11
63.557400000000001
 21
127.04299999999991
 31
0.0
  0
LINE
  5
70
  8
0
 62
     7
 10
74.605599999999995
 20
110.54299999999991
 30
0.0
 11
74.605599999999995
 21
100.675
 31
0.0
  0
LINE
  5
71
  8
0
 62
     7
 10
130.6049999999999
 20
110.54299999999991
 30
0.0
 11
130.6049999999999
 21
100.56999999999999
 31
0.0
  0
ARC
  5
72
  8
0
 62
     7
 10
81.355066000000008
 20
182.47723899999991
 30
0.0
 40
19.588114000000001
 50
255.815699
 51
284.18432100000001
  0
ARC
  5
73
  8
0
 62
     7
 10
81.355066000000008
 20
158.30689099999989
 30
0.0
 40
19.577573999999998
 50
75.80788299999999
 51
104.1920979999999
  0
LINE
  5
74
  8
0
 62
     7
 10
76.555199999999999
 20
162.887
 30
0.0
 11
76.555199999999999
 21
177.88699999999989
 31
0.0
  0
LINE
  5
75
  8
0
 62
     7
 10
86.155000000000001
 20
162.887
 30
0.0
 11
86.155000000000001
 21
177.88699999999989
 31
0.0
  0
LINE
  5
76
  8
0
 62
     7
 10
130.6049999999999
 20
162.887
 30
0.0
 11
130.6049999999999
 21
177.88699999999989
 31
0.0
  0
LINE
  5
77
  8
0
 62
     7
 10
130.6049999999999
 20
177.88699999999989
 30
0.0
 11
76.104900000000001
 21
177.88699999999989
 31
0.0
  0
LINE
  5
78
  8
0
 62
     7
 10
76.104900000000001
 20
177.88699999999989
 30
0.0
 11
74.605599999999995
 21
176.387
 31
0.0
  0
LINE
  5
79
  8
0
 62
     7
 10
74.605599999999995
 20
176.387
 30
0.0
 11
74.605599999999995
 21
164.38699999999989
 31
0.0
  0
LINE
  5
7A
  8
0
 62
     7
 10
74.605599999999995
 20
164.38699999999989
 30
0.0
 11
76.104900000000001
 21
162.887
 31
0.0
  0
LINE
  5
7B
  8
0
 62
     7
 10
76.104900000000001
 20
162.887
 30
0.0
 11
130.6049999999999
 21
162.887
 31
0.0
  0
ARC
  5
7C
  8
0
 62
     7
 10
42.339907999999987
 20
119.505611
 30
0.0
 40
7.5887190000000002
 50
0.283485
 51
44.725563999999999
  0
ARC
  5
7D
  8
0
 62
     7
 10
42.391467999999989
 20
119.4545729999999
 30
0.0
 40
7.588349
 50
45.273320999999989
 51
89.722875000000002
  0
ARC
  5
7E
  8
0
 62
     7
 10
42.464844999999997
 20
119.4554719999999
 30
0.0
 40
7.5874499999999987
 50
90.276944999999998
 51
134.72945100000001
  0
ARC
  5
7F
  8
0
 62
     7
 10
42.514938000000001
 20
119.506372
 30
0.0
 40
7.5868779999999987
 50
135.26873599999999
 51
179.72217499999999
  0
ARC
  5
80
  8
0
 62
     7
 10
42.519263000000002
 20
119.58069399999989
 30
0.0
 40
7.5912069999999998
 50
180.28333599999991
 51
224.7178569999999
  0
ARC
  5
81
  8
0
 62
     7
 10
42.468485000000001
 20
119.637404
 30
0.0
 40
7.5954069999999998
 50
225.29136099999991
 51
269.69588900000002
  0
ARC
  5
82
  8
0
 62
     7
 10
42.391494999999992
 20
119.629454
 30
0.0
 40
7.5874389999999989
 50
270.27695599999993
 51
314.73320200000001
  0
ARC
  5
83
  8
0
 62
     7
 10
42.338819999999998
 20
119.5801139999999
 30
0.0
 40
7.5898039999999991
 50
315.27783599999992
 51
359.72101099999992
  0
LINE
  5
84
  8
0
 62
     7
 10
74.605599999999995
 20
112.0419999999999
 30
0.0
 11
130.6049999999999
 21
112.0419999999999
 31
0.0
  0
LINE
  5
85
  8
0
 62
     7
 10
130.6049999999999
 20
112.0419999999999
 30
0.0
 11
130.6049999999999
 21
127.04299999999991
 31
0.0
  0
LINE
  5
86
  8
0
 62
     7
 10
130.6049999999999
 20
127.04299999999991
 30
0.0
 11
86.155699999999996
 21
127.04299999999991
 31
0.0
  0
LINE
  5
87
  8
0
 62
     7
 10
86.155699999999996
 20
127.04299999999991
 30
0.0
 11
86.155699999999996
 21
124.6429999999999
 31
0.0
  0
ARC
  5
88
  8
0
 62
     7
 10
81.299207999999979
 20
124.6664039999999
 30
0.0
 40
4.856514999999999
 50
315.26901099999992
 51
359.71939900000001
  0
ARC
  5
89
  8
0
 62
     7
 10
81.331558999999999
 20
124.7007769999999
 30
0.0
 40
4.857952
 50
270.27928900000001
 51
314.71246500000001
  0
ARC
  5
8A
  8
0
 62
     7
 10
81.379866000000007
 20
124.70306599999989
 30
0.0
 40
4.8602460000000001
 50
225.298597
 51
269.70968799999991
  0
ARC
  5
8B
  8
0
 62
     7
 10
81.417127000000008
 20
124.66833799999991
 30
0.0
 40
4.8620390000000002
 50
180.30309199999991
 51
224.69861
  0
LINE
  5
8C
  8
0
 62
     7
 10
76.555199999999999
 20
124.6429999999999
 30
0.0
 11
76.555199999999999
 21
127.04299999999991
 31
0.0
  0
LINE
  5
8D
  8
0
 62
     7
 10
76.555199999999999
 20
127.04299999999991
 30
0.0
 11
74.605599999999995
 21
127.04299999999991
 31
0.0
  0
LINE
  5
8E
  8
0
 62
     7
 10
74.605599999999995
 20
127.04299999999991
 30
0.0
 11
74.605599999999995
 21
112.0419999999999
 31
0.0
  0
LINE
  5
8F
  8
_________2
 62
     7
 10
205.2999999999999
 20
127.411
 30
0.0
 11
183.55000000000001
 21
127.411
 31
0.0
  0
LINE
  5
90
  8
_________2
 62
     7
 10
100.2999999999999
 20
-4.0910799999999998
 30
0.0
 11
100.2999999999999
 21
-21.071400000000001
 31
0.0
  0
LINE
  5
91
  8
_________2
 62
     7
 10
100.2999999999999
 20
275.93099999999993
 30
0.0
 11
100.2999999999999
 21
258.911
 31
0.0
  0
LINE
  5
92
  8
_________2
 62
     7
 10
17.049499999999998
 20
127.411
 30
0.0
 11
-4.7008599999999987
 21
127.411
 31
0.0
  0
LINE
  5
93
  8
_________2
 62
     7
 10
76.741
 20
29.8047
 30
0.0
 11
74.554699999999997
 21
29.8047
 31
0.0
  0
LINE
  5
94
  8
_________2
 62
     7
 10
77.233699999999999
 20
29.8047
 30
0.0
 11
76.981499999999997
 21
29.8047
 31
0.0
  0
LINE
  5
95
  8
_________2
 62
     7
 10
77.726299999999995
 20
29.8047
 30
0.0
 11
80.651200000000003
 21
29.8047
 31
0.0
  0
LINE
  5
96
  8
_________2
 62
     7
 10
77.233699999999999
 20
29.8047
 30
0.0
 11
77.485200000000006
 21
29.8047
 31
0.0
  0
LINE
  5
97
  8
_________2
 62
     7
 10
70.836799999999997
 20
29.8047
 30
0.0
 11
68.650499999999994
 21
29.8047
 31
0.0
  0
LINE
  5
98
  8
_________2
 62
     7
 10
71.329400000000007
 20
29.8047
 30
0.0
 11
71.077200000000005
 21
29.8047
 31
0.0
  0
LINE
  5
99
  8
_________2
 62
     7
 10
71.329400000000007
 20
30.2974
 30
0.0
 11
71.329400000000007
 21
32.484400000000001
 31
0.0
  0
LINE
  5
9A
  8
_________2
 62
     7
 10
71.329400000000007
 20
29.8047
 30
0.0
 11
71.329400000000007
 21
30.056899999999992
 31
0.0
  0
LINE
  5
9B
  8
_________2
 62
     7
 10
71.822100000000006
 20
29.8047
 30
0.0
 11
74.009
 21
29.8047
 31
0.0
  0
LINE
  5
9C
  8
_________2
 62
     7
 10
71.329400000000007
 20
29.8047
 30
0.0
 11
71.581599999999995
 21
29.8047
 31
0.0
  0
LINE
  5
9D
  8
_________2
 62
     7
 10
71.329400000000007
 20
29.312799999999999
 30
0.0
 11
71.329400000000007
 21
27.125800000000002
 31
0.0
  0
LINE
  5
9E
  8
_________2
 62
     7
 10
71.329400000000007
 20
29.8047
 30
0.0
 11
71.329400000000007
 21
29.5532
 31
0.0
  0
LINE
  5
9F
  8
_________2
 62
     7
 10
75.040499999999994
 20
28.5852
 30
0.0
 11
80.218500000000006
 21
27.720400000000001
 31
0.0
  0
LINE
  5
A0
  8
_________2
 62
     7
 10
75.040499999999994
 20
31.0243
 30
0.0
 11
80.218500000000006
 21
31.889700000000001
 31
0.0
  0
LINE
  5
A1
  8
_________2
 62
     7
 10
80.218500000000006
 20
27.720400000000001
 30
0.0
 11
80.218500000000006
 21
31.889700000000001
 31
0.0
  0
LINE
  5
A2
  8
_________2
 62
     7
 10
75.040499999999994
 20
28.5852
 30
0.0
 11
75.040499999999994
 21
31.0243
 31
0.0
  0
ARC
  5
A3
  8
_________2
 62
     7
 10
71.282522999999983
 20
29.75783599999999
 30
0.0
 40
1.267347
 50
2.1211329999999999
 51
87.878856999999996
  0
ARC
  5
A4
  8
_________2
 62
     7
 10
71.375959999999992
 20
29.758213000000001
 30
0.0
 40
1.2669559999999991
 50
92.104701000000006
 51
177.8952689999999
  0
ARC
  5
A5
  8
_________2
 62
     7
 10
71.376357999999996
 20
29.851671
 30
0.0
 40
1.2673680000000001
 50
182.12203600000001
 51
267.877993
  0
ARC
  5
A6
  8
_________2
 62
     7
 10
71.282522999999983
 20
29.851649999999999
 30
0.0
 40
1.267347
 50
272.12114300000002
 51
357.87886700000001
  0
ARC
  5
A7
  8
_________2
 62
     7
 10
71.329430000000002
 20
29.804742999999998
 30
0.0
 40
2.0849849999999992
 50
0.00001
 51
89.999980000000008
  0
ARC
  5
A8
  8
_________2
 62
     7
 10
71.329431
 20
29.804742999999998
 30
0.0
 40
2.0849849999999992
 50
90.0
 51
179.99996999999991
  0
ARC
  5
A9
  8
_________2
 62
     7
 10
71.408771999999999
 20
29.884799999999998
 30
0.0
 40
2.165807
 50
182.1183979999999
 51
267.90056900000002
  0
ARC
  5
AA
  8
_________2
 62
     7
 10
71.249459000000002
 20
29.885429999999989
 30
0.0
 40
2.1664590000000001
 50
272.11546800000002
 51
357.86560400000002
  0
TEXT
  5
AB
  8
_________2
 62
     7
 10
104.604
 20
1.6794899999999999
 30
0.0
 40
3.0923400000000001
  1
図番
 41
0.5
  0
LINE
  5
AC
  8
_________2
 62
     7
 10
103.55
 20
5.9087199999999989
 30
0.0
 11
183.55099999999999
 21
5.9087199999999989
 31
0.0
  0
TEXT
  5
AD
  8
_________2
 62
     7
 10
104.604
 20
11.679299999999991
 30
0.0
 40
3.0923400000000001
  1
品番
 41
0.5
  0
TEXT
  5
AE
  8
_________2
 62
     7
 10
104.604
 20
31.818100000000001
 30
0.0
 40
3.0923400000000001
  1
名称
 41
0.5
  0
TEXT
  5
AF
  8
_________2
 62
     7
 10
91.845058333333341
 20
26.821999999999989
 30
0.0
 40
3.6545800000000002
  1
mm
 41
0.5
 72
     1
 11
93.367800000000003
 21
26.821999999999989
 31
0.0
  0
TEXT
  5
B0
  8
_________2
 62
     7
 10
85.643199999999993
 20
31.818100000000001
 30
0.0
 40
3.0923400000000001
  1
単位
 41
0.5
  0
TEXT
  5
B1
  8
_________2
 62
     7
 10
85.643199999999993
 20
19.410799999999991
 30
0.0
 40
3.0923400000000001
  1
尺度
 41
0.5
  0
TEXT
  5
B2
  8
_________2
 62
     7
 10
90.853307000000001
 20
13.2179
 30
0.0
 40
3.6545800000000002
  1
1 ： 1
 41
0.5
 72
     1
 11
93.959699999999998
 21
13.2179
 31
0.0
  0
TEXT
  5
B3
  8
_________2
 62
     7
 10
138.62937500000001
 20
9.1078600000000005
 30
0.0
 40
3.9357000000000002
  1
VL.T18
 41
0.5
 72
     1
 11
143.54900000000001
 21
9.1078600000000005
 31
0.0
  0
TEXT
  5
B4
  8
_________2
 62
     7
 10
138.95734999999999
 20
-0.8926299999999999
 30
0.0
 40
3.9357000000000002
  1
VLT18
 41
0.5
 72
     1
 11
143.54900000000001
 21
-0.8926299999999999
 31
0.0
  0
TEXT
  5
B5
  8
_________2
 62
     7
 10
109.1779999999999
 20
24.2257
 30
0.0
 40
3.9357000000000002
  1
ボラ　フック
 41
0.5
  0
TEXT
  5
B6
  8
_________2
 62
     7
 10
39.303480999999991
 20
13.603
 30
0.0
 40
3.6545800000000002
  1
田尻
 41
0.5
 72
     1
 11
41.313499999999998
 21
13.603
 31
0.0
  0
TEXT
  5
B7
  8
_________2
 62
     7
 10
20.789690666666662
 20
13.603
 30
0.0
 40
3.6545800000000002
  1
石原
 41
0.5
 72
     1
 11
22.738800000000001
 21
13.603
 31
0.0
  0
TEXT
  5
B8
  8
_________2
 62
     7
 10
67.7851
 20
13.2179
 30
0.0
 40
3.6545800000000002
  1
10.07.14
 41
0.5
  0
TEXT
  5
B9
  8
_________2
 62
     7
 10
66.593100000000007
 20
19.410799999999991
 30
0.0
 40
3.0923400000000001
  1
日付
 41
0.5
  0
TEXT
  5
BA
  8
_________2
 62
     7
 10
29.639399999999998
 20
19.410799999999991
 30
0.0
 40
3.0923400000000001
  1
検図
 41
0.5
  0
TEXT
  5
BB
  8
_________2
 62
     7
 10
18.021100000000001
 20
5.21143
 30
0.0
 40
3.0923400000000001
  1
備考
 41
0.5
  0
TEXT
  5
BC
  8
_________2
 62
     7
 10
18.021100000000001
 20
19.410799999999991
 30
0.0
 40
3.0923400000000001
  1
製図
 41
0.5
  0
TEXT
  5
BD
  8
_________2
 62
     7
 10
23.788465333333338
 20
27.936800000000002
 30
0.0
 40
4.4979399999999989
  1
セラトレーディング株式会社
 41
0.5
 72
     1
 11
41.180500000000002
 21
27.936800000000002
 31
0.0
  0
LINE
  5
BE
  8
_________2
 62
     7
 10
183.55099999999999
 20
-4.0910799999999998
 30
0.0
 11
17.049499999999998
 21
-4.0910799999999998
 31
0.0
  0
LINE
  5
BF
  8
_________2
 62
     7
 10
17.049499999999998
 20
-4.0910799999999998
 30
0.0
 11
17.049499999999998
 21
258.911
 31
0.0
  0
LINE
  5
C0
  8
_________2
 62
     7
 10
17.049499999999998
 20
258.911
 30
0.0
 11
183.55099999999999
 21
258.911
 31
0.0
  0
LINE
  5
C1
  8
_________2
 62
     7
 10
183.55099999999999
 20
258.911
 30
0.0
 11
183.55099999999999
 21
-4.0910799999999998
 31
0.0
  0
LINE
  5
C2
  8
_________2
 62
     7
 10
65.549199999999999
 20
9.4089600000000004
 30
0.0
 11
65.549199999999999
 21
35.908799999999999
 31
0.0
  0
LINE
  5
C3
  8
_________2
 62
     7
 10
84.549700000000016
 20
9.4089600000000004
 30
0.0
 11
84.549700000000016
 21
35.908799999999999
 31
0.0
  0
LINE
  5
C4
  8
_________2
 62
     7
 10
103.55
 20
-4.0910799999999998
 30
0.0
 11
103.55
 21
35.908799999999999
 31
0.0
  0
LINE
  5
C5
  8
_________2
 62
     7
 10
28.549299999999992
 20
9.4089600000000004
 30
0.0
 11
28.549299999999992
 21
23.409199999999998
 31
0.0
  0
LINE
  5
C6
  8
_________2
 62
     7
 10
17.049499999999998
 20
9.4089600000000004
 30
0.0
 11
103.55
 21
9.4089600000000004
 31
0.0
  0
LINE
  5
C7
  8
_________2
 62
     7
 10
17.049499999999998
 20
23.409199999999998
 30
0.0
 11
103.55
 21
23.409199999999998
 31
0.0
  0
LINE
  5
C8
  8
_________2
 62
     7
 10
103.55
 20
15.9085
 30
0.0
 11
183.55099999999999
 21
15.9085
 31
0.0
  0
LINE
  5
C9
  8
_________2
 62
     7
 10
17.049499999999998
 20
35.908799999999999
 30
0.0
 11
183.55099999999999
 21
35.908799999999999
 31
0.0
  0
TEXT
  5
CA
  8
_________2
 62
     7
 10
141.05480999999989
 20
39.068699999999993
 30
0.0
 40
3.9357000000000002
  1
注：色番号はカタログを参照ください
 41
0.5
 72
     2
 11
180.54300000000001
 21
39.068699999999993
 31
0.0
  0
ENDSEC
  0
EOF
