  0
SECTION
  2
HEADER
  9
$ACADVER
  1
AC1009
  9
$INSBASE
 10
0.0
 20
0.0
 30
0.0
  9
$EXTMIN
 10
-4.7008599999999987
 20
-21.071400000000001
 30
0.0
  9
$EXTMAX
 10
205.2999999999999
 20
275.93099999999993
 30
0.0
  9
$LIMMIN
 10
0.0
 20
0.0
  9
$LIMMAX
 10
12.0
 20
9.0
  9
$ORTHOMODE
 70
     0
  9
$REGENMODE
 70
     1
  9
$FILLMODE
 70
     1
  9
$QTEXTMODE
 70
     0
  9
$MIRRTEXT
 70
     1
  9
$DRAGMODE
 70
     2
  9
$LTSCALE
 40
1.0
  9
$OSMODE
 70
    37
  9
$ATTMODE
 70
     1
  9
$TEXTSIZE
 40
0.0
  9
$TRACEWID
 40
0.05
  9
$TEXTSTYLE
  7
STANDARD
  9
$CLAYER
  8
0
  9
$CELTYPE
  6
CONTINUOUS
  9
$CECOLOR
 62
   256
  9
$DIMSCALE
 40
1.0
  9
$DIMASZ
 40
0.18
  9
$DIMEXO
 40
0.0625
  9
$DIMDLI
 40
0.38
  9
$DIMRND
 40
0.0
  9
$DIMDLE
 40
0.0
  9
$DIMEXE
 40
0.18
  9
$DIMTP
 40
0.0
  9
$DIMTM
 40
0.0
  9
$DIMTXT
 40
0.18
  9
$DIMCEN
 40
0.09
  9
$DIMTSZ
 40
0.0
  9
$DIMTOL
 70
     0
  9
$DIMLIM
 70
     0
  9
$DIMTIH
 70
     1
  9
$DIMTOH
 70
     1
  9
$DIMSE1
 70
     0
  9
$DIMSE2
 70
     0
  9
$DIMTAD
 70
     0
  9
$DIMZIN
 70
     0
  9
$DIMBLK
  1

  9
$DIMASO
 70
     1
  9
$DIMSHO
 70
     1
  9
$DIMPOST
  1

  9
$DIMAPOST
  1

  9
$DIMALT
 70
     0
  9
$DIMALTD
 70
     2
  9
$DIMALTF
 40
25.399999999999999
  9
$DIMLFAC
 40
1.0
  9
$DIMTOFL
 70
     0
  9
$DIMTVP
 40
0.0
  9
$DIMTIX
 70
     0
  9
$DIMSOXD
 70
     0
  9
$DIMSAH
 70
     0
  9
$DIMBLK1
  1

  9
$DIMBLK2
  1

  9
$DIMSTYLE
  2
STANDARD
  9
$DIMCLRD
 70
     0
  9
$DIMCLRE
 70
     0
  9
$DIMCLRT
 70
     0
  9
$DIMTFAC
 40
1.0
  9
$DIMGAP
 40
0.09
  9
$LUNITS
 70
     2
  9
$LUPREC
 70
     4
  9
$SKETCHINC
 40
0.1
  9
$FILLETRAD
 40
0.0
  9
$AUNITS
 70
     0
  9
$AUPREC
 70
     0
  9
$MENU
  1
.
  9
$ELEVATION
 40
0.0
  9
$PELEVATION
 40
0.0
  9
$THICKNESS
 40
0.0
  9
$LIMCHECK
 70
     0
  9
$BLIPMODE
 70
     0
  9
$CHAMFERA
 40
0.0
  9
$CHAMFERB
 40
0.0
  9
$SKPOLY
 70
     0
  9
$TDCREATE
 40
2444972.375
  9
$TDUPDATE
 40
2455398.3794278009
  9
$TDINDWG
 40
0.000006169
  9
$TDUSRTIMER
 40
0.000006169
  9
$USRTIMER
 70
     1
  9
$ANGBASE
 50
0.0
  9
$ANGDIR
 70
     0
  9
$PDMODE
 70
     0
  9
$PDSIZE
 40
0.0
  9
$PLINEWID
 40
0.0
  9
$COORDS
 70
     1
  9
$SPLFRAME
 70
     0
  9
$SPLINETYPE
 70
     6
  9
$SPLINESEGS
 70
     8
  9
$ATTDIA
 70
     0
  9
$ATTREQ
 70
     1
  9
$HANDLING
 70
     1
  9
$HANDSEED
  5
125
  9
$SURFTAB1
 70
     6
  9
$SURFTAB2
 70
     6
  9
$SURFTYPE
 70
     6
  9
$SURFU
 70
     6
  9
$SURFV
 70
     6
  9
$UCSNAME
  2

  9
$UCSORG
 10
0.0
 20
0.0
 30
0.0
  9
$UCSXDIR
 10
1.0
 20
0.0
 30
0.0
  9
$UCSYDIR
 10
0.0
 20
1.0
 30
0.0
  9
$PUCSNAME
  2

  9
$PUCSORG
 10
0.0
 20
0.0
 30
0.0
  9
$PUCSXDIR
 10
1.0
 20
0.0
 30
0.0
  9
$PUCSYDIR
 10
0.0
 20
1.0
 30
0.0
  9
$USERI1
 70
     0
  9
$USERI2
 70
     0
  9
$USERI3
 70
     0
  9
$USERI4
 70
     0
  9
$USERI5
 70
     0
  9
$USERR1
 40
0.0
  9
$USERR2
 40
0.0
  9
$USERR3
 40
0.0
  9
$USERR4
 40
0.0
  9
$USERR5
 40
0.0
  9
$WORLDVIEW
 70
     1
  9
$SHADEDGE
 70
     3
  9
$SHADEDIF
 70
    70
  9
$TILEMODE
 70
     1
  9
$MAXACTVP
 70
    48
  9
$PLIMCHECK
 70
     0
  9
$PEXTMIN
 10
1.0000000000000000E+020
 20
1.0000000000000000E+020
 30
1.0000000000000000E+020
  9
$PEXTMAX
 10
-1.0000000000000000E+020
 20
-1.0000000000000000E+020
 30
-1.0000000000000000E+020
  9
$PLIMMIN
 10
0.0
 20
0.0
  9
$PLIMMAX
 10
12.0
 20
9.0
  9
$UNITMODE
 70
     0
  9
$VISRETAIN
 70
     1
  9
$PLINEGEN
 70
     0
  9
$PSLTSCALE
 70
     1
  0
ENDSEC
  0
SECTION
  2
TABLES
  0
TABLE
  2
VPORT
 70
     2
  0
VPORT
  2
*ACTIVE
 70
     0
 10
0.0
 20
0.0
 11
1.0
 21
1.0
 12
205.310015494591
 22
127.4297999999999
 13
0.0
 23
0.0
 14
1.0
 24
1.0
 15
0.0
 25
0.0
 16
0.0
 26
0.0
 36
1.0
 17
0.0
 27
0.0
 37
0.0
 40
299.2467506297229
 41
2.2894736842105261
 42
50.0
 43
0.0
 44
0.0
 50
0.0
 51
0.0
 71
     0
 72
   100
 73
     1
 74
     1
 75
     0
 76
     0
 77
     0
 78
     0
  0
ENDTAB
  0
TABLE
  2
LTYPE
 70
     4
  0
LTYPE
  2
CONTINUOUS
 70
     0
  3
Solid line
 72
    65
 73
     0
 40
0.0
  0
LTYPE
  2
AIGENLINE001
 70
     0
  3
generate AI->DXF Converter
 72
    65
 73
     4
 40
5.8561449999999988
 49
3.5278
 49
-0.776115
 49
0.776115
 49
-0.776115
  0
LTYPE
  2
AIGENLINE002
 70
     0
  3
generate AI->DXF Converter
 72
    65
 73
     3
 40
1.5522299999999991
 49
0.776115
 49
-0.776115
 49
0.0
  0
LTYPE
  2
AIGENLINE003
 70
     0
  3
generate AI->DXF Converter
 72
    65
 73
     6
 40
7.4083750000000004
 49
3.5278
 49
-0.776115
 49
0.776115
 49
-0.776115
 49
0.776115
 49
-0.776115
  0
ENDTAB
  0
TABLE
  2
LAYER
 70
     2
  0
LAYER
  2
0
 70
     0
 62
     7
  6
CONTINUOUS
  0
LAYER
  2
_________2
 70
     0
 62
     7
  6
CONTINUOUS
  0
ENDTAB
  0
TABLE
  2
STYLE
 70
     1
  0
STYLE
  2
STANDARD
 70
     0
 40
0.0
 41
0.0
 50
0.0
 71
     0
 42
0.0
  3
TXT
  4
EXTFONT.SHX
  0
ENDTAB
  0
TABLE
  2
VIEW
 70
     0
  0
ENDTAB
  0
TABLE
  2
UCS
 70
     0
  0
ENDTAB
  0
TABLE
  2
APPID
 70
     1
  0
APPID
  2
ACAD
 70
     0
  0
ENDTAB
  0
TABLE
  2
DIMSTYLE
 70
     1
  0
DIMSTYLE
  2
STANDARD
 70
     0
  3

  4

  5

  6

  7

 40
1.0
 41
0.18
 42
0.0625
 43
0.38
 44
0.18
 45
0.0
 46
0.0
 47
0.0
 48
0.0
140
0.18
141
0.09
142
0.0
143
25.399999999999999
144
1.0
145
0.0
146
1.0
147
0.09
 71
     0
 72
     0
 73
     1
 74
     1
 75
     0
 76
     0
 77
     0
 78
     0
170
     0
171
     2
172
     0
173
     0
174
     0
175
     0
176
     0
177
     0
178
     0
  0
ENDTAB
  0
ENDSEC
  0
SECTION
  2
BLOCKS
  0
BLOCK
  8
0
  2
$MODEL_SPACE
 70
     0
 10
0.0
 20
0.0
 30
0.0
  3
$MODEL_SPACE
  1

  0
ENDBLK
  5
1A
  8
0
  0
BLOCK
 67
     1
  8
0
  2
$PAPER_SPACE
 70
     0
 10
0.0
 20
0.0
 30
0.0
  3
$PAPER_SPACE
  1

  0
ENDBLK
  5
17
 67
     1
  8
0
  0
ENDSEC
  0
SECTION
  2
ENTITIES
  0
TEXT
  5
24
  8
0
 62
     7
 10
44.109087499999987
 20
163.28499999999991
 30
0.0
 40
3.0923400000000001
  1
%%c40
 41
0.5
 72
     1
 11
46.041800000000002
 21
163.28499999999991
 31
0.0
  0
TEXT
  5
25
  8
0
 62
     7
 10
124.219499
 20
198.5029999999999
 30
0.0
 40
3.0923400000000001
  1
樹脂プラグ%%c6×30付
 41
0.5
 72
     2
 11
142.72200000000001
 21
198.5029999999999
 31
0.0
  0
TEXT
  5
26
  8
0
 62
     7
 10
115.664025
 20
203.47499999999991
 30
0.0
 40
3.0923400000000001
  1
SSクロメート皿木ねじ%%c4×30
 41
0.5
 72
     2
 11
142.72200000000001
 21
203.47499999999991
 31
0.0
  0
TEXT
  5
27
  8
0
 62
     7
 10
130.89537250000001
 20
192.99299999999991
 30
0.0
 40
3.0923400000000001
  1
80
 41
0.5
 72
     1
 11
132.05500000000001
 21
192.99299999999991
 31
0.0
  0
TEXT
  5
28
  8
0
 62
     7
 10
36.8101725
 20
193.13499999999991
 30
0.0
 40
3.0923400000000001
  1
80
 41
0.5
 72
     1
 11
37.969799999999999
 21
193.13499999999991
 31
0.0
  0
TEXT
  5
29
  8
0
 62
     7
 10
82.636487499999987
 20
193.13499999999991
 30
0.0
 40
3.0923400000000001
  1
390
 41
0.5
 72
     1
 11
84.569199999999995
 21
193.13499999999991
 31
0.0
  0
TEXT
  5
2A
  8
0
 62
     7
 10
83.207187500000003
 20
141.589
 30
0.0
 40
3.0923400000000001
  1
550
 41
0.5
 72
     1
 11
85.139899999999983
 21
141.589
 31
0.0
  0
TEXT
  5
2B
  8
0
 62
     7
 10
152.38800000000001
 20
179.40822
 30
0.0
 40
3.0923400000000001
  1
5
 50
90.0
 41
0.5
 72
     2
 11
152.38800000000001
 21
180.43899999999999
 31
0.0
  0
TEXT
  5
2C
  8
0
 62
     7
 10
152.38800000000001
 20
160.59998250000001
 30
0.0
 40
3.0923400000000001
  1
120
 50
90.0
 41
0.5
 72
     1
 11
152.38800000000001
 21
162.27500000000001
 31
0.0
  0
TEXT
  5
2D
  8
0
 62
     7
 10
56.545699999999989
 20
171.37137249999989
 30
0.0
 40
3.0923400000000001
  1
30
 50
90.0
 41
0.5
 72
     1
 11
56.545699999999989
 21
172.53099999999989
 31
0.0
  0
TEXT
  5
2E
  8
0
 62
     7
 10
153.6279999999999
 20
96.902900000000002
 30
0.0
 40
3.0923400000000001
  1
t8
 50
90.0
 41
0.5
  0
LINE
  5
2F
  8
0
 62
     7
 10
46.778300000000002
 20
176.65199999999999
 30
0.0
 11
45.564300000000003
 21
175.92500000000001
 31
0.0
  0
LINE
  5
30
  8
0
 62
     7
 10
46.778300000000002
 20
177.36000000000001
 30
0.0
 11
45.564300000000003
 21
176.63200000000001
 31
0.0
  0
LINE
  5
31
  8
0
 62
     7
 10
46.778300000000002
 20
178.06700000000001
 30
0.0
 11
45.564300000000003
 21
177.34
 31
0.0
  0
LINE
  5
32
  8
0
 62
     7
 10
46.778300000000002
 20
178.77500000000001
 30
0.0
 11
45.564300000000003
 21
178.048
 31
0.0
  0
LINE
  5
33
  8
0
 62
     7
 10
46.778300000000002
 20
179.483
 30
0.0
 11
45.564300000000003
 21
178.75499999999991
 31
0.0
  0
LINE
  5
34
  8
0
 62
     7
 10
46.778300000000002
 20
180.19099999999989
 30
0.0
 11
45.564300000000003
 21
179.46299999999991
 31
0.0
  0
LINE
  5
35
  8
0
 62
     7
 10
46.778300000000002
 20
180.898
 30
0.0
 11
45.564300000000003
 21
180.17099999999991
 31
0.0
  0
LINE
  5
36
  8
0
 62
     7
 10
46.778300000000002
 20
181.60599999999999
 30
0.0
 11
45.564300000000003
 21
180.87899999999999
 31
0.0
  0
LINE
  5
37
  8
0
 62
     7
 10
45.839500000000001
 20
175.95500000000001
 30
0.0
 11
45.839500000000001
 21
180.929
 31
0.0
  0
LINE
  5
38
  8
0
 62
     7
 10
45.839500000000001
 20
180.929
 30
0.0
 11
46.151699999999991
 21
181.95500000000001
 31
0.0
  0
LINE
  5
39
  8
0
 62
     7
 10
46.460999999999999
 20
175.95500000000001
 30
0.0
 11
46.460999999999999
 21
180.93599999999989
 31
0.0
  0
LINE
  5
3A
  8
0
 62
     7
 10
46.460999999999999
 20
180.93599999999989
 30
0.0
 11
46.151699999999991
 21
181.95500000000001
 31
0.0
  0
LINE
  5
3B
  8
0
  6
AIGENLINE001
 62
     7
 10
46.150299999999987
 20
182.72200000000001
 30
0.0
 11
46.150299999999987
 21
168.64500000000001
 31
0.0
  0
LINE
  5
3C
  8
0
 62
     7
 10
124.7789999999999
 20
176.65199999999999
 30
0.0
 11
123.5649999999999
 21
175.92500000000001
 31
0.0
  0
LINE
  5
3D
  8
0
 62
     7
 10
124.7789999999999
 20
177.36000000000001
 30
0.0
 11
123.5649999999999
 21
176.63200000000001
 31
0.0
  0
LINE
  5
3E
  8
0
 62
     7
 10
124.7789999999999
 20
178.06700000000001
 30
0.0
 11
123.5649999999999
 21
177.34
 31
0.0
  0
LINE
  5
3F
  8
0
 62
     7
 10
124.7789999999999
 20
178.77500000000001
 30
0.0
 11
123.5649999999999
 21
178.048
 31
0.0
  0
LINE
  5
40
  8
0
 62
     7
 10
124.7789999999999
 20
179.483
 30
0.0
 11
123.5649999999999
 21
178.75499999999991
 31
0.0
  0
LINE
  5
41
  8
0
 62
     7
 10
124.7789999999999
 20
180.19099999999989
 30
0.0
 11
123.5649999999999
 21
179.46299999999991
 31
0.0
  0
LINE
  5
42
  8
0
 62
     7
 10
124.7789999999999
 20
180.898
 30
0.0
 11
123.5649999999999
 21
180.17099999999991
 31
0.0
  0
LINE
  5
43
  8
0
 62
     7
 10
124.7789999999999
 20
181.60599999999999
 30
0.0
 11
123.5649999999999
 21
180.87899999999999
 31
0.0
  0
LINE
  5
44
  8
0
 62
     7
 10
123.84
 20
175.95500000000001
 30
0.0
 11
123.84
 21
180.929
 31
0.0
  0
LINE
  5
45
  8
0
 62
     7
 10
123.84
 20
180.929
 30
0.0
 11
124.1519999999999
 21
181.95500000000001
 31
0.0
  0
LINE
  5
46
  8
0
 62
     7
 10
124.4609999999999
 20
175.95500000000001
 30
0.0
 11
124.4609999999999
 21
180.93599999999989
 31
0.0
  0
LINE
  5
47
  8
0
 62
     7
 10
124.4609999999999
 20
180.93599999999989
 30
0.0
 11
124.1519999999999
 21
181.95500000000001
 31
0.0
  0
LINE
  5
48
  8
0
 62
     7
 10
173.76900000000001
 20
102.655
 30
0.0
 11
173.042
 21
103.869
 31
0.0
  0
LINE
  5
49
  8
0
 62
     7
 10
174.477
 20
102.655
 30
0.0
 11
173.75
 21
103.869
 31
0.0
  0
LINE
  5
4A
  8
0
 62
     7
 10
175.185
 20
102.655
 30
0.0
 11
174.458
 21
103.869
 31
0.0
  0
LINE
  5
4B
  8
0
 62
     7
 10
175.893
 20
102.655
 30
0.0
 11
175.16499999999991
 21
103.869
 31
0.0
  0
LINE
  5
4C
  8
0
 62
     7
 10
176.59999999999999
 20
102.655
 30
0.0
 11
175.87299999999991
 21
103.869
 31
0.0
  0
LINE
  5
4D
  8
0
 62
     7
 10
177.30799999999999
 20
102.655
 30
0.0
 11
176.5809999999999
 21
103.869
 31
0.0
  0
LINE
  5
4E
  8
0
 62
     7
 10
178.0149999999999
 20
102.655
 30
0.0
 11
177.2879999999999
 21
103.869
 31
0.0
  0
LINE
  5
4F
  8
0
 62
     7
 10
178.7229999999999
 20
102.655
 30
0.0
 11
177.9959999999999
 21
103.869
 31
0.0
  0
LINE
  5
50
  8
0
 62
     7
 10
173.07199999999989
 20
103.59399999999989
 30
0.0
 11
178.04599999999991
 21
103.59399999999989
 31
0.0
  0
LINE
  5
51
  8
0
 62
     7
 10
178.04599999999991
 20
103.59399999999989
 30
0.0
 11
179.072
 21
103.282
 31
0.0
  0
LINE
  5
52
  8
0
 62
     7
 10
173.07199999999989
 20
102.97199999999999
 30
0.0
 11
178.05299999999991
 21
102.97199999999999
 31
0.0
  0
LINE
  5
53
  8
0
 62
     7
 10
178.05299999999991
 20
102.97199999999999
 30
0.0
 11
179.072
 21
103.282
 31
0.0
  0
LINE
  5
54
  8
0
  6
AIGENLINE001
 62
     7
 10
46.111899999999991
 20
108.4699999999999
 30
0.0
 11
46.111899999999991
 21
98.077299999999994
 31
0.0
  0
LINE
  5
55
  8
0
  6
AIGENLINE001
 62
     7
 10
40.993099999999998
 20
103.2829999999999
 30
0.0
 11
51.371899999999997
 21
103.2829999999999
 31
0.0
  0
ARC
  5
56
  8
0
  6
AIGENLINE002
 62
     7
 10
46.093000000000004
 20
103.302277
 30
0.0
 40
0.519269
 50
272.08155599999992
 51
357.89871399999998
  0
ARC
  5
57
  8
0
  6
AIGENLINE002
 62
     7
 10
46.130890000000001
 20
103.30244499999991
 30
0.0
 40
0.519443
 50
182.11914599999989
 51
267.90062399999999
  0
ARC
  5
58
  8
0
  6
AIGENLINE002
 62
     7
 10
46.131081999999999
 20
103.2641949999999
 30
0.0
 40
0.5196290000000001
 50
92.119866999999999
 51
177.89983699999999
  0
ARC
  5
59
  8
0
  6
AIGENLINE002
 62
     7
 10
46.093026000000002
 20
103.26458099999989
 30
0.0
 40
0.5192290000000001
 50
2.059145
 51
87.921110999999996
  0
LINE
  5
5A
  8
0
  6
AIGENLINE001
 62
     7
 10
124.117
 20
108.4699999999999
 30
0.0
 11
124.117
 21
98.077299999999994
 31
0.0
  0
LINE
  5
5B
  8
0
  6
AIGENLINE001
 62
     7
 10
118.998
 20
103.2829999999999
 30
0.0
 11
129.37700000000001
 21
103.2829999999999
 31
0.0
  0
LINE
  5
5C
  8
0
  6
AIGENLINE001
 62
     7
 10
171.893
 20
103.2829999999999
 30
0.0
 11
179.55500000000001
 21
103.2829999999999
 31
0.0
  0
ARC
  5
5D
  8
0
  6
AIGENLINE002
 62
     7
 10
124.0985449999999
 20
103.302289
 30
0.0
 40
0.5192750000000002
 50
272.06314300000003
 51
357.89739400000002
  0
ARC
  5
5E
  8
0
  6
AIGENLINE002
 62
     7
 10
124.13627
 20
103.3026259999999
 30
0.0
 40
0.519623
 50
182.1383349999999
 51
267.90116899999992
  0
ARC
  5
5F
  8
0
  6
AIGENLINE002
 62
     7
 10
124.13629399999991
 20
103.2641829999999
 30
0.0
 40
0.5196350000000001
 50
92.101451999999995
 51
177.898518
  0
ARC
  5
60
  8
0
  6
AIGENLINE002
 62
     7
 10
124.098461
 20
103.264459
 30
0.0
 40
0.5193500000000001
 50
2.0721939999999992
 51
87.927796000000015
  0
LINE
  5
61
  8
0
 62
     7
 10
153.9189999999999
 20
174.95500000000001
 30
0.0
 11
141.1049999999999
 21
174.95500000000001
 31
0.0
  0
LINE
  5
62
  8
0
 62
     7
 10
152.744
 20
178.167
 30
0.0
 11
153.33699999999999
 21
175.95500000000001
 31
0.0
  0
LINE
  5
63
  8
0
 62
     7
 10
153.33699999999999
 20
175.95500000000001
 30
0.0
 11
153.93000000000001
 21
178.167
 31
0.0
  0
LINE
  5
64
  8
0
 62
     7
 10
153.93000000000001
 20
178.167
 30
0.0
 11
152.744
 21
178.167
 31
0.0
  0
LINE
  5
65
  8
0
 62
     7
 10
153.33000000000001
 20
171.04599999999991
 30
0.0
 11
153.33000000000001
 21
180.4859999999999
 31
0.0
  0
LINE
  5
66
  8
0
 62
     7
 10
152.744
 20
153.166
 30
0.0
 11
153.33699999999999
 21
150.95500000000001
 31
0.0
  0
LINE
  5
67
  8
0
 62
     7
 10
153.33699999999999
 20
150.95500000000001
 30
0.0
 11
153.93000000000001
 21
153.166
 31
0.0
  0
LINE
  5
68
  8
0
 62
     7
 10
153.93000000000001
 20
153.166
 30
0.0
 11
152.744
 21
153.166
 31
0.0
  0
LINE
  5
69
  8
0
 62
     7
 10
153.91499999999999
 20
172.74299999999999
 30
0.0
 11
153.32299999999989
 21
174.95500000000001
 31
0.0
  0
LINE
  5
6A
  8
0
 62
     7
 10
153.32299999999989
 20
174.95500000000001
 30
0.0
 11
152.7299999999999
 21
172.74299999999999
 31
0.0
  0
LINE
  5
6B
  8
0
 62
     7
 10
152.7299999999999
 20
172.74299999999999
 30
0.0
 11
153.91499999999999
 21
172.74299999999999
 31
0.0
  0
LINE
  5
6C
  8
0
 62
     7
 10
153.33000000000001
 20
151.078
 30
0.0
 11
153.33000000000001
 21
173.14699999999999
 31
0.0
  0
LINE
  5
6D
  8
0
 62
     7
 10
153.9189999999999
 20
150.95500000000001
 30
0.0
 11
141.203
 21
150.95500000000001
 31
0.0
  0
LINE
  5
6E
  8
0
 62
     7
 10
57.099699999999999
 20
172.167
 30
0.0
 11
57.692300000000003
 21
169.95500000000001
 31
0.0
  0
LINE
  5
6F
  8
0
 62
     7
 10
57.692300000000003
 20
169.95500000000001
 30
0.0
 11
58.284999999999997
 21
172.167
 31
0.0
  0
LINE
  5
70
  8
0
 62
     7
 10
58.284999999999997
 20
172.167
 30
0.0
 11
57.099699999999999
 21
172.167
 31
0.0
  0
LINE
  5
71
  8
0
 62
     7
 10
58.270400000000002
 20
173.74299999999991
 30
0.0
 11
57.677799999999998
 21
175.95500000000001
 31
0.0
  0
LINE
  5
72
  8
0
 62
     7
 10
57.677799999999998
 20
175.95500000000001
 30
0.0
 11
57.085099999999997
 21
173.74299999999991
 31
0.0
  0
LINE
  5
73
  8
0
 62
     7
 10
57.085099999999997
 20
173.74299999999991
 30
0.0
 11
58.270400000000002
 21
173.74299999999991
 31
0.0
  0
LINE
  5
74
  8
0
 62
     7
 10
57.685000000000002
 20
169.95500000000001
 30
0.0
 11
57.685000000000002
 21
175.95500000000001
 31
0.0
  0
LINE
  5
75
  8
0
 62
     7
 10
58.077599999999997
 20
169.95500000000001
 30
0.0
 11
50.950000000000003
 21
169.95500000000001
 31
0.0
  0
LINE
  5
76
  8
0
  6
AIGENLINE003
 62
     7
 10
23.831600000000002
 20
175.95500000000001
 30
0.0
 11
157.209
 21
175.95500000000001
 31
0.0
  0
LINE
  5
77
  8
0
 62
     7
 10
44.362099999999991
 20
162.26900000000001
 30
0.0
 11
42.150300000000001
 21
161.67599999999999
 31
0.0
  0
LINE
  5
78
  8
0
 62
     7
 10
42.150300000000001
 20
161.67599999999999
 30
0.0
 11
44.362099999999991
 21
161.084
 31
0.0
  0
LINE
  5
79
  8
0
 62
     7
 10
44.362099999999991
 20
161.084
 30
0.0
 11
44.362099999999991
 21
162.26900000000001
 31
0.0
  0
LINE
  5
7A
  8
0
 62
     7
 10
47.938499999999991
 20
161.0979999999999
 30
0.0
 11
50.150199999999991
 21
161.691
 31
0.0
  0
LINE
  5
7B
  8
0
 62
     7
 10
50.150199999999991
 20
161.691
 30
0.0
 11
47.938499999999991
 21
162.28399999999999
 31
0.0
  0
LINE
  5
7C
  8
0
 62
     7
 10
47.938499999999991
 20
162.28399999999999
 30
0.0
 11
47.938499999999991
 21
161.0979999999999
 31
0.0
  0
LINE
  5
7D
  8
0
 62
     7
 10
42.172899999999998
 20
161.684
 30
0.0
 11
50.150199999999991
 21
161.684
 31
0.0
  0
LINE
  5
7E
  8
0
 62
     7
 10
42.150300000000001
 20
169.25499999999991
 30
0.0
 11
42.150300000000001
 21
161.08299999999991
 31
0.0
  0
LINE
  5
7F
  8
0
 62
     7
 10
50.150199999999991
 20
169.25499999999991
 30
0.0
 11
50.150199999999991
 21
161.08299999999991
 31
0.0
  0
LINE
  5
80
  8
0
 62
     7
 10
32.361699999999992
 20
141.0379999999999
 30
0.0
 11
30.149899999999999
 21
140.44499999999991
 31
0.0
  0
LINE
  5
81
  8
0
 62
     7
 10
30.149899999999999
 20
140.44499999999991
 30
0.0
 11
32.361699999999992
 21
139.85299999999989
 31
0.0
  0
LINE
  5
82
  8
0
 62
     7
 10
32.361699999999992
 20
139.85299999999989
 30
0.0
 11
32.361699999999992
 21
141.0379999999999
 31
0.0
  0
LINE
  5
83
  8
0
 62
     7
 10
137.93899999999991
 20
139.86699999999999
 30
0.0
 11
140.15100000000001
 21
140.46000000000001
 31
0.0
  0
LINE
  5
84
  8
0
 62
     7
 10
140.15100000000001
 20
140.46000000000001
 30
0.0
 11
137.93899999999991
 21
141.053
 31
0.0
  0
LINE
  5
85
  8
0
 62
     7
 10
137.93899999999991
 20
141.053
 30
0.0
 11
137.93899999999991
 21
139.86699999999999
 31
0.0
  0
LINE
  5
86
  8
0
 62
     7
 10
30.149899999999999
 20
140.453
 30
0.0
 11
139.93600000000001
 21
140.453
 31
0.0
  0
LINE
  5
87
  8
0
 62
     7
 10
121.964
 20
182.51699999999991
 30
0.0
 11
123.5649999999999
 21
180.87899999999999
 31
0.0
  0
LINE
  5
88
  8
0
 62
     7
 10
123.5649999999999
 20
180.87899999999999
 30
0.0
 11
122.997
 21
183.0979999999999
 31
0.0
  0
LINE
  5
89
  8
0
 62
     7
 10
122.997
 20
183.0979999999999
 30
0.0
 11
121.964
 21
182.51699999999991
 31
0.0
  0
LINE
  5
8A
  8
0
 62
     7
 10
137.93899999999991
 20
191.47399999999999
 30
0.0
 11
140.15100000000001
 21
192.06700000000001
 31
0.0
  0
LINE
  5
8B
  8
0
 62
     7
 10
140.15100000000001
 20
192.06700000000001
 30
0.0
 11
137.93899999999991
 21
192.66
 31
0.0
  0
LINE
  5
8C
  8
0
 62
     7
 10
137.93899999999991
 20
192.66
 30
0.0
 11
137.93899999999991
 21
191.47399999999999
 31
0.0
  0
LINE
  5
8D
  8
0
 62
     7
 10
126.36199999999999
 20
192.64500000000001
 30
0.0
 11
124.151
 21
192.053
 31
0.0
  0
LINE
  5
8E
  8
0
 62
     7
 10
124.151
 20
192.053
 30
0.0
 11
126.36199999999999
 21
191.46000000000001
 31
0.0
  0
LINE
  5
8F
  8
0
 62
     7
 10
126.36199999999999
 20
191.46000000000001
 30
0.0
 11
126.36199999999999
 21
192.64500000000001
 31
0.0
  0
LINE
  5
90
  8
0
 62
     7
 10
142.72200000000001
 20
202.19200000000001
 30
0.0
 11
111.56999999999989
 21
202.19200000000001
 31
0.0
  0
LINE
  5
91
  8
0
 62
     7
 10
140.15100000000001
 20
192.06
 30
0.0
 11
124.151
 21
192.06
 31
0.0
  0
LINE
  5
92
  8
0
 62
     7
 10
121.93899999999989
 20
191.47399999999999
 30
0.0
 11
124.151
 21
192.06700000000001
 31
0.0
  0
LINE
  5
93
  8
0
 62
     7
 10
124.151
 20
192.06700000000001
 30
0.0
 11
121.93899999999989
 21
192.66
 31
0.0
  0
LINE
  5
94
  8
0
 62
     7
 10
121.93899999999989
 20
192.66
 30
0.0
 11
121.93899999999989
 21
191.47399999999999
 31
0.0
  0
LINE
  5
95
  8
0
 62
     7
 10
48.361999999999988
 20
192.64500000000001
 30
0.0
 11
46.150299999999987
 21
192.053
 31
0.0
  0
LINE
  5
96
  8
0
 62
     7
 10
46.150299999999987
 20
192.053
 30
0.0
 11
48.361999999999988
 21
191.46000000000001
 31
0.0
  0
LINE
  5
97
  8
0
 62
     7
 10
48.361999999999988
 20
191.46000000000001
 30
0.0
 11
48.361999999999988
 21
192.64500000000001
 31
0.0
  0
LINE
  5
98
  8
0
 62
     7
 10
124.151
 20
192.06
 30
0.0
 11
46.371299999999991
 21
192.06
 31
0.0
  0
LINE
  5
99
  8
0
 62
     7
 10
43.938499999999991
 20
191.47399999999999
 30
0.0
 11
46.150299999999987
 21
192.06700000000001
 31
0.0
  0
LINE
  5
9A
  8
0
 62
     7
 10
46.150299999999987
 20
192.06700000000001
 30
0.0
 11
43.938499999999991
 21
192.66
 31
0.0
  0
LINE
  5
9B
  8
0
 62
     7
 10
43.938499999999991
 20
192.66
 30
0.0
 11
43.938499999999991
 21
191.47399999999999
 31
0.0
  0
LINE
  5
9C
  8
0
 62
     7
 10
32.361699999999992
 20
192.64500000000001
 30
0.0
 11
30.149899999999999
 21
192.053
 31
0.0
  0
LINE
  5
9D
  8
0
 62
     7
 10
30.149899999999999
 20
192.053
 30
0.0
 11
32.361699999999992
 21
191.46000000000001
 31
0.0
  0
LINE
  5
9E
  8
0
 62
     7
 10
32.361699999999992
 20
191.46000000000001
 30
0.0
 11
32.361699999999992
 21
192.64500000000001
 31
0.0
  0
LINE
  5
9F
  8
0
 62
     7
 10
46.150299999999987
 20
192.06
 30
0.0
 11
30.370899999999999
 21
192.06
 31
0.0
  0
LINE
  5
A0
  8
0
 62
     7
 10
42.150300000000001
 20
174.95500000000001
 30
0.0
 11
30.149899999999999
 21
174.95500000000001
 31
0.0
  0
LINE
  5
A1
  8
0
 62
     7
 10
120.151
 20
174.95500000000001
 30
0.0
 11
50.150199999999991
 21
174.95500000000001
 31
0.0
  0
LINE
  5
A2
  8
0
 62
     7
 10
30.149899999999999
 20
139.69200000000001
 30
0.0
 11
30.149899999999999
 21
149.76099999999991
 31
0.0
  0
LINE
  5
A3
  8
0
 62
     7
 10
30.149899999999999
 20
192.67199999999991
 30
0.0
 11
30.149899999999999
 21
176.03899999999999
 31
0.0
  0
LINE
  5
A4
  8
0
 62
     7
 10
46.150299999999987
 20
192.67199999999991
 30
0.0
 11
46.150299999999987
 21
183.45199999999991
 31
0.0
  0
LINE
  5
A5
  8
0
 62
     7
 10
42.150300000000001
 20
169.95500000000001
 30
0.0
 11
50.150199999999991
 21
169.95500000000001
 31
0.0
  0
LINE
  5
A6
  8
0
 62
     7
 10
42.150300000000001
 20
175.95500000000001
 30
0.0
 11
50.150199999999991
 21
175.95500000000001
 31
0.0
  0
LINE
  5
A7
  8
0
 62
     7
 10
42.150300000000001
 20
175.95500000000001
 30
0.0
 11
42.150300000000001
 21
169.95500000000001
 31
0.0
  0
LINE
  5
A8
  8
0
 62
     7
 10
50.150199999999991
 20
175.95500000000001
 30
0.0
 11
50.150199999999991
 21
169.95500000000001
 31
0.0
  0
LINE
  5
A9
  8
0
 62
     7
 10
140.15100000000001
 20
139.69200000000001
 30
0.0
 11
140.15100000000001
 21
149.76099999999991
 31
0.0
  0
LINE
  5
AA
  8
0
 62
     7
 10
111.56999999999989
 20
202.19200000000001
 30
0.0
 11
123.5649999999999
 21
180.87899999999999
 31
0.0
  0
LINE
  5
AB
  8
0
 62
     7
 10
140.15100000000001
 20
192.67199999999991
 30
0.0
 11
140.15100000000001
 21
176.03899999999999
 31
0.0
  0
LINE
  5
AC
  8
0
 62
     7
 10
124.151
 20
192.67199999999991
 30
0.0
 11
124.151
 21
183.2169999999999
 31
0.0
  0
LINE
  5
AD
  8
0
  6
AIGENLINE001
 62
     7
 10
124.151
 20
182.72200000000001
 30
0.0
 11
124.151
 21
168.64500000000001
 31
0.0
  0
LINE
  5
AE
  8
0
 62
     7
 10
128.15100000000001
 20
169.95500000000001
 30
0.0
 11
120.151
 21
169.95500000000001
 31
0.0
  0
LINE
  5
AF
  8
0
 62
     7
 10
128.15100000000001
 20
175.95500000000001
 30
0.0
 11
120.151
 21
175.95500000000001
 31
0.0
  0
LINE
  5
B0
  8
0
 62
     7
 10
128.15100000000001
 20
175.95500000000001
 30
0.0
 11
128.15100000000001
 21
169.95500000000001
 31
0.0
  0
LINE
  5
B1
  8
0
 62
     7
 10
120.151
 20
175.95500000000001
 30
0.0
 11
120.151
 21
169.95500000000001
 31
0.0
  0
LINE
  5
B2
  8
0
 62
     7
 10
140.15100000000001
 20
174.95500000000001
 30
0.0
 11
140.15100000000001
 21
150.95500000000001
 31
0.0
  0
LINE
  5
B3
  8
0
 62
     7
 10
140.15100000000001
 20
174.95500000000001
 30
0.0
 11
128.15100000000001
 21
174.95500000000001
 31
0.0
  0
LINE
  5
B4
  8
0
 62
     7
 10
140.15100000000001
 20
150.95500000000001
 30
0.0
 11
30.149899999999999
 21
150.95500000000001
 31
0.0
  0
LINE
  5
B5
  8
0
 62
     7
 10
30.149899999999999
 20
174.95500000000001
 30
0.0
 11
30.149899999999999
 21
150.95500000000001
 31
0.0
  0
ARC
  5
B6
  8
0
 62
     7
 10
124.21580299999999
 20
103.16058200000001
 30
0.0
 40
4.123615
 50
91.369614999999996
 51
166.98776100000001
  0
ARC
  5
B7
  8
0
 62
     7
 10
124.01603299999999
 20
103.1573099999999
 30
0.0
 40
4.126949999999999
 50
13.34291
 51
88.594770000000011
  0
ARC
  5
B8
  8
0
 62
     7
 10
124.01832899999999
 20
103.40513300000001
 30
0.0
 40
4.1232079999999991
 50
271.374593
 51
347.18394499999999
  0
ARC
  5
B9
  8
0
 62
     7
 10
124.2178589999999
 20
103.40902
 30
0.0
 40
4.1271349999999991
 50
193.51234599999989
 51
268.60300599999988
  0
ARC
  5
BA
  8
0
 62
     7
 10
46.014016999999988
 20
103.404549
 30
0.0
 40
4.1225990000000001
 50
271.35997300000002
 51
346.99385599999999
  0
ARC
  5
BB
  8
0
 62
     7
 10
46.212735000000002
 20
103.4092939999999
 30
0.0
 40
4.1274150000000001
 50
193.44155199999989
 51
268.59956199999988
  0
ARC
  5
BC
  8
0
 62
     7
 10
46.210591999999998
 20
103.16059300000001
 30
0.0
 40
4.1236079999999991
 50
91.371952000000022
 51
166.98789099999991
  0
ARC
  5
BD
  8
0
 62
     7
 10
46.010564000000002
 20
103.15694599999991
 30
0.0
 40
4.1273160000000004
 50
13.31740499999999
 51
88.593637000000015
  0
LINE
  5
BE
  8
0
 62
     7
 10
155.0739999999999
 20
100.261
 30
0.0
 11
154.482
 21
102.471
 31
0.0
  0
LINE
  5
BF
  8
0
 62
     7
 10
154.482
 20
102.471
 30
0.0
 11
153.88900000000001
 21
100.261
 31
0.0
  0
LINE
  5
C0
  8
0
 62
     7
 10
153.88900000000001
 20
100.261
 30
0.0
 11
155.0739999999999
 21
100.261
 31
0.0
  0
LINE
  5
C1
  8
0
 62
     7
 10
153.90399999999991
 20
106.282
 30
0.0
 11
154.49600000000001
 21
104.071
 31
0.0
  0
LINE
  5
C2
  8
0
 62
     7
 10
154.49600000000001
 20
104.071
 30
0.0
 11
155.089
 21
106.282
 31
0.0
  0
LINE
  5
C3
  8
0
 62
     7
 10
155.089
 20
106.282
 30
0.0
 11
153.90399999999991
 21
106.282
 31
0.0
  0
LINE
  5
C4
  8
0
 62
     7
 10
154.489
 20
108.116
 30
0.0
 11
154.489
 21
96.902900000000002
 31
0.0
  0
LINE
  5
C5
  8
0
 62
     7
 10
140.15100000000001
 20
104.071
 30
0.0
 11
30.149899999999999
 21
104.071
 31
0.0
  0
LINE
  5
C6
  8
0
 62
     7
 10
30.149899999999999
 20
104.071
 30
0.0
 11
30.149899999999999
 21
102.471
 31
0.0
  0
LINE
  5
C7
  8
0
 62
     7
 10
30.149899999999999
 20
102.471
 30
0.0
 11
140.15100000000001
 21
102.471
 31
0.0
  0
LINE
  5
C8
  8
0
 62
     7
 10
140.15100000000001
 20
102.471
 30
0.0
 11
140.15100000000001
 21
104.071
 31
0.0
  0
LINE
  5
C9
  8
0
 62
     7
 10
167.298
 20
102.471
 30
0.0
 11
172.07299999999989
 21
102.471
 31
0.0
  0
LINE
  5
CA
  8
0
 62
     7
 10
172.07299999999989
 20
102.471
 30
0.0
 11
172.07299999999989
 21
104.071
 31
0.0
  0
LINE
  5
CB
  8
0
 62
     7
 10
172.07299999999989
 20
104.071
 30
0.0
 11
167.298
 21
104.071
 31
0.0
  0
LINE
  5
CC
  8
0
 62
     7
 10
167.072
 20
102.471
 30
0.0
 11
167.072
 21
99.271400000000014
 31
0.0
  0
LINE
  5
CD
  8
0
 62
     7
 10
167.072
 20
99.271400000000014
 30
0.0
 11
173.07199999999989
 21
99.271400000000014
 31
0.0
  0
LINE
  5
CE
  8
0
 62
     7
 10
173.07199999999989
 20
99.271400000000014
 30
0.0
 11
173.07199999999989
 21
107.271
 31
0.0
  0
LINE
  5
CF
  8
0
 62
     7
 10
173.07199999999989
 20
107.271
 30
0.0
 11
167.072
 21
107.271
 31
0.0
  0
LINE
  5
D0
  8
0
 62
     7
 10
167.072
 20
107.271
 30
0.0
 11
167.072
 21
104.071
 31
0.0
  0
LINE
  5
D1
  8
0
 62
     7
 10
167.298
 20
104.071
 30
0.0
 11
148.07199999999989
 21
104.071
 31
0.0
  0
LINE
  5
D2
  8
0
 62
     7
 10
148.07199999999989
 20
104.071
 30
0.0
 11
148.07199999999989
 21
102.471
 31
0.0
  0
LINE
  5
D3
  8
0
 62
     7
 10
148.07199999999989
 20
102.471
 30
0.0
 11
167.298
 21
102.471
 31
0.0
  0
LINE
  5
D4
  8
_________2
 62
     7
 10
205.2999999999999
 20
127.411
 30
0.0
 11
183.55000000000001
 21
127.411
 31
0.0
  0
LINE
  5
D5
  8
_________2
 62
     7
 10
100.2999999999999
 20
-4.0910799999999998
 30
0.0
 11
100.2999999999999
 21
-21.071400000000001
 31
0.0
  0
LINE
  5
D6
  8
_________2
 62
     7
 10
100.2999999999999
 20
275.93099999999993
 30
0.0
 11
100.2999999999999
 21
258.911
 31
0.0
  0
LINE
  5
D7
  8
_________2
 62
     7
 10
17.049499999999998
 20
127.411
 30
0.0
 11
-4.7008599999999987
 21
127.411
 31
0.0
  0
LINE
  5
D8
  8
_________2
 62
     7
 10
76.741
 20
29.8047
 30
0.0
 11
74.554699999999997
 21
29.8047
 31
0.0
  0
LINE
  5
D9
  8
_________2
 62
     7
 10
77.233699999999999
 20
29.8047
 30
0.0
 11
76.981499999999997
 21
29.8047
 31
0.0
  0
LINE
  5
DA
  8
_________2
 62
     7
 10
77.726299999999995
 20
29.8047
 30
0.0
 11
80.651200000000003
 21
29.8047
 31
0.0
  0
LINE
  5
DB
  8
_________2
 62
     7
 10
77.233699999999999
 20
29.8047
 30
0.0
 11
77.485200000000006
 21
29.8047
 31
0.0
  0
LINE
  5
DC
  8
_________2
 62
     7
 10
70.836799999999997
 20
29.8047
 30
0.0
 11
68.650499999999994
 21
29.8047
 31
0.0
  0
LINE
  5
DD
  8
_________2
 62
     7
 10
71.329400000000007
 20
29.8047
 30
0.0
 11
71.077200000000005
 21
29.8047
 31
0.0
  0
LINE
  5
DE
  8
_________2
 62
     7
 10
71.329400000000007
 20
30.2974
 30
0.0
 11
71.329400000000007
 21
32.484400000000001
 31
0.0
  0
LINE
  5
DF
  8
_________2
 62
     7
 10
71.329400000000007
 20
29.8047
 30
0.0
 11
71.329400000000007
 21
30.056899999999992
 31
0.0
  0
LINE
  5
E0
  8
_________2
 62
     7
 10
71.822100000000006
 20
29.8047
 30
0.0
 11
74.009
 21
29.8047
 31
0.0
  0
LINE
  5
E1
  8
_________2
 62
     7
 10
71.329400000000007
 20
29.8047
 30
0.0
 11
71.581599999999995
 21
29.8047
 31
0.0
  0
LINE
  5
E2
  8
_________2
 62
     7
 10
71.329400000000007
 20
29.312799999999999
 30
0.0
 11
71.329400000000007
 21
27.125800000000002
 31
0.0
  0
LINE
  5
E3
  8
_________2
 62
     7
 10
71.329400000000007
 20
29.8047
 30
0.0
 11
71.329400000000007
 21
29.5532
 31
0.0
  0
LINE
  5
E4
  8
_________2
 62
     7
 10
75.040499999999994
 20
28.5852
 30
0.0
 11
80.218500000000006
 21
27.720400000000001
 31
0.0
  0
LINE
  5
E5
  8
_________2
 62
     7
 10
75.040499999999994
 20
31.0243
 30
0.0
 11
80.218500000000006
 21
31.889700000000001
 31
0.0
  0
LINE
  5
E6
  8
_________2
 62
     7
 10
80.218500000000006
 20
27.720400000000001
 30
0.0
 11
80.218500000000006
 21
31.889700000000001
 31
0.0
  0
LINE
  5
E7
  8
_________2
 62
     7
 10
75.040499999999994
 20
28.5852
 30
0.0
 11
75.040499999999994
 21
31.0243
 31
0.0
  0
ARC
  5
E8
  8
_________2
 62
     7
 10
71.282522999999983
 20
29.75783599999999
 30
0.0
 40
1.267347
 50
2.1211329999999999
 51
87.878856999999996
  0
ARC
  5
E9
  8
_________2
 62
     7
 10
71.375959999999992
 20
29.758213000000001
 30
0.0
 40
1.2669559999999991
 50
92.104701000000006
 51
177.8952689999999
  0
ARC
  5
EA
  8
_________2
 62
     7
 10
71.376357999999996
 20
29.851671
 30
0.0
 40
1.2673680000000001
 50
182.12203600000001
 51
267.877993
  0
ARC
  5
EB
  8
_________2
 62
     7
 10
71.282522999999983
 20
29.851649999999999
 30
0.0
 40
1.267347
 50
272.12114300000002
 51
357.87886700000001
  0
ARC
  5
EC
  8
_________2
 62
     7
 10
71.329430000000002
 20
29.804742999999998
 30
0.0
 40
2.0849849999999992
 50
0.00001
 51
89.999980000000008
  0
ARC
  5
ED
  8
_________2
 62
     7
 10
71.329431
 20
29.804742999999998
 30
0.0
 40
2.0849849999999992
 50
90.0
 51
179.99996999999991
  0
ARC
  5
EE
  8
_________2
 62
     7
 10
71.408771999999999
 20
29.884799999999998
 30
0.0
 40
2.165807
 50
182.1183979999999
 51
267.90056900000002
  0
ARC
  5
EF
  8
_________2
 62
     7
 10
71.249459000000002
 20
29.885429999999989
 30
0.0
 40
2.1664590000000001
 50
272.11546800000002
 51
357.86560400000002
  0
TEXT
  5
F0
  8
_________2
 62
     7
 10
104.604
 20
1.6794899999999999
 30
0.0
 40
3.0923400000000001
  1
図番
 41
0.5
  0
LINE
  5
F1
  8
_________2
 62
     7
 10
103.55
 20
5.9087199999999989
 30
0.0
 11
183.55099999999999
 21
5.9087199999999989
 31
0.0
  0
TEXT
  5
F2
  8
_________2
 62
     7
 10
104.604
 20
11.679299999999991
 30
0.0
 40
3.0923400000000001
  1
品番
 41
0.5
  0
TEXT
  5
F3
  8
_________2
 62
     7
 10
104.604
 20
31.818100000000001
 30
0.0
 40
3.0923400000000001
  1
名称
 41
0.5
  0
TEXT
  5
F4
  8
_________2
 62
     7
 10
91.845058333333341
 20
26.821999999999989
 30
0.0
 40
3.6545800000000002
  1
mm
 41
0.5
 72
     1
 11
93.367800000000003
 21
26.821999999999989
 31
0.0
  0
TEXT
  5
F5
  8
_________2
 62
     7
 10
85.643199999999993
 20
31.818100000000001
 30
0.0
 40
3.0923400000000001
  1
単位
 41
0.5
  0
TEXT
  5
F6
  8
_________2
 62
     7
 10
85.643199999999993
 20
19.410799999999991
 30
0.0
 40
3.0923400000000001
  1
尺度
 41
0.5
  0
TEXT
  5
F7
  8
_________2
 62
     7
 10
90.548758666666686
 20
13.2179
 30
0.0
 40
3.6545800000000002
  1
1 ： 5
 41
0.5
 72
     1
 11
93.959699999999998
 21
13.2179
 31
0.0
  0
TEXT
  5
F8
  8
_________2
 62
     7
 10
138.30139999999989
 20
9.1078600000000005
 30
0.0
 40
3.9357000000000002
  1
VL.T25
 41
0.5
 72
     1
 11
143.54900000000001
 21
9.1078600000000005
 31
0.0
  0
TEXT
  5
F9
  8
_________2
 62
     7
 10
138.62937500000001
 20
-0.8926299999999999
 30
0.0
 40
3.9357000000000002
  1
VLT25
 41
0.5
 72
     1
 11
143.54900000000001
 21
-0.8926299999999999
 31
0.0
  0
TEXT
  5
FA
  8
_________2
 62
     7
 10
24.5868
 20
0.707283
 30
0.0
 40
3.9357000000000002
  1
550W×120Dmm、天板はアクリル樹脂製
 41
0.5
  0
TEXT
  5
FB
  8
_________2
 62
     7
 10
109.1779999999999
 20
24.2257
 30
0.0
 40
3.9357000000000002
  1
ボラ　シェルフ
 41
0.5
  0
TEXT
  5
FC
  8
_________2
 62
     7
 10
39.303480999999991
 20
13.603
 30
0.0
 40
3.6545800000000002
  1
田尻
 41
0.5
 72
     1
 11
41.313499999999998
 21
13.603
 31
0.0
  0
TEXT
  5
FD
  8
_________2
 62
     7
 10
20.789690666666662
 20
13.603
 30
0.0
 40
3.6545800000000002
  1
石原
 41
0.5
 72
     1
 11
22.738800000000001
 21
13.603
 31
0.0
  0
TEXT
  5
FE
  8
_________2
 62
     7
 10
67.7851
 20
13.2179
 30
0.0
 40
3.6545800000000002
  1
10.07-14
 41
0.5
  0
TEXT
  5
FF
  8
_________2
 62
     7
 10
66.593100000000007
 20
19.410799999999991
 30
0.0
 40
3.0923400000000001
  1
日付
 41
0.5
  0
TEXT
  5
100
  8
_________2
 62
     7
 10
29.639399999999998
 20
19.410799999999991
 30
0.0
 40
3.0923400000000001
  1
検図
 41
0.5
  0
TEXT
  5
101
  8
_________2
 62
     7
 10
18.021100000000001
 20
5.21143
 30
0.0
 40
3.0923400000000001
  1
備考
 41
0.5
  0
TEXT
  5
102
  8
_________2
 62
     7
 10
18.021100000000001
 20
19.410799999999991
 30
0.0
 40
3.0923400000000001
  1
製図
 41
0.5
  0
TEXT
  5
103
  8
_________2
 62
     7
 10
23.788465333333338
 20
27.936800000000002
 30
0.0
 40
4.4979399999999989
  1
セラトレーディング株式会社
 41
0.5
 72
     1
 11
41.180500000000002
 21
27.936800000000002
 31
0.0
  0
LINE
  5
104
  8
_________2
 62
     7
 10
183.55099999999999
 20
-4.0910799999999998
 30
0.0
 11
17.049499999999998
 21
-4.0910799999999998
 31
0.0
  0
LINE
  5
105
  8
_________2
 62
     7
 10
17.049499999999998
 20
-4.0910799999999998
 30
0.0
 11
17.049499999999998
 21
258.911
 31
0.0
  0
LINE
  5
106
  8
_________2
 62
     7
 10
17.049499999999998
 20
258.911
 30
0.0
 11
183.55099999999999
 21
258.911
 31
0.0
  0
LINE
  5
107
  8
_________2
 62
     7
 10
183.55099999999999
 20
258.911
 30
0.0
 11
183.55099999999999
 21
-4.0910799999999998
 31
0.0
  0
LINE
  5
108
  8
_________2
 62
     7
 10
65.549199999999999
 20
9.4089600000000004
 30
0.0
 11
65.549199999999999
 21
35.908799999999999
 31
0.0
  0
LINE
  5
109
  8
_________2
 62
     7
 10
84.549700000000016
 20
9.4089600000000004
 30
0.0
 11
84.549700000000016
 21
35.908799999999999
 31
0.0
  0
LINE
  5
10A
  8
_________2
 62
     7
 10
103.55
 20
-4.0910799999999998
 30
0.0
 11
103.55
 21
35.908799999999999
 31
0.0
  0
LINE
  5
10B
  8
_________2
 62
     7
 10
28.549299999999992
 20
9.4089600000000004
 30
0.0
 11
28.549299999999992
 21
23.409199999999998
 31
0.0
  0
LINE
  5
10C
  8
_________2
 62
     7
 10
17.049499999999998
 20
9.4089600000000004
 30
0.0
 11
103.55
 21
9.4089600000000004
 31
0.0
  0
LINE
  5
10D
  8
_________2
 62
     7
 10
17.049499999999998
 20
23.409199999999998
 30
0.0
 11
103.55
 21
23.409199999999998
 31
0.0
  0
LINE
  5
10E
  8
_________2
 62
     7
 10
103.55
 20
15.9085
 30
0.0
 11
183.55099999999999
 21
15.9085
 31
0.0
  0
LINE
  5
10F
  8
_________2
 62
     7
 10
17.049499999999998
 20
35.908799999999999
 30
0.0
 11
183.55099999999999
 21
35.908799999999999
 31
0.0
  0
TEXT
  5
110
  8
_________2
 62
     7
 10
141.05480999999989
 20
39.068699999999993
 30
0.0
 40
3.9357000000000002
  1
注：色番号はカタログを参照ください
 41
0.5
 72
     2
 11
180.54300000000001
 21
39.068699999999993
 31
0.0
  0
ENDSEC
  0
EOF
