  0
SECTION
  2
HEADER
  9
$ACADVER
  1
AC1009
  9
$INSBASE
 10
0.0
 20
0.0
 30
0.0
  9
$EXTMIN
 10
-4.7008599999999987
 20
-21.071400000000001
 30
0.0
  9
$EXTMAX
 10
205.2999999999999
 20
275.93099999999993
 30
0.0
  9
$LIMMIN
 10
0.0
 20
0.0
  9
$LIMMAX
 10
12.0
 20
9.0
  9
$ORTHOMODE
 70
     0
  9
$REGENMODE
 70
     1
  9
$FILLMODE
 70
     1
  9
$QTEXTMODE
 70
     0
  9
$MIRRTEXT
 70
     1
  9
$DRAGMODE
 70
     2
  9
$LTSCALE
 40
1.0
  9
$OSMODE
 70
    37
  9
$ATTMODE
 70
     1
  9
$TEXTSIZE
 40
0.0
  9
$TRACEWID
 40
0.05
  9
$TEXTSTYLE
  7
STANDARD
  9
$CLAYER
  8
0
  9
$CELTYPE
  6
CONTINUOUS
  9
$CECOLOR
 62
   256
  9
$DIMSCALE
 40
1.0
  9
$DIMASZ
 40
0.18
  9
$DIMEXO
 40
0.0625
  9
$DIMDLI
 40
0.38
  9
$DIMRND
 40
0.0
  9
$DIMDLE
 40
0.0
  9
$DIMEXE
 40
0.18
  9
$DIMTP
 40
0.0
  9
$DIMTM
 40
0.0
  9
$DIMTXT
 40
0.18
  9
$DIMCEN
 40
0.09
  9
$DIMTSZ
 40
0.0
  9
$DIMTOL
 70
     0
  9
$DIMLIM
 70
     0
  9
$DIMTIH
 70
     1
  9
$DIMTOH
 70
     1
  9
$DIMSE1
 70
     0
  9
$DIMSE2
 70
     0
  9
$DIMTAD
 70
     0
  9
$DIMZIN
 70
     0
  9
$DIMBLK
  1

  9
$DIMASO
 70
     1
  9
$DIMSHO
 70
     1
  9
$DIMPOST
  1

  9
$DIMAPOST
  1

  9
$DIMALT
 70
     0
  9
$DIMALTD
 70
     2
  9
$DIMALTF
 40
25.399999999999999
  9
$DIMLFAC
 40
1.0
  9
$DIMTOFL
 70
     0
  9
$DIMTVP
 40
0.0
  9
$DIMTIX
 70
     0
  9
$DIMSOXD
 70
     0
  9
$DIMSAH
 70
     0
  9
$DIMBLK1
  1

  9
$DIMBLK2
  1

  9
$DIMSTYLE
  2
STANDARD
  9
$DIMCLRD
 70
     0
  9
$DIMCLRE
 70
     0
  9
$DIMCLRT
 70
     0
  9
$DIMTFAC
 40
1.0
  9
$DIMGAP
 40
0.09
  9
$LUNITS
 70
     2
  9
$LUPREC
 70
     4
  9
$SKETCHINC
 40
0.1
  9
$FILLETRAD
 40
0.0
  9
$AUNITS
 70
     0
  9
$AUPREC
 70
     0
  9
$MENU
  1
.
  9
$ELEVATION
 40
0.0
  9
$PELEVATION
 40
0.0
  9
$THICKNESS
 40
0.0
  9
$LIMCHECK
 70
     0
  9
$BLIPMODE
 70
     0
  9
$CHAMFERA
 40
0.0
  9
$CHAMFERB
 40
0.0
  9
$SKPOLY
 70
     0
  9
$TDCREATE
 40
2444972.375
  9
$TDUPDATE
 40
2455398.3795961691
  9
$TDINDWG
 40
0.0000060532
  9
$TDUSRTIMER
 40
0.0000060532
  9
$USRTIMER
 70
     1
  9
$ANGBASE
 50
0.0
  9
$ANGDIR
 70
     0
  9
$PDMODE
 70
     0
  9
$PDSIZE
 40
0.0
  9
$PLINEWID
 40
0.0
  9
$COORDS
 70
     1
  9
$SPLFRAME
 70
     0
  9
$SPLINETYPE
 70
     6
  9
$SPLINESEGS
 70
     8
  9
$ATTDIA
 70
     0
  9
$ATTREQ
 70
     1
  9
$HANDLING
 70
     1
  9
$HANDSEED
  5
108
  9
$SURFTAB1
 70
     6
  9
$SURFTAB2
 70
     6
  9
$SURFTYPE
 70
     6
  9
$SURFU
 70
     6
  9
$SURFV
 70
     6
  9
$UCSNAME
  2

  9
$UCSORG
 10
0.0
 20
0.0
 30
0.0
  9
$UCSXDIR
 10
1.0
 20
0.0
 30
0.0
  9
$UCSYDIR
 10
0.0
 20
1.0
 30
0.0
  9
$PUCSNAME
  2

  9
$PUCSORG
 10
0.0
 20
0.0
 30
0.0
  9
$PUCSXDIR
 10
1.0
 20
0.0
 30
0.0
  9
$PUCSYDIR
 10
0.0
 20
1.0
 30
0.0
  9
$USERI1
 70
     0
  9
$USERI2
 70
     0
  9
$USERI3
 70
     0
  9
$USERI4
 70
     0
  9
$USERI5
 70
     0
  9
$USERR1
 40
0.0
  9
$USERR2
 40
0.0
  9
$USERR3
 40
0.0
  9
$USERR4
 40
0.0
  9
$USERR5
 40
0.0
  9
$WORLDVIEW
 70
     1
  9
$SHADEDGE
 70
     3
  9
$SHADEDIF
 70
    70
  9
$TILEMODE
 70
     1
  9
$MAXACTVP
 70
    48
  9
$PLIMCHECK
 70
     0
  9
$PEXTMIN
 10
1.0000000000000000E+020
 20
1.0000000000000000E+020
 30
1.0000000000000000E+020
  9
$PEXTMAX
 10
-1.0000000000000000E+020
 20
-1.0000000000000000E+020
 30
-1.0000000000000000E+020
  9
$PLIMMIN
 10
0.0
 20
0.0
  9
$PLIMMAX
 10
12.0
 20
9.0
  9
$UNITMODE
 70
     0
  9
$VISRETAIN
 70
     1
  9
$PLINEGEN
 70
     0
  9
$PSLTSCALE
 70
     1
  0
ENDSEC
  0
SECTION
  2
TABLES
  0
TABLE
  2
VPORT
 70
     2
  0
VPORT
  2
*ACTIVE
 70
     0
 10
0.0
 20
0.0
 11
1.0
 21
1.0
 12
205.310015494591
 22
127.4297999999999
 13
0.0
 23
0.0
 14
1.0
 24
1.0
 15
0.0
 25
0.0
 16
0.0
 26
0.0
 36
1.0
 17
0.0
 27
0.0
 37
0.0
 40
299.2467506297229
 41
2.2894736842105261
 42
50.0
 43
0.0
 44
0.0
 50
0.0
 51
0.0
 71
     0
 72
   100
 73
     1
 74
     1
 75
     0
 76
     0
 77
     0
 78
     0
  0
ENDTAB
  0
TABLE
  2
LTYPE
 70
     2
  0
LTYPE
  2
CONTINUOUS
 70
     0
  3
Solid line
 72
    65
 73
     0
 40
0.0
  0
LTYPE
  2
AIGENLINE001
 70
     0
  3
generate AI->DXF Converter
 72
    65
 73
     4
 40
5.8561449999999988
 49
3.5278
 49
-0.776115
 49
0.776115
 49
-0.776115
  0
ENDTAB
  0
TABLE
  2
LAYER
 70
     2
  0
LAYER
  2
0
 70
     0
 62
     7
  6
CONTINUOUS
  0
LAYER
  2
_________2
 70
     0
 62
     7
  6
CONTINUOUS
  0
ENDTAB
  0
TABLE
  2
STYLE
 70
     1
  0
STYLE
  2
STANDARD
 70
     0
 40
0.0
 41
0.0
 50
0.0
 71
     0
 42
0.0
  3
TXT
  4
EXTFONT.SHX
  0
ENDTAB
  0
TABLE
  2
VIEW
 70
     0
  0
ENDTAB
  0
TABLE
  2
UCS
 70
     0
  0
ENDTAB
  0
TABLE
  2
APPID
 70
     1
  0
APPID
  2
ACAD
 70
     0
  0
ENDTAB
  0
TABLE
  2
DIMSTYLE
 70
     1
  0
DIMSTYLE
  2
STANDARD
 70
     0
  3

  4

  5

  6

  7

 40
1.0
 41
0.18
 42
0.0625
 43
0.38
 44
0.18
 45
0.0
 46
0.0
 47
0.0
 48
0.0
140
0.18
141
0.09
142
0.0
143
25.399999999999999
144
1.0
145
0.0
146
1.0
147
0.09
 71
     0
 72
     0
 73
     1
 74
     1
 75
     0
 76
     0
 77
     0
 78
     0
170
     0
171
     2
172
     0
173
     0
174
     0
175
     0
176
     0
177
     0
178
     0
  0
ENDTAB
  0
ENDSEC
  0
SECTION
  2
BLOCKS
  0
BLOCK
  8
0
  2
$MODEL_SPACE
 70
     0
 10
0.0
 20
0.0
 30
0.0
  3
$MODEL_SPACE
  1

  0
ENDBLK
  5
1A
  8
0
  0
BLOCK
 67
     1
  8
0
  2
$PAPER_SPACE
 70
     0
 10
0.0
 20
0.0
 30
0.0
  3
$PAPER_SPACE
  1

  0
ENDBLK
  5
17
 67
     1
  8
0
  0
ENDSEC
  0
SECTION
  2
ENTITIES
  0
TEXT
  5
22
  8
0
 62
     7
 10
137.01249899999991
 20
180.71599999999989
 30
0.0
 40
3.0923400000000001
  1
樹脂プラグ%%c6×30付
 41
0.5
 72
     2
 11
155.5149999999999
 21
180.71599999999989
 31
0.0
  0
TEXT
  5
23
  8
0
 62
     7
 10
128.4570249999999
 20
186.048
 30
0.0
 40
3.0923400000000001
  1
SSクロメート皿木ねじ%%c4×30
 41
0.5
 72
     2
 11
155.5149999999999
 21
186.048
 31
0.0
  0
TEXT
  5
24
  8
0
 62
     7
 10
103.1963725
 20
107.8799999999999
 30
0.0
 40
3.0923400000000001
  1
80
 41
0.5
 72
     1
 11
104.35599999999999
 21
107.8799999999999
 31
0.0
  0
TEXT
  5
25
  8
0
 62
     7
 10
146.4079999999999
 20
163.49144000000001
 30
0.0
 40
3.0923400000000001
  1
%%c36
 50
90.0
 41
0.5
 72
     1
 11
146.4079999999999
 21
165.55299999999991
 31
0.0
  0
TEXT
  5
26
  8
0
 62
     7
 10
92.541700000000006
 20
166.50599999999989
 30
0.0
 40
3.0923400000000001
  1
%%c32
 50
44.298900000000003
 41
0.5
  0
TEXT
  5
27
  8
0
 62
     7
 10
147.12700000000001
 20
122.79452499999989
 30
0.0
 40
3.0923400000000001
  1
22
 50
90.0
 41
0.5
 72
     1
 11
147.12700000000001
 21
124.083
 31
0.0
  0
ARC
  5
28
  8
0
 62
     7
 10
119.268581
 20
124.1251639999999
 30
0.0
 40
1.0001180000000001
 50
270.00002000000001
 51
359.99998999999991
  0
ARC
  5
29
  8
0
 62
     7
 10
119.268581
 20
124.1251629999999
 30
0.0
 40
1.000116999999999
 50
179.99996999999991
 51
270.00002000000001
  0
ARC
  5
2A
  8
0
 62
     7
 10
119.26858199999999
 20
124.1251629999999
 30
0.0
 40
1.0001180000000001
 50
90.0
 51
179.99996999999991
  0
ARC
  5
2B
  8
0
 62
     7
 10
119.268581
 20
124.1251629999999
 30
0.0
 40
1.0001180000000001
 50
0.00001
 51
89.999980000000008
  0
ARC
  5
2C
  8
0
 62
     7
 10
119.268581
 20
124.1251639999999
 30
0.0
 40
1.5000039999999999
 50
270.00002000000001
 51
359.99998999999991
  0
ARC
  5
2D
  8
0
 62
     7
 10
119.268581
 20
124.1251629999999
 30
0.0
 40
1.5000039999999999
 50
179.99996999999991
 51
270.00002000000001
  0
ARC
  5
2E
  8
0
 62
     7
 10
119.26858199999999
 20
124.1251629999999
 30
0.0
 40
1.5000039999999999
 50
90.0
 51
179.99996999999991
  0
ARC
  5
2F
  8
0
 62
     7
 10
119.268581
 20
124.1251629999999
 30
0.0
 40
1.5000039999999999
 50
0.00001
 51
89.999980000000008
  0
LINE
  5
30
  8
0
 62
     7
 10
126.444
 20
164.529
 30
0.0
 11
124.626
 21
166.529
 31
0.0
  0
LINE
  5
31
  8
0
 62
     7
 10
128.214
 20
164.529
 30
0.0
 11
126.3959999999999
 21
166.529
 31
0.0
  0
LINE
  5
32
  8
0
 62
     7
 10
129.983
 20
164.529
 30
0.0
 11
128.16499999999991
 21
166.529
 31
0.0
  0
LINE
  5
33
  8
0
 62
     7
 10
131.7529999999999
 20
164.529
 30
0.0
 11
129.93399999999991
 21
166.529
 31
0.0
  0
LINE
  5
34
  8
0
 62
     7
 10
133.52199999999999
 20
164.529
 30
0.0
 11
131.703
 21
166.529
 31
0.0
  0
LINE
  5
35
  8
0
 62
     7
 10
135.292
 20
164.529
 30
0.0
 11
133.4729999999999
 21
166.529
 31
0.0
  0
LINE
  5
36
  8
0
 62
     7
 10
137.06
 20
164.529
 30
0.0
 11
135.24199999999999
 21
166.529
 31
0.0
  0
LINE
  5
37
  8
0
 62
     7
 10
138.82900000000001
 20
164.529
 30
0.0
 11
137.012
 21
166.529
 31
0.0
  0
LINE
  5
38
  8
0
 62
     7
 10
124.702
 20
166.21199999999999
 30
0.0
 11
137.13699999999989
 21
166.21199999999999
 31
0.0
  0
LINE
  5
39
  8
0
 62
     7
 10
137.13699999999989
 20
166.21199999999999
 30
0.0
 11
139.70299999999989
 21
165.57299999999989
 31
0.0
  0
LINE
  5
3A
  8
0
 62
     7
 10
124.702
 20
164.93299999999991
 30
0.0
 11
137.155
 21
164.93299999999991
 31
0.0
  0
LINE
  5
3B
  8
0
 62
     7
 10
137.155
 20
164.93299999999991
 30
0.0
 11
139.70299999999989
 21
165.57299999999989
 31
0.0
  0
LINE
  5
3C
  8
0
 62
     7
 10
129.68600000000001
 20
168.07900000000001
 30
0.0
 11
131.01400000000001
 21
166.21199999999999
 31
0.0
  0
LINE
  5
3D
  8
0
 62
     7
 10
131.01400000000001
 20
166.21199999999999
 30
0.0
 11
130.797
 21
168.49299999999999
 31
0.0
  0
LINE
  5
3E
  8
0
 62
     7
 10
130.797
 20
168.49299999999999
 30
0.0
 11
129.68600000000001
 21
168.07900000000001
 31
0.0
  0
LINE
  5
3F
  8
0
 62
     7
 10
155.5149999999999
 20
184.607
 30
0.0
 11
124.15300000000001
 21
184.607
 31
0.0
  0
LINE
  5
40
  8
0
 62
     7
 10
124.15300000000001
 20
184.607
 30
0.0
 11
131.01400000000001
 21
166.21199999999999
 31
0.0
  0
LINE
  5
41
  8
0
  6
AIGENLINE001
 62
     7
 10
93.284099999999995
 20
172.12299999999999
 30
0.0
 11
93.284099999999995
 21
176.709
 31
0.0
  0
LINE
  5
42
  8
0
  6
AIGENLINE001
 62
     7
 10
93.284099999999995
 20
155.18899999999999
 30
0.0
 11
93.284099999999995
 21
163.83199999999999
 31
0.0
  0
LINE
  5
43
  8
0
  6
AIGENLINE001
 62
     7
 10
56.392400000000002
 20
114.4249999999999
 30
0.0
 11
56.392400000000002
 21
134.49100000000001
 31
0.0
  0
LINE
  5
44
  8
0
  6
AIGENLINE001
 62
     7
 10
84.014700000000005
 20
165.57299999999989
 30
0.0
 11
141.053
 21
165.57299999999989
 31
0.0
  0
LINE
  5
45
  8
0
 62
     7
 10
126.444
 20
117.58199999999999
 30
0.0
 11
124.626
 21
119.58199999999999
 31
0.0
  0
LINE
  5
46
  8
0
 62
     7
 10
128.214
 20
117.58199999999999
 30
0.0
 11
126.3959999999999
 21
119.58199999999999
 31
0.0
  0
LINE
  5
47
  8
0
 62
     7
 10
129.983
 20
117.58199999999999
 30
0.0
 11
128.16499999999991
 21
119.58199999999999
 31
0.0
  0
LINE
  5
48
  8
0
 62
     7
 10
131.7529999999999
 20
117.58199999999999
 30
0.0
 11
129.93399999999991
 21
119.58199999999999
 31
0.0
  0
LINE
  5
49
  8
0
 62
     7
 10
133.52199999999999
 20
117.58199999999999
 30
0.0
 11
131.703
 21
119.58199999999999
 31
0.0
  0
LINE
  5
4A
  8
0
 62
     7
 10
135.292
 20
117.58199999999999
 30
0.0
 11
133.4729999999999
 21
119.58199999999999
 31
0.0
  0
LINE
  5
4B
  8
0
 62
     7
 10
137.06
 20
117.58199999999999
 30
0.0
 11
135.24199999999999
 21
119.58199999999999
 31
0.0
  0
LINE
  5
4C
  8
0
 62
     7
 10
138.82900000000001
 20
117.58199999999999
 30
0.0
 11
137.012
 21
119.58199999999999
 31
0.0
  0
LINE
  5
4D
  8
0
 62
     7
 10
124.702
 20
119.2649999999999
 30
0.0
 11
137.13699999999989
 21
119.2649999999999
 31
0.0
  0
LINE
  5
4E
  8
0
 62
     7
 10
137.13699999999989
 20
119.2649999999999
 30
0.0
 11
139.70299999999989
 21
118.625
 31
0.0
  0
LINE
  5
4F
  8
0
 62
     7
 10
124.702
 20
117.986
 30
0.0
 11
137.155
 21
117.986
 31
0.0
  0
LINE
  5
50
  8
0
 62
     7
 10
137.155
 20
117.986
 30
0.0
 11
139.70299999999989
 21
118.625
 31
0.0
  0
LINE
  5
51
  8
0
  6
AIGENLINE001
 62
     7
 10
123.532
 20
118.625
 30
0.0
 11
140.9079999999999
 21
118.625
 31
0.0
  0
LINE
  5
52
  8
0
 62
     7
 10
126.444
 20
128.58199999999991
 30
0.0
 11
124.626
 21
130.58099999999999
 31
0.0
  0
LINE
  5
53
  8
0
 62
     7
 10
128.214
 20
128.58199999999991
 30
0.0
 11
126.3959999999999
 21
130.58099999999999
 31
0.0
  0
LINE
  5
54
  8
0
 62
     7
 10
129.983
 20
128.58199999999991
 30
0.0
 11
128.16499999999991
 21
130.58099999999999
 31
0.0
  0
LINE
  5
55
  8
0
 62
     7
 10
131.7529999999999
 20
128.58199999999991
 30
0.0
 11
129.93399999999991
 21
130.58099999999999
 31
0.0
  0
LINE
  5
56
  8
0
 62
     7
 10
133.52199999999999
 20
128.58199999999991
 30
0.0
 11
131.703
 21
130.58099999999999
 31
0.0
  0
LINE
  5
57
  8
0
 62
     7
 10
135.292
 20
128.58199999999991
 30
0.0
 11
133.4729999999999
 21
130.58099999999999
 31
0.0
  0
LINE
  5
58
  8
0
 62
     7
 10
137.06
 20
128.58199999999991
 30
0.0
 11
135.24199999999999
 21
130.58099999999999
 31
0.0
  0
LINE
  5
59
  8
0
 62
     7
 10
138.82900000000001
 20
128.58199999999991
 30
0.0
 11
137.012
 21
130.58099999999999
 31
0.0
  0
LINE
  5
5A
  8
0
 62
     7
 10
124.702
 20
130.2649999999999
 30
0.0
 11
137.13699999999989
 21
130.2649999999999
 31
0.0
  0
LINE
  5
5B
  8
0
 62
     7
 10
137.13699999999989
 20
130.2649999999999
 30
0.0
 11
139.70299999999989
 21
129.625
 31
0.0
  0
LINE
  5
5C
  8
0
 62
     7
 10
124.702
 20
128.98500000000001
 30
0.0
 11
137.155
 21
128.98500000000001
 31
0.0
  0
LINE
  5
5D
  8
0
 62
     7
 10
137.155
 20
128.98500000000001
 30
0.0
 11
139.70299999999989
 21
129.625
 31
0.0
  0
LINE
  5
5E
  8
0
  6
AIGENLINE001
 62
     7
 10
123.532
 20
129.625
 30
0.0
 11
140.9079999999999
 21
129.625
 31
0.0
  0
LINE
  5
5F
  8
0
  6
AIGENLINE001
 62
     7
 10
113.6179999999999
 20
124.1249999999999
 30
0.0
 11
126.824
 21
124.1249999999999
 31
0.0
  0
LINE
  5
60
  8
0
 62
     7
 10
147.0929999999999
 20
120.836
 30
0.0
 11
147.68499999999989
 21
118.625
 31
0.0
  0
LINE
  5
61
  8
0
 62
     7
 10
147.68499999999989
 20
118.625
 30
0.0
 11
148.27699999999999
 21
120.836
 31
0.0
  0
LINE
  5
62
  8
0
 62
     7
 10
148.27699999999999
 20
120.836
 30
0.0
 11
147.0929999999999
 21
120.836
 31
0.0
  0
LINE
  5
63
  8
0
 62
     7
 10
148.27000000000001
 20
127.414
 30
0.0
 11
147.67799999999991
 21
129.625
 31
0.0
  0
LINE
  5
64
  8
0
 62
     7
 10
147.67799999999991
 20
129.625
 30
0.0
 11
147.08600000000001
 21
127.414
 31
0.0
  0
LINE
  5
65
  8
0
 62
     7
 10
147.08600000000001
 20
127.414
 30
0.0
 11
148.27000000000001
 21
127.414
 31
0.0
  0
LINE
  5
66
  8
0
 62
     7
 10
147.68100000000001
 20
118.625
 30
0.0
 11
147.68100000000001
 21
129.625
 31
0.0
  0
LINE
  5
67
  8
0
 62
     7
 10
87.021100000000004
 20
107.867
 30
0.0
 11
84.810299999999998
 21
107.27500000000001
 31
0.0
  0
LINE
  5
68
  8
0
 62
     7
 10
84.810299999999998
 20
107.27500000000001
 30
0.0
 11
87.021100000000004
 21
106.682
 31
0.0
  0
LINE
  5
69
  8
0
 62
     7
 10
87.021100000000004
 20
106.682
 30
0.0
 11
87.021100000000004
 21
107.867
 31
0.0
  0
LINE
  5
6A
  8
0
 62
     7
 10
122.34099999999999
 20
106.68899999999989
 30
0.0
 11
124.55200000000001
 21
107.282
 31
0.0
  0
LINE
  5
6B
  8
0
 62
     7
 10
124.55200000000001
 20
107.282
 30
0.0
 11
122.34099999999999
 21
107.874
 31
0.0
  0
LINE
  5
6C
  8
0
 62
     7
 10
122.34099999999999
 20
107.874
 30
0.0
 11
122.34099999999999
 21
106.68899999999989
 31
0.0
  0
LINE
  5
6D
  8
0
 62
     7
 10
84.810299999999998
 20
107.27799999999991
 30
0.0
 11
124.55200000000001
 21
107.27799999999991
 31
0.0
  0
LINE
  5
6E
  8
0
 62
     7
 10
84.702000000000012
 20
119.996
 30
0.0
 11
84.702000000000012
 21
106.892
 31
0.0
  0
LINE
  5
6F
  8
0
 62
     7
 10
124.702
 20
114.10299999999989
 30
0.0
 11
124.702
 21
106.833
 31
0.0
  0
LINE
  5
70
  8
0
 62
     7
 10
141.57599999999991
 20
118.625
 30
0.0
 11
148.24399999999989
 21
118.625
 31
0.0
  0
LINE
  5
71
  8
0
  6
AIGENLINE001
 62
     7
 10
66.643600000000006
 20
124.1249999999999
 30
0.0
 11
45.890300000000003
 21
124.1249999999999
 31
0.0
  0
LINE
  5
72
  8
0
 62
     7
 10
141.57599999999991
 20
129.625
 30
0.0
 11
148.12599999999989
 21
129.625
 31
0.0
  0
ARC
  5
73
  8
0
 62
     7
 10
105.41580500000001
 20
124.1227819999999
 30
0.0
 40
4.875032
 50
155.2827739999999
 51
199.67853299999999
  0
ARC
  5
74
  8
0
 62
     7
 10
105.3341379999999
 20
124.1155649999999
 30
0.0
 40
4.7957479999999997
 50
199.92590000000001
 51
204.99145599999991
  0
LINE
  5
75
  8
0
 62
     7
 10
116.345
 20
122.089
 30
0.0
 11
116.345
 21
126.161
 31
0.0
  0
LINE
  5
76
  8
0
 62
     7
 10
122.774
 20
120.911
 30
0.0
 11
122.774
 21
127.34
 31
0.0
  0
LINE
  5
77
  8
0
 62
     7
 10
48.912100000000002
 20
121.3389999999999
 30
0.0
 11
63.911700000000003
 21
121.3389999999999
 31
0.0
  0
LINE
  5
78
  8
0
 62
     7
 10
63.911700000000003
 20
121.3389999999999
 30
0.0
 11
63.911700000000003
 21
126.9109999999999
 31
0.0
  0
LINE
  5
79
  8
0
 62
     7
 10
63.911700000000003
 20
126.9109999999999
 30
0.0
 11
48.912100000000002
 21
126.9109999999999
 31
0.0
  0
LINE
  5
7A
  8
0
 62
     7
 10
48.912100000000002
 20
126.9109999999999
 30
0.0
 11
48.912100000000002
 21
121.3389999999999
 31
0.0
  0
LINE
  5
7B
  8
0
 62
     7
 10
116.345
 20
120.911
 30
0.0
 11
116.345
 21
122.089
 31
0.0
  0
LINE
  5
7C
  8
0
 62
     7
 10
116.345
 20
122.089
 30
0.0
 11
100.98699999999999
 21
122.089
 31
0.0
  0
LINE
  5
7D
  8
0
 62
     7
 10
100.98699999999999
 20
122.089
 30
0.0
 11
100.98699999999999
 21
121.0179999999999
 31
0.0
  0
LINE
  5
7E
  8
0
 62
     7
 10
100.98699999999999
 20
121.0179999999999
 30
0.0
 11
84.702000000000012
 21
121.0179999999999
 31
0.0
  0
LINE
  5
7F
  8
0
 62
     7
 10
84.702000000000012
 20
121.0179999999999
 30
0.0
 11
84.702000000000012
 21
127.232
 31
0.0
  0
LINE
  5
80
  8
0
 62
     7
 10
84.702000000000012
 20
127.232
 30
0.0
 11
100.98699999999999
 21
127.232
 31
0.0
  0
LINE
  5
81
  8
0
 62
     7
 10
100.98699999999999
 20
127.232
 30
0.0
 11
100.98699999999999
 21
126.161
 31
0.0
  0
LINE
  5
82
  8
0
 62
     7
 10
100.98699999999999
 20
126.161
 30
0.0
 11
116.345
 21
126.161
 31
0.0
  0
LINE
  5
83
  8
0
 62
     7
 10
116.345
 20
126.161
 30
0.0
 11
116.345
 21
127.34
 31
0.0
  0
LINE
  5
84
  8
0
 62
     7
 10
116.345
 20
127.34
 30
0.0
 11
122.774
 21
127.34
 31
0.0
  0
LINE
  5
85
  8
0
 62
     7
 10
122.774
 20
127.34
 30
0.0
 11
122.774
 21
133.126
 31
0.0
  0
LINE
  5
86
  8
0
 62
     7
 10
122.774
 20
133.126
 30
0.0
 11
124.702
 21
133.126
 31
0.0
  0
LINE
  5
87
  8
0
 62
     7
 10
124.702
 20
133.126
 30
0.0
 11
124.702
 21
115.125
 31
0.0
  0
LINE
  5
88
  8
0
 62
     7
 10
124.702
 20
115.125
 30
0.0
 11
122.774
 21
115.125
 31
0.0
  0
LINE
  5
89
  8
0
 62
     7
 10
122.774
 20
115.125
 30
0.0
 11
122.774
 21
120.911
 31
0.0
  0
LINE
  5
8A
  8
0
 62
     7
 10
122.774
 20
120.911
 30
0.0
 11
116.345
 21
120.911
 31
0.0
  0
ARC
  5
8B
  8
0
 62
     7
 10
56.303759999999997
 20
124.08046999999991
 30
0.0
 40
9.1081020000000006
 50
0.2811540000000001
 51
44.72007399999999
  0
ARC
  5
8C
  8
0
 62
     7
 10
56.367862000000002
 20
124.020375
 30
0.0
 40
9.1052630000000008
 50
45.272602999999997
 51
89.723956000000001
  0
ARC
  5
8D
  8
0
 62
     7
 10
56.456426999999998
 20
124.0175269999999
 30
0.0
 40
9.1081149999999997
 50
90.281176999999985
 51
134.72003100000001
  0
ARC
  5
8E
  8
0
 62
     7
 10
56.520111
 20
124.080648
 30
0.0
 40
9.1085159999999998
 50
135.284065
 51
179.71996200000001
  0
ARC
  5
8F
  8
0
 62
     7
 10
56.5197
 20
124.169856
 30
0.0
 40
9.1081059999999994
 50
180.28116399999999
 51
224.71700199999989
  0
ARC
  5
90
  8
0
 62
     7
 10
56.457067000000002
 20
124.23468799999991
 30
0.0
 40
9.1096620000000001
 50
225.28394399999999
 51
269.71484800000002
  0
ARC
  5
91
  8
0
 62
     7
 10
56.367033999999997
 20
124.232293
 30
0.0
 40
9.1072640000000007
 50
270.28118899999998
 51
314.72225200000003
  0
ARC
  5
92
  8
0
 62
     7
 10
56.306612999999992
 20
124.1690219999999
 30
0.0
 40
9.105245
 50
315.27256799999998
 51
359.7240109999999
  0
ARC
  5
93
  8
0
 62
     7
 10
93.284041999999985
 20
165.5725929999999
 30
0.0
 40
8.0001639999999998
 50
180.00062700000001
 51
270.00063699999998
  0
ARC
  5
94
  8
0
 62
     7
 10
93.283957999999998
 20
165.57233400000001
 30
0.0
 40
8.0000800000000005
 50
89.998766000000003
 51
179.99873700000001
  0
ARC
  5
95
  8
0
 62
     7
 10
93.284127999999995
 20
165.572507
 30
0.0
 40
7.9999079999999996
 50
0.00001
 51
89.999980000000008
  0
ARC
  5
96
  8
0
 62
     7
 10
93.284041999999985
 20
165.5724229999999
 30
0.0
 40
7.999994
 50
270.00063699999998
 51
0.000607
  0
LINE
  5
97
  8
0
 62
     7
 10
147.0929999999999
 20
158.929
 30
0.0
 11
147.68499999999989
 21
156.71899999999999
 31
0.0
  0
LINE
  5
98
  8
0
 62
     7
 10
147.68499999999989
 20
156.71899999999999
 30
0.0
 11
148.27699999999999
 21
158.929
 31
0.0
  0
LINE
  5
99
  8
0
 62
     7
 10
148.27699999999999
 20
158.929
 30
0.0
 11
147.0929999999999
 21
158.929
 31
0.0
  0
LINE
  5
9A
  8
0
 62
     7
 10
148.27000000000001
 20
172.364
 30
0.0
 11
147.67799999999991
 21
174.57400000000001
 31
0.0
  0
LINE
  5
9B
  8
0
 62
     7
 10
147.67799999999991
 20
174.57400000000001
 30
0.0
 11
147.08600000000001
 21
172.364
 31
0.0
  0
LINE
  5
9C
  8
0
 62
     7
 10
147.08600000000001
 20
172.364
 30
0.0
 11
148.27000000000001
 21
172.364
 31
0.0
  0
LINE
  5
9D
  8
0
 62
     7
 10
147.68100000000001
 20
156.71899999999999
 30
0.0
 11
147.68100000000001
 21
174.57400000000001
 31
0.0
  0
LINE
  5
9E
  8
0
 62
     7
 10
125.575
 20
174.553
 30
0.0
 11
148.18999999999991
 21
174.553
 31
0.0
  0
LINE
  5
9F
  8
0
 62
     7
 10
125.575
 20
156.553
 30
0.0
 11
148.18999999999991
 21
156.553
 31
0.0
  0
LINE
  5
A0
  8
0
 62
     7
 10
97.767899999999997
 20
169.18999999999991
 30
0.0
 11
98.912400000000005
 21
171.17199999999991
 31
0.0
  0
LINE
  5
A1
  8
0
 62
     7
 10
98.912400000000005
 20
171.17199999999991
 30
0.0
 11
96.93010000000001
 21
170.02799999999999
 31
0.0
  0
LINE
  5
A2
  8
0
 62
     7
 10
96.93010000000001
 20
170.02799999999999
 30
0.0
 11
97.767899999999997
 21
169.18999999999991
 31
0.0
  0
LINE
  5
A3
  8
0
 62
     7
 10
88.825500000000005
 20
161.91200000000001
 30
0.0
 11
87.680999999999997
 21
159.93000000000001
 31
0.0
  0
LINE
  5
A4
  8
0
 62
     7
 10
87.680999999999997
 20
159.93000000000001
 30
0.0
 11
89.663300000000007
 21
161.0739999999999
 31
0.0
  0
LINE
  5
A5
  8
0
 62
     7
 10
89.663300000000007
 20
161.0739999999999
 30
0.0
 11
88.825500000000005
 21
161.91200000000001
 31
0.0
  0
LINE
  5
A6
  8
0
 62
     7
 10
98.912400000000005
 20
171.17199999999991
 30
0.0
 11
87.680999999999997
 21
159.93000000000001
 31
0.0
  0
LINE
  5
A7
  8
0
 62
     7
 10
122.774
 20
174.553
 30
0.0
 11
122.774
 21
156.553
 31
0.0
  0
LINE
  5
A8
  8
0
 62
     7
 10
122.774
 20
156.553
 30
0.0
 11
124.702
 21
156.553
 31
0.0
  0
LINE
  5
A9
  8
0
 62
     7
 10
124.702
 20
156.553
 30
0.0
 11
124.702
 21
174.553
 31
0.0
  0
LINE
  5
AA
  8
0
 62
     7
 10
124.702
 20
174.553
 30
0.0
 11
122.774
 21
174.553
 31
0.0
  0
LINE
  5
AB
  8
0
 62
     7
 10
101.095
 20
167.589
 30
0.0
 11
116.345
 21
167.589
 31
0.0
  0
LINE
  5
AC
  8
0
 62
     7
 10
101.047
 20
163.517
 30
0.0
 11
116.345
 21
163.517
 31
0.0
  0
LINE
  5
AD
  8
0
 62
     7
 10
122.774
 20
168.768
 30
0.0
 11
116.345
 21
168.768
 31
0.0
  0
LINE
  5
AE
  8
0
 62
     7
 10
116.345
 20
168.768
 30
0.0
 11
116.345
 21
162.339
 31
0.0
  0
LINE
  5
AF
  8
0
 62
     7
 10
116.345
 20
162.339
 30
0.0
 11
122.774
 21
162.339
 31
0.0
  0
ARC
  5
B0
  8
0
 62
     7
 10
93.262280999999987
 20
165.6428019999999
 30
0.0
 40
7.5895229999999989
 50
270.27678700000001
 51
314.71748600000001
  0
ARC
  5
B1
  8
0
 62
     7
 10
93.208128000000002
 20
165.591126
 30
0.0
 40
7.5912750000000004
 50
315.282354
 51
359.71386100000001
  0
ARC
  5
B2
  8
0
 62
     7
 10
93.211946999999995
 20
165.51653899999999
 30
0.0
 40
7.5874499999999987
 50
0.276955
 51
44.729461000000001
  0
ARC
  5
B3
  8
0
 62
     7
 10
93.261868000000007
 20
165.46288200000001
 30
0.0
 40
7.5900999999999987
 50
45.282435
 51
89.720113999999995
  0
ARC
  5
B4
  8
0
 62
     7
 10
93.335610000000017
 20
165.4638689999999
 30
0.0
 40
7.5891109999999991
 50
90.276816999999994
 51
134.72059400000001
  0
ARC
  5
B5
  8
0
 62
     7
 10
93.388951000000006
 20
165.51578499999999
 30
0.0
 40
7.5901199999999989
 50
135.2824699999999
 51
179.71742800000001
  0
ARC
  5
B6
  8
0
 62
     7
 10
93.390022999999999
 20
165.590743
 30
0.0
 40
7.5911929999999987
 50
180.28326699999991
 51
224.714204
  0
ARC
  5
B7
  8
0
 62
     7
 10
93.336826000000016
 20
165.645749
 30
0.0
 40
7.5924759999999987
 50
225.2916359999999
 51
269.7141299999999
  0
LINE
  5
B8
  8
_________2
 62
     7
 10
205.2999999999999
 20
127.411
 30
0.0
 11
183.55000000000001
 21
127.411
 31
0.0
  0
LINE
  5
B9
  8
_________2
 62
     7
 10
100.2999999999999
 20
-4.0910799999999998
 30
0.0
 11
100.2999999999999
 21
-21.071400000000001
 31
0.0
  0
LINE
  5
BA
  8
_________2
 62
     7
 10
100.2999999999999
 20
275.93099999999993
 30
0.0
 11
100.2999999999999
 21
258.911
 31
0.0
  0
LINE
  5
BB
  8
_________2
 62
     7
 10
17.049499999999998
 20
127.411
 30
0.0
 11
-4.7008599999999987
 21
127.411
 31
0.0
  0
LINE
  5
BC
  8
_________2
 62
     7
 10
76.741
 20
29.8047
 30
0.0
 11
74.554699999999997
 21
29.8047
 31
0.0
  0
LINE
  5
BD
  8
_________2
 62
     7
 10
77.233699999999999
 20
29.8047
 30
0.0
 11
76.981499999999997
 21
29.8047
 31
0.0
  0
LINE
  5
BE
  8
_________2
 62
     7
 10
77.726299999999995
 20
29.8047
 30
0.0
 11
80.651200000000003
 21
29.8047
 31
0.0
  0
LINE
  5
BF
  8
_________2
 62
     7
 10
77.233699999999999
 20
29.8047
 30
0.0
 11
77.485200000000006
 21
29.8047
 31
0.0
  0
LINE
  5
C0
  8
_________2
 62
     7
 10
70.836799999999997
 20
29.8047
 30
0.0
 11
68.650499999999994
 21
29.8047
 31
0.0
  0
LINE
  5
C1
  8
_________2
 62
     7
 10
71.329400000000007
 20
29.8047
 30
0.0
 11
71.077200000000005
 21
29.8047
 31
0.0
  0
LINE
  5
C2
  8
_________2
 62
     7
 10
71.329400000000007
 20
30.2974
 30
0.0
 11
71.329400000000007
 21
32.484400000000001
 31
0.0
  0
LINE
  5
C3
  8
_________2
 62
     7
 10
71.329400000000007
 20
29.8047
 30
0.0
 11
71.329400000000007
 21
30.056899999999992
 31
0.0
  0
LINE
  5
C4
  8
_________2
 62
     7
 10
71.822100000000006
 20
29.8047
 30
0.0
 11
74.009
 21
29.8047
 31
0.0
  0
LINE
  5
C5
  8
_________2
 62
     7
 10
71.329400000000007
 20
29.8047
 30
0.0
 11
71.581599999999995
 21
29.8047
 31
0.0
  0
LINE
  5
C6
  8
_________2
 62
     7
 10
71.329400000000007
 20
29.312799999999999
 30
0.0
 11
71.329400000000007
 21
27.125800000000002
 31
0.0
  0
LINE
  5
C7
  8
_________2
 62
     7
 10
71.329400000000007
 20
29.8047
 30
0.0
 11
71.329400000000007
 21
29.5532
 31
0.0
  0
LINE
  5
C8
  8
_________2
 62
     7
 10
75.040499999999994
 20
28.5852
 30
0.0
 11
80.218500000000006
 21
27.720400000000001
 31
0.0
  0
LINE
  5
C9
  8
_________2
 62
     7
 10
75.040499999999994
 20
31.0243
 30
0.0
 11
80.218500000000006
 21
31.889700000000001
 31
0.0
  0
LINE
  5
CA
  8
_________2
 62
     7
 10
80.218500000000006
 20
27.720400000000001
 30
0.0
 11
80.218500000000006
 21
31.889700000000001
 31
0.0
  0
LINE
  5
CB
  8
_________2
 62
     7
 10
75.040499999999994
 20
28.5852
 30
0.0
 11
75.040499999999994
 21
31.0243
 31
0.0
  0
ARC
  5
CC
  8
_________2
 62
     7
 10
71.282522999999983
 20
29.75783599999999
 30
0.0
 40
1.267347
 50
2.1211329999999999
 51
87.878856999999996
  0
ARC
  5
CD
  8
_________2
 62
     7
 10
71.375959999999992
 20
29.758213000000001
 30
0.0
 40
1.2669559999999991
 50
92.104701000000006
 51
177.8952689999999
  0
ARC
  5
CE
  8
_________2
 62
     7
 10
71.376357999999996
 20
29.851671
 30
0.0
 40
1.2673680000000001
 50
182.12203600000001
 51
267.877993
  0
ARC
  5
CF
  8
_________2
 62
     7
 10
71.282522999999983
 20
29.851649999999999
 30
0.0
 40
1.267347
 50
272.12114300000002
 51
357.87886700000001
  0
ARC
  5
D0
  8
_________2
 62
     7
 10
71.329430000000002
 20
29.804742999999998
 30
0.0
 40
2.0849849999999992
 50
0.00001
 51
89.999980000000008
  0
ARC
  5
D1
  8
_________2
 62
     7
 10
71.329431
 20
29.804742999999998
 30
0.0
 40
2.0849849999999992
 50
90.0
 51
179.99996999999991
  0
ARC
  5
D2
  8
_________2
 62
     7
 10
71.408771999999999
 20
29.884799999999998
 30
0.0
 40
2.165807
 50
182.1183979999999
 51
267.90056900000002
  0
ARC
  5
D3
  8
_________2
 62
     7
 10
71.249459000000002
 20
29.885429999999989
 30
0.0
 40
2.1664590000000001
 50
272.11546800000002
 51
357.86560400000002
  0
TEXT
  5
D4
  8
_________2
 62
     7
 10
104.604
 20
1.6794899999999999
 30
0.0
 40
3.0923400000000001
  1
図番
 41
0.5
  0
LINE
  5
D5
  8
_________2
 62
     7
 10
103.55
 20
5.9087199999999989
 30
0.0
 11
183.55099999999999
 21
5.9087199999999989
 31
0.0
  0
TEXT
  5
D6
  8
_________2
 62
     7
 10
104.604
 20
11.679299999999991
 30
0.0
 40
3.0923400000000001
  1
品番
 41
0.5
  0
TEXT
  5
D7
  8
_________2
 62
     7
 10
104.604
 20
31.818100000000001
 30
0.0
 40
3.0923400000000001
  1
名称
 41
0.5
  0
TEXT
  5
D8
  8
_________2
 62
     7
 10
91.845058333333341
 20
26.821999999999989
 30
0.0
 40
3.6545800000000002
  1
mm
 41
0.5
 72
     1
 11
93.367800000000003
 21
26.821999999999989
 31
0.0
  0
TEXT
  5
D9
  8
_________2
 62
     7
 10
85.643199999999993
 20
31.818100000000001
 30
0.0
 40
3.0923400000000001
  1
単位
 41
0.5
  0
TEXT
  5
DA
  8
_________2
 62
     7
 10
85.643199999999993
 20
19.410799999999991
 30
0.0
 40
3.0923400000000001
  1
尺度
 41
0.5
  0
TEXT
  5
DB
  8
_________2
 62
     7
 10
90.548758666666686
 20
13.2179
 30
0.0
 40
3.6545800000000002
  1
1 ： 2
 41
0.5
 72
     1
 11
93.959699999999998
 21
13.2179
 31
0.0
  0
TEXT
  5
DC
  8
_________2
 62
     7
 10
139.28532499999989
 20
9.1078600000000005
 30
0.0
 40
3.9357000000000002
  1
VL.T5
 41
0.5
 72
     1
 11
143.54900000000001
 21
9.1078600000000005
 31
0.0
  0
TEXT
  5
DD
  8
_________2
 62
     7
 10
139.61330000000001
 20
-0.8926299999999999
 30
0.0
 40
3.9357000000000002
  1
VLT5
 41
0.5
 72
     1
 11
143.54900000000001
 21
-0.8926299999999999
 31
0.0
  0
TEXT
  5
DE
  8
_________2
 62
     7
 10
109.1779999999999
 20
24.2257
 30
0.0
 40
3.9357000000000002
  1
ボラ　タオルホルダー
 41
0.5
  0
TEXT
  5
DF
  8
_________2
 62
     7
 10
39.303480999999991
 20
13.603
 30
0.0
 40
3.6545800000000002
  1
田尻
 41
0.5
 72
     1
 11
41.313499999999998
 21
13.603
 31
0.0
  0
TEXT
  5
E0
  8
_________2
 62
     7
 10
20.789690666666662
 20
13.603
 30
0.0
 40
3.6545800000000002
  1
石原
 41
0.5
 72
     1
 11
22.738800000000001
 21
13.603
 31
0.0
  0
TEXT
  5
E1
  8
_________2
 62
     7
 10
67.7851
 20
13.2179
 30
0.0
 40
3.6545800000000002
  1
10.07.14
 41
0.5
  0
TEXT
  5
E2
  8
_________2
 62
     7
 10
66.593100000000007
 20
19.410799999999991
 30
0.0
 40
3.0923400000000001
  1
日付
 41
0.5
  0
TEXT
  5
E3
  8
_________2
 62
     7
 10
29.639399999999998
 20
19.410799999999991
 30
0.0
 40
3.0923400000000001
  1
検図
 41
0.5
  0
TEXT
  5
E4
  8
_________2
 62
     7
 10
18.021100000000001
 20
5.21143
 30
0.0
 40
3.0923400000000001
  1
備考
 41
0.5
  0
TEXT
  5
E5
  8
_________2
 62
     7
 10
18.021100000000001
 20
19.410799999999991
 30
0.0
 40
3.0923400000000001
  1
製図
 41
0.5
  0
TEXT
  5
E6
  8
_________2
 62
     7
 10
23.788465333333338
 20
27.936800000000002
 30
0.0
 40
4.4979399999999989
  1
セラトレーディング株式会社
 41
0.5
 72
     1
 11
41.180500000000002
 21
27.936800000000002
 31
0.0
  0
LINE
  5
E7
  8
_________2
 62
     7
 10
183.55099999999999
 20
-4.0910799999999998
 30
0.0
 11
17.049499999999998
 21
-4.0910799999999998
 31
0.0
  0
LINE
  5
E8
  8
_________2
 62
     7
 10
17.049499999999998
 20
-4.0910799999999998
 30
0.0
 11
17.049499999999998
 21
258.911
 31
0.0
  0
LINE
  5
E9
  8
_________2
 62
     7
 10
17.049499999999998
 20
258.911
 30
0.0
 11
183.55099999999999
 21
258.911
 31
0.0
  0
LINE
  5
EA
  8
_________2
 62
     7
 10
183.55099999999999
 20
258.911
 30
0.0
 11
183.55099999999999
 21
-4.0910799999999998
 31
0.0
  0
LINE
  5
EB
  8
_________2
 62
     7
 10
65.549199999999999
 20
9.4089600000000004
 30
0.0
 11
65.549199999999999
 21
35.908799999999999
 31
0.0
  0
LINE
  5
EC
  8
_________2
 62
     7
 10
84.549700000000016
 20
9.4089600000000004
 30
0.0
 11
84.549700000000016
 21
35.908799999999999
 31
0.0
  0
LINE
  5
ED
  8
_________2
 62
     7
 10
103.55
 20
-4.0910799999999998
 30
0.0
 11
103.55
 21
35.908799999999999
 31
0.0
  0
LINE
  5
EE
  8
_________2
 62
     7
 10
28.549299999999992
 20
9.4089600000000004
 30
0.0
 11
28.549299999999992
 21
23.409199999999998
 31
0.0
  0
LINE
  5
EF
  8
_________2
 62
     7
 10
17.049499999999998
 20
9.4089600000000004
 30
0.0
 11
103.55
 21
9.4089600000000004
 31
0.0
  0
LINE
  5
F0
  8
_________2
 62
     7
 10
17.049499999999998
 20
23.409199999999998
 30
0.0
 11
103.55
 21
23.409199999999998
 31
0.0
  0
LINE
  5
F1
  8
_________2
 62
     7
 10
103.55
 20
15.9085
 30
0.0
 11
183.55099999999999
 21
15.9085
 31
0.0
  0
LINE
  5
F2
  8
_________2
 62
     7
 10
17.049499999999998
 20
35.908799999999999
 30
0.0
 11
183.55099999999999
 21
35.908799999999999
 31
0.0
  0
TEXT
  5
F3
  8
_________2
 62
     7
 10
141.05480999999989
 20
39.068699999999993
 30
0.0
 40
3.9357000000000002
  1
注：色番号はカタログを参照ください
 41
0.5
 72
     2
 11
180.54300000000001
 21
39.068699999999993
 31
0.0
  0
ENDSEC
  0
EOF
