  0
SECTION
  2
HEADER
  9
$ACADVER
  1
AC1009
  9
$LUNITS
 70
2
  9
$LUPREC
 70
4
  9
$LTSCALE
 40
1.0
  9
$EXTMIN
 10
-104.7936
 20
0.176
 30
0
  9
$EXTMAX
 10
315.2069
 20
297.1763
 30
0
  0
ENDSEC
  0
SECTION
  2
TABLES
  0
TABLE
  2
LTYPE
 70
256
  0
LTYPE
  2
AIGENLINE001
 70
64
  3
generate AI->DXF Converter
 72
65
 73
4
 40
5.8561
 49
3.5278
 49
-0.7761
 49
0.7761
 49
-0.7761
  0
LTYPE
  2
AIGENLINE002
 70
64
  3
generate AI->DXF Converter
 72
65
 73
6
 40
7.4083
 49
3.5278
 49
-0.7761
 49
0.7761
 49
-0.7761
 49
0.7761
 49
-0.7761
  0
ENDTAB
  0
TABLE
  2
LAYER
 70
3
  0
LAYER
  2
LAYER_1
 70
64
 62
7
  6
CONTINUOUS
  0
LAYER
  2
LAYER_2
 70
64
 62
7
  6
CONTINUOUS
  0
LAYER
  2
LAYER_3
 70
64
 62
7
  6
CONTINUOUS
  0
ENDTAB
  0
TABLE
  2
STYLE
 70
6
  0
STYLE
  2
STANDARD
 70
0
 40
0
 50
0
 71
0
 41
0
 42
0
  3
TXT
  4
BIGFONT
  0
ENDTAB
  0
ENDSEC
  0
SECTION
  2
BLOCKS
  0
BLOCK
  8
LAYER_2
  2
AIGNBL02020003
 70
64
 10
0
 20
0
 30
0
  3
AIGNBL02020003
  0
LINE
  8
LAYER_2
 10
-7.521
 20
189.6828
 11
-18.671
 21
189.6828
  0
LINE
  8
LAYER_2
 10
17.4518
 20
189.6828
 11
7.2285
 21
189.6828
  0
ENDBLK
  0
BLOCK
  8
LAYER_2
  2
AIGNBL02020009
 70
64
 10
0
 20
0
 30
0
  3
AIGNBL02020009
  0
LINE
  8
LAYER_2
 10
54.4249
 20
89.7933
 11
95.2583
 21
89.7933
  0
ENDBLK
  0
BLOCK
  8
LAYER_2
  2
AIGNBL0202000A
 70
64
 10
0
 20
0
 30
0
  3
AIGNBL0202000A
  0
LINE
  8
LAYER_2
 10
46.2938
 20
104.9304
 11
46.2938
 21
116.0973
  0
ENDBLK
  0
BLOCK
  8
LAYER_2
  2
AIGNBL0202000B
 70
64
 10
0
 20
0
 30
0
  3
AIGNBL0202000B
  0
LINE
  8
LAYER_2
 10
71.2012
 20
111.9825
 11
71.2012
 21
125.0656
  0
ENDBLK
  0
BLOCK
  8
LAYER_2
  2
AIGNBL0202001C
 70
64
 10
0
 20
0
 30
0
  3
AIGNBL0202001C
  0
ARC
  8
LAYER_2
 10
-35.2946
 20
123.1805
 40
0.8333
 50
90.00309915
 51
180.0037762
  0
ENDBLK
  0
BLOCK
  8
LAYER_2
  2
AIGNBL0202001D
 70
64
 10
0
 20
0
 30
0
  3
AIGNBL0202001D
  0
ARC
  8
LAYER_2
 10
-35.2946
 20
109.0138
 40
0.8333
 50
180.0019887
 51
269.9980114
  0
ENDBLK
  0
BLOCK
  8
LAYER_2
  2
AIGNBL0202001E
 70
64
 10
0
 20
0
 30
0
  3
AIGNBL0202001E
  0
LINE
  8
LAYER_2
 10
-36.1279
 20
109.0138
 11
-36.1279
 21
123.1804
  0
ENDBLK
  0
BLOCK
  8
LAYER_2
  2
AIGNBL0202001F
 70
64
 10
0
 20
0
 30
0
  3
AIGNBL0202001F
  0
LINE
  8
LAYER_2
 10
-25.7113
 20
124.0138
 11
-35.2946
 21
124.0138
  0
ENDBLK
  0
BLOCK
  8
LAYER_2
  2
AIGNBL02020020
 70
64
 10
0
 20
0
 30
0
  3
AIGNBL02020020
  0
LINE
  8
LAYER_2
 10
-34.4612
 20
121.9304
 11
-31.1279
 21
121.9304
  0
ENDBLK
  0
BLOCK
  8
LAYER_2
  2
AIGNBL02020021
 70
64
 10
0
 20
0
 30
0
  3
AIGNBL02020021
  0
LINE
  8
LAYER_2
 10
-31.1279
 20
122.7638
 11
-34.4612
 21
122.7638
  0
ENDBLK
  0
BLOCK
  8
LAYER_2
  2
AIGNBL02020022
 70
64
 10
0
 20
0
 30
0
  3
AIGNBL02020022
  0
ARC
  8
LAYER_2
 10
-34.4612
 20
122.3471
 40
0.4167
 50
89.99657303
 51
180.003427
  0
ARC
  8
LAYER_2
 10
-34.4612
 20
122.3471
 40
0.4167
 50
179.9977899
 51
270.0022101
  0
ENDBLK
  0
BLOCK
  8
LAYER_2
  2
AIGNBL02020023
 70
64
 10
0
 20
0
 30
0
  3
AIGNBL02020023
  0
ARC
  8
LAYER_2
 10
-31.128
 20
122.3471
 40
0.4167
 50
270.0089277
 51
0.00482388673
  0
ARC
  8
LAYER_2
 10
-31.128
 20
122.3471
 40
0.4167
 50
359.9939594
 51
89.99228909
  0
ENDBLK
  0
BLOCK
  8
LAYER_2
  2
AIGNBL02020024
 70
64
 10
0
 20
0
 30
0
  3
AIGNBL02020024
  0
LINE
  8
LAYER_2
 10
-25.7113
 20
108.1805
 11
-35.2946
 21
108.1805
  0
ENDBLK
  0
BLOCK
  8
LAYER_2
  2
AIGNBL02020025
 70
64
 10
0
 20
0
 30
0
  3
AIGNBL02020025
  0
LINE
  8
LAYER_2
 10
-34.4612
 20
110.2638
 11
-31.1279
 21
110.2638
  0
ENDBLK
  0
BLOCK
  8
LAYER_2
  2
AIGNBL02020026
 70
64
 10
0
 20
0
 30
0
  3
AIGNBL02020026
  0
LINE
  8
LAYER_2
 10
-31.1279
 20
109.4305
 11
-34.4612
 21
109.4305
  0
ENDBLK
  0
BLOCK
  8
LAYER_2
  2
AIGNBL02020027
 70
64
 10
0
 20
0
 30
0
  3
AIGNBL02020027
  0
ARC
  8
LAYER_2
 10
-34.4612
 20
109.8471
 40
0.4167
 50
89.99313497
 51
179.9931135
  0
ARC
  8
LAYER_2
 10
-34.4612
 20
109.8472
 40
0.4167
 50
179.9943515
 51
270.0056485
  0
ENDBLK
  0
BLOCK
  8
LAYER_2
  2
AIGNBL02020028
 70
64
 10
0
 20
0
 30
0
  3
AIGNBL02020028
  0
ARC
  8
LAYER_2
 10
-31.1279
 20
109.8471
 40
0.4166
 50
270.0054895
 51
0.00826205199
  0
ARC
  8
LAYER_2
 10
-31.1279
 20
109.8472
 40
0.4166
 50
0.00427364427
 51
89.99572634
  0
ENDBLK
  0
BLOCK
  8
LAYER_2
  2
AIGNBL02020029
 70
64
 10
0
 20
0
 30
0
  3
AIGNBL02020029
  0
ARC
  8
LAYER_2
 10
-34.4613
 20
118.5971
 40
0.4167
 50
359.9943032
 51
89.9919452
  0
ARC
  8
LAYER_2
 10
-34.4612
 20
118.5971
 40
0.4167
 50
89.99554165
 51
180.0044584
  0
ENDBLK
  0
BLOCK
  8
LAYER_2
  2
AIGNBL0202002A
 70
64
 10
0
 20
0
 30
0
  3
AIGNBL0202002A
  0
ARC
  8
LAYER_2
 10
-31.1279
 20
118.5972
 40
0.4166
 50
359.992928
 51
89.99332041
  0
ARC
  8
LAYER_2
 10
-31.1279
 20
118.5971
 40
0.4167
 50
89.99691685
 51
180.0030832
  0
ENDBLK
  0
BLOCK
  8
LAYER_2
  2
AIGNBL0202002B
 70
64
 10
0
 20
0
 30
0
  3
AIGNBL0202002B
  0
LINE
  8
LAYER_2
 10
-34.8779
 20
118.5971
 11
-34.8779
 21
113.5971
  0
ENDBLK
  0
BLOCK
  8
LAYER_2
  2
AIGNBL0202002C
 70
64
 10
0
 20
0
 30
0
  3
AIGNBL0202002C
  0
LINE
  8
LAYER_2
 10
-34.0446
 20
113.5971
 11
-34.0446
 21
118.5971
  0
ENDBLK
  0
BLOCK
  8
LAYER_2
  2
AIGNBL0202002D
 70
64
 10
0
 20
0
 30
0
  3
AIGNBL0202002D
  0
ARC
  8
LAYER_2
 10
-34.4612
 20
113.5972
 40
0.4167
 50
180.0070715
 51
270.00668
  0
ARC
  8
LAYER_2
 10
-34.4612
 20
113.5971
 40
0.4166
 50
270.0058337
 51
359.9941663
  0
ENDBLK
  0
BLOCK
  8
LAYER_2
  2
AIGNBL0202002E
 70
64
 10
0
 20
0
 30
0
  3
AIGNBL0202002E
  0
LINE
  8
LAYER_2
 10
-31.5446
 20
118.5971
 11
-31.5446
 21
113.5971
  0
ENDBLK
  0
BLOCK
  8
LAYER_2
  2
AIGNBL0202002F
 70
64
 10
0
 20
0
 30
0
  3
AIGNBL0202002F
  0
LINE
  8
LAYER_2
 10
-30.7113
 20
113.5971
 11
-30.7113
 21
118.5971
  0
ENDBLK
  0
BLOCK
  8
LAYER_2
  2
AIGNBL02020030
 70
64
 10
0
 20
0
 30
0
  3
AIGNBL02020030
  0
ARC
  8
LAYER_2
 10
-31.1279
 20
113.5972
 40
0.4167
 50
180.0084466
 51
270.0053049
  0
ARC
  8
LAYER_2
 10
-31.1279
 20
113.5971
 40
0.4166
 50
270.0044587
 51
359.9955414
  0
ENDBLK
  0
BLOCK
  8
LAYER_2
  2
AIGNBL02020032
 70
64
 10
0
 20
0
 30
0
  3
AIGNBL02020032
  0
ARC
  8
LAYER_2
 10
25.8717
 20
123.1804
 40
0.8334
 50
359.997161
 51
90.00283903
  0
ENDBLK
  0
BLOCK
  8
LAYER_2
  2
AIGNBL02020033
 70
64
 10
0
 20
0
 30
0
  3
AIGNBL02020033
  0
ARC
  8
LAYER_2
 10
25.8718
 20
109.0138
 40
0.8333
 50
269.9960503
 51
359.9970744
  0
ENDBLK
  0
BLOCK
  8
LAYER_2
  2
AIGNBL02020034
 70
64
 10
0
 20
0
 30
0
  3
AIGNBL02020034
  0
LINE
  8
LAYER_2
 10
26.7051
 20
109.0138
 11
26.7051
 21
123.1804
  0
ENDBLK
  0
BLOCK
  8
LAYER_2
  2
AIGNBL02020035
 70
64
 10
0
 20
0
 30
0
  3
AIGNBL02020035
  0
LINE
  8
LAYER_2
 10
16.3717
 20
124.0138
 11
25.8717
 21
124.0138
  0
ENDBLK
  0
BLOCK
  8
LAYER_2
  2
AIGNBL02020036
 70
64
 10
0
 20
0
 30
0
  3
AIGNBL02020036
  0
LINE
  8
LAYER_2
 10
25.0384
 20
121.9304
 11
21.7051
 21
121.9304
  0
ENDBLK
  0
BLOCK
  8
LAYER_2
  2
AIGNBL02020037
 70
64
 10
0
 20
0
 30
0
  3
AIGNBL02020037
  0
LINE
  8
LAYER_2
 10
21.7051
 20
122.7638
 11
25.0384
 21
122.7638
  0
ENDBLK
  0
BLOCK
  8
LAYER_2
  2
AIGNBL02020038
 70
64
 10
0
 20
0
 30
0
  3
AIGNBL02020038
  0
ARC
  8
LAYER_2
 10
25.0384
 20
122.3471
 40
0.4167
 50
359.9984471
 51
90.00155285
  0
ARC
  8
LAYER_2
 10
25.0384
 20
122.3471
 40
0.4167
 50
269.9996638
 51
0.0003362174113
  0
ENDBLK
  0
BLOCK
  8
LAYER_2
  2
AIGNBL02020039
 70
64
 10
0
 20
0
 30
0
  3
AIGNBL02020039
  0
ARC
  8
LAYER_2
 10
21.7051
 20
122.3471
 40
0.4167
 50
180.0001778
 51
269.9998222
  0
ARC
  8
LAYER_2
 10
21.7051
 20
122.3471
 40
0.4167
 50
89.99896117
 51
180.0010388
  0
ENDBLK
  0
BLOCK
  8
LAYER_2
  2
AIGNBL0202003A
 70
64
 10
0
 20
0
 30
0
  3
AIGNBL0202003A
  0
LINE
  8
LAYER_2
 10
16.3717
 20
108.1805
 11
25.8717
 21
108.1805
  0
ENDBLK
  0
BLOCK
  8
LAYER_2
  2
AIGNBL0202003B
 70
64
 10
0
 20
0
 30
0
  3
AIGNBL0202003B
  0
LINE
  8
LAYER_2
 10
25.0384
 20
110.2638
 11
21.7051
 21
110.2638
  0
ENDBLK
  0
BLOCK
  8
LAYER_2
  2
AIGNBL0202003C
 70
64
 10
0
 20
0
 30
0
  3
AIGNBL0202003C
  0
LINE
  8
LAYER_2
 10
21.7051
 20
109.4305
 11
25.0384
 21
109.4305
  0
ENDBLK
  0
BLOCK
  8
LAYER_2
  2
AIGNBL0202003D
 70
64
 10
0
 20
0
 30
0
  3
AIGNBL0202003D
  0
ARC
  8
LAYER_2
 10
25.0384
 20
109.8471
 40
0.4167
 50
0.008760635624
 51
90.00499089
  0
ARC
  8
LAYER_2
 10
25.0384
 20
109.8472
 40
0.4167
 50
269.9962259
 51
0.003774092153
  0
ENDBLK
  0
BLOCK
  8
LAYER_2
  2
AIGNBL0202003E
 70
64
 10
0
 20
0
 30
0
  3
AIGNBL0202003E
  0
ARC
  8
LAYER_2
 10
21.7051
 20
109.8472
 40
0.4167
 50
179.9967399
 51
270.00326
  0
ARC
  8
LAYER_2
 10
21.7051
 20
109.8471
 40
0.4167
 50
89.99552308
 51
179.9907254
  0
ENDBLK
  0
BLOCK
  8
LAYER_2
  2
AIGNBL0202003F
 70
64
 10
0
 20
0
 30
0
  3
AIGNBL0202003F
  0
ARC
  8
LAYER_2
 10
25.0384
 20
118.5971
 40
0.4167
 50
89.99930517
 51
180.0006948
  0
ARC
  8
LAYER_2
 10
25.0384
 20
118.5971
 40
0.4167
 50
359.9974159
 51
90.00258408
  0
ENDBLK
  0
BLOCK
  8
LAYER_2
  2
AIGNBL02020040
 70
64
 10
0
 20
0
 30
0
  3
AIGNBL02020040
  0
ARC
  8
LAYER_2
 10
21.7051
 20
118.5971
 40
0.4167
 50
89.99792995
 51
180.0020701
  0
ARC
  8
LAYER_2
 10
21.7051
 20
118.5971
 40
0.4167
 50
359.9987911
 51
90.00120889
  0
ENDBLK
  0
BLOCK
  8
LAYER_2
  2
AIGNBL02020041
 70
64
 10
0
 20
0
 30
0
  3
AIGNBL02020041
  0
LINE
  8
LAYER_2
 10
25.4551
 20
118.5971
 11
25.4551
 21
113.5971
  0
ENDBLK
  0
BLOCK
  8
LAYER_2
  2
AIGNBL02020042
 70
64
 10
0
 20
0
 30
0
  3
AIGNBL02020042
  0
LINE
  8
LAYER_2
 10
24.6217
 20
113.5971
 11
24.6217
 21
118.5971
  0
ENDBLK
  0
BLOCK
  8
LAYER_2
  2
AIGNBL02020043
 70
64
 10
0
 20
0
 30
0
  3
AIGNBL02020043
  0
ARC
  8
LAYER_2
 10
25.0384
 20
113.5972
 40
0.4167
 50
269.9951941
 51
359.9910544
  0
ARC
  8
LAYER_2
 10
25.0384
 20
113.5972
 40
0.4167
 50
180.0108347
 51
270.0029169
  0
ENDBLK
  0
BLOCK
  8
LAYER_2
  2
AIGNBL02020044
 70
64
 10
0
 20
0
 30
0
  3
AIGNBL02020044
  0
LINE
  8
LAYER_2
 10
22.1218
 20
118.5971
 11
22.1218
 21
113.5971
  0
ENDBLK
  0
BLOCK
  8
LAYER_2
  2
AIGNBL02020045
 70
64
 10
0
 20
0
 30
0
  3
AIGNBL02020045
  0
LINE
  8
LAYER_2
 10
21.2884
 20
113.5971
 11
21.2884
 21
118.5971
  0
ENDBLK
  0
BLOCK
  8
LAYER_2
  2
AIGNBL02020046
 70
64
 10
0
 20
0
 30
0
  3
AIGNBL02020046
  0
ARC
  8
LAYER_2
 10
21.7051
 20
113.5972
 40
0.4167
 50
269.9965692
 51
359.9896793
  0
ARC
  8
LAYER_2
 10
21.7051
 20
113.5972
 40
0.4167
 50
180.0094596
 51
270.0042919
  0
ENDBLK
  0
BLOCK
  8
LAYER_2
  2
AIGNBL02010002
 70
64
 10
0
 20
0
 30
0
  3
AIGNBL02010002
  0
INSERT
  8
LAYER_2
  2
AIGNBL02020003
 10
0
 20
0
 30
0
  0
ENDBLK
  0
BLOCK
  8
LAYER_2
  2
AIGNBL02010004
 70
64
 10
0
 20
0
 30
0
  3
AIGNBL02010004
  0
LINE
  8
LAYER_2
 10
-16.3783
 20
207.6483
 11
-6.3783
 21
207.6483
  0
LINE
  8
LAYER_2
 10
-6.3783
 20
207.8983
 11
-6.3783
 21
207.6483
  0
ENDBLK
  0
BLOCK
  8
LAYER_2
  2
AIGNBL02010005
 70
64
 10
0
 20
0
 30
0
  3
AIGNBL02010005
  0
LINE
  8
LAYER_2
 10
-16.3783
 20
207.8983
 11
-6.3783
 21
207.8983
  0
LINE
  8
LAYER_2
 10
-16.3783
 20
207.8983
 11
-16.3783
 21
207.6483
  0
ENDBLK
  0
BLOCK
  8
LAYER_2
  2
AIGNBL02010006
 70
64
 10
0
 20
0
 30
0
  3
AIGNBL02010006
  0
LINE
  8
LAYER_2
 10
-3.3779
 20
207.6483
 11
6.6218
 21
207.6483
  0
LINE
  8
LAYER_2
 10
6.6218
 20
207.8983
 11
6.6218
 21
207.6483
  0
ENDBLK
  0
BLOCK
  8
LAYER_2
  2
AIGNBL02010007
 70
64
 10
0
 20
0
 30
0
  3
AIGNBL02010007
  0
LINE
  8
LAYER_2
 10
-3.3779
 20
207.8983
 11
6.6218
 21
207.8983
  0
LINE
  8
LAYER_2
 10
-3.3779
 20
207.8983
 11
-3.3779
 21
207.6483
  0
ENDBLK
  0
BLOCK
  8
LAYER_2
  2
AIGNBL02010008
 70
64
 10
0
 20
0
 30
0
  3
AIGNBL02010008
  0
LINE
  8
LAYER_2
 10
54.4249
 20
103.0238
 11
54.4249
 21
89.2896
  0
LINE
  8
LAYER_2
 10
81.0913
 20
103.8589
 11
81.0913
 21
89.2896
  0
INSERT
  8
LAYER_2
  2
AIGNBL02020009
 10
0
 20
0
 30
0
  0
LINE
  8
LAYER_2
 10
52.2121
 20
104.9304
 11
45.6661
 21
104.9304
  0
LINE
  8
LAYER_2
 10
59.2963
 20
116.0973
 11
45.5938
 21
116.0973
  0
INSERT
  8
LAYER_2
  2
AIGNBL0202000A
 10
0
 20
0
 30
0
  0
INSERT
  8
LAYER_2
  2
AIGNBL0202000B
 10
0
 20
0
 30
0
  0
ENDBLK
  0
BLOCK
  8
LAYER_2
  2
AIGNBL0201000C
 70
64
 10
0
 20
0
 30
0
  3
AIGNBL0201000C
  0
ARC
  8
LAYER_2
 10
1.7598
 20
116.1945
 40
5.1386
 50
181.0913731
 51
250.4305907
  0
ARC
  8
LAYER_2
 10
1.6219
 20
116.097
 40
4.9998
 50
90.00395279
 51
180.0040689
  0
ARC
  8
LAYER_2
 10
1.6216
 20
116.0966
 40
5.0002
 50
359.999786
 51
90.00021394
  0
ARC
  8
LAYER_2
 10
1.4892
 20
116.1908
 40
5.1335
 50
289.5299801
 51
358.9480562
  0
LINE
  8
LAYER_2
 10
0.0386
 20
104.9304
 11
3.2053
 21
104.9304
  0
LINE
  8
LAYER_2
 10
0.0386
 20
107.9303
 11
3.2053
 21
107.9303
  0
LINE
  8
LAYER_2
 10
3.2053
 20
104.9304
 11
3.2053
 21
116.0973
  0
LINE
  8
LAYER_2
 10
0.0386
 20
104.9304
 11
0.0386
 21
116.0973
  0
ARC
  8
LAYER_2
 10
1.6831
 20
116.1305
 40
3.0613
 50
180.6214199
 51
237.5000034
  0
ARC
  8
LAYER_2
 10
1.6219
 20
116.0973
 40
3
 50
89.99878131
 51
179.9993088
  0
ARC
  8
LAYER_2
 10
1.622
 20
116.0973
 40
3
 50
0.0003781581362
 51
89.99962183
  0
ARC
  8
LAYER_2
 10
1.5684
 20
116.1263
 40
3.0538
 50
302.42308
 51
359.4554968
  0
ARC
  8
LAYER_2
 10
1.622
 20
116.0973
 40
1.5834
 50
89.99950024
 51
180.0004998
  0
ARC
  8
LAYER_2
 10
1.6219
 20
116.0973
 40
1.5834
 50
359.9989072
 51
89.99747419
  0
ENDBLK
  0
BLOCK
  8
LAYER_2
  2
AIGNBL0201000D
 70
64
 10
0
 20
0
 30
0
  3
AIGNBL0201000D
  0
LINE
  8
LAYER_2
 10
-36.1275
 20
134.1985
 11
26.7051
 21
134.1985
  0
LINE
  8
LAYER_2
 10
25.2306
 20
133.8113
 11
26.7051
 21
134.2061
  0
LINE
  8
LAYER_2
 10
26.7051
 20
134.2061
 11
25.2306
 21
134.6009
  0
LINE
  8
LAYER_2
 10
25.2306
 20
134.6009
 11
25.2306
 21
133.8113
  0
LINE
  8
LAYER_2
 10
-34.653
 20
134.594
 11
-36.1275
 21
134.1985
  0
LINE
  8
LAYER_2
 10
-36.1275
 20
134.1985
 11
-34.653
 21
133.8037
  0
LINE
  8
LAYER_2
 10
-34.653
 20
133.8037
 11
-34.653
 21
134.594
  0
ENDBLK
  0
BLOCK
  8
LAYER_2
  2
AIGNBL0201000E
 70
64
 10
0
 20
0
 30
0
  3
AIGNBL0201000E
  0
LINE
  8
LAYER_2
 10
-36.1275
 20
142.4592
 11
26.7051
 21
142.4592
  0
LINE
  8
LAYER_2
 10
25.2306
 20
142.0713
 11
26.7051
 21
142.4668
  0
LINE
  8
LAYER_2
 10
26.7051
 20
142.4668
 11
25.2306
 21
142.8616
  0
LINE
  8
LAYER_2
 10
25.2306
 20
142.8616
 11
25.2306
 21
142.0713
  0
LINE
  8
LAYER_2
 10
-34.653
 20
142.8547
 11
-36.1275
 21
142.4592
  0
LINE
  8
LAYER_2
 10
-36.1275
 20
142.4592
 11
-34.653
 21
142.0643
  0
LINE
  8
LAYER_2
 10
-34.653
 20
142.0643
 11
-34.653
 21
142.8547
  0
ENDBLK
  0
BLOCK
  8
LAYER_2
  2
AIGNBL0201000F
 70
64
 10
0
 20
0
 30
0
  3
AIGNBL0201000F
  0
LINE
  8
LAYER_2
 10
-52.0308
 20
124.0135
 11
-52.0308
 21
108.1805
  0
LINE
  8
LAYER_2
 10
-52.4259
 20
109.655
 11
-52.0308
 21
108.1805
  0
LINE
  8
LAYER_2
 10
-52.0308
 20
108.1805
 11
-51.6359
 21
109.655
  0
LINE
  8
LAYER_2
 10
-51.6359
 20
109.655
 11
-52.4259
 21
109.655
  0
LINE
  8
LAYER_2
 10
-51.6429
 20
122.5389
 11
-52.038
 21
124.0135
  0
LINE
  8
LAYER_2
 10
-52.038
 20
124.0135
 11
-52.4331
 21
122.5389
  0
LINE
  8
LAYER_2
 10
-52.4331
 20
122.5389
 11
-51.6429
 21
122.5389
  0
ENDBLK
  0
BLOCK
  8
LAYER_2
  2
AIGNBL02010010
 70
64
 10
0
 20
0
 30
0
  3
AIGNBL02010010
  0
LINE
  8
LAYER_2
 10
-44.4863
 20
116.0973
 11
-44.4863
 21
104.014
  0
LINE
  8
LAYER_2
 10
-44.8815
 20
105.4885
 11
-44.4863
 21
104.014
  0
LINE
  8
LAYER_2
 10
-44.4863
 20
104.014
 11
-44.0915
 21
105.4885
  0
LINE
  8
LAYER_2
 10
-44.0915
 20
105.4885
 11
-44.8815
 21
105.4885
  0
LINE
  8
LAYER_2
 10
-44.0984
 20
114.6228
 11
-44.4936
 21
116.0973
  0
LINE
  8
LAYER_2
 10
-44.4936
 20
116.0973
 11
-44.8887
 21
114.6228
  0
LINE
  8
LAYER_2
 10
-44.8887
 20
114.6228
 11
-44.0984
 21
114.6228
  0
ENDBLK
  0
BLOCK
  8
LAYER_2
  2
AIGNBL02010011
 70
64
 10
0
 20
0
 30
0
  3
AIGNBL02010011
  0
LINE
  8
LAYER_2
 10
-59.8005
 20
124.0135
 11
-59.8005
 21
104.014
  0
LINE
  8
LAYER_2
 10
-60.1953
 20
105.4885
 11
-59.8005
 21
104.014
  0
LINE
  8
LAYER_2
 10
-59.8005
 20
104.014
 11
-59.4053
 21
105.4885
  0
LINE
  8
LAYER_2
 10
-59.4053
 20
105.4885
 11
-60.1953
 21
105.4885
  0
LINE
  8
LAYER_2
 10
-59.4126
 20
122.5389
 11
-59.8074
 21
124.0135
  0
LINE
  8
LAYER_2
 10
-59.8074
 20
124.0135
 11
-60.2025
 21
122.5389
  0
LINE
  8
LAYER_2
 10
-60.2025
 20
122.5389
 11
-59.4126
 21
122.5389
  0
ENDBLK
  0
BLOCK
  8
LAYER_2
  2
AIGNBL02010012
 70
64
 10
0
 20
0
 30
0
  3
AIGNBL02010012
  0
LINE
  8
LAYER_2
 10
-15.8781
 20
81.4982
 11
-6.8781
 21
81.4982
  0
LINE
  8
LAYER_2
 10
-8.3523
 20
81.1103
 11
-6.8781
 21
81.5058
  0
LINE
  8
LAYER_2
 10
-6.8781
 20
81.5058
 11
-8.3523
 21
81.9006
  0
LINE
  8
LAYER_2
 10
-8.3523
 20
81.9006
 11
-8.3523
 21
81.1103
  0
LINE
  8
LAYER_2
 10
-14.4036
 20
81.8937
 11
-15.8781
 21
81.4982
  0
LINE
  8
LAYER_2
 10
-15.8781
 20
81.4982
 11
-14.4036
 21
81.1034
  0
LINE
  8
LAYER_2
 10
-14.4036
 20
81.1034
 11
-14.4036
 21
81.8937
  0
ENDBLK
  0
BLOCK
  8
LAYER_2
  2
AIGNBL02010013
 70
64
 10
0
 20
0
 30
0
  3
AIGNBL02010013
  0
LINE
  8
LAYER_2
 10
5.0969
 20
90.6863
 11
-8.6282
 21
90.6863
  0
LINE
  8
LAYER_2
 10
-7.1537
 20
91.0818
 11
-8.6282
 21
90.6863
  0
LINE
  8
LAYER_2
 10
-8.6282
 20
90.6863
 11
-7.1537
 21
90.2915
  0
LINE
  8
LAYER_2
 10
-7.1537
 20
90.2915
 11
-7.1537
 21
91.0818
  0
LINE
  8
LAYER_2
 10
-6.6025
 20
90.299
 11
-5.128
 21
90.6939
  0
LINE
  8
LAYER_2
 10
-5.128
 20
90.6939
 11
-6.6025
 21
91.0887
  0
LINE
  8
LAYER_2
 10
-6.6025
 20
91.0887
 11
-6.6025
 21
90.299
  0
ENDBLK
  0
BLOCK
  8
LAYER_2
  2
AIGNBL02010014
 70
64
 10
0
 20
0
 30
0
  3
AIGNBL02010014
  0
LINE
  8
LAYER_2
 10
-36.1279
 20
228.6446
 11
26.7051
 21
228.6446
  0
LINE
  8
LAYER_2
 10
34.3098
 20
208.8317
 11
41.6161
 21
203.1842
  0
LINE
  8
LAYER_2
 10
81.9636
 20
89.7933
 11
80.5567
 21
85.7481
  0
LINE
  8
LAYER_2
 10
25.2306
 20
228.2568
 11
26.7051
 21
228.652
  0
LINE
  8
LAYER_2
 10
26.7051
 20
228.652
 11
25.2306
 21
229.047
  0
LINE
  8
LAYER_2
 10
25.2306
 20
229.047
 11
25.2306
 21
228.2568
  0
LINE
  8
LAYER_2
 10
-27.6025
 20
228.2496
 11
-26.128
 21
228.6446
  0
LINE
  8
LAYER_2
 10
-26.128
 20
228.6446
 11
-27.6025
 21
229.0396
  0
LINE
  8
LAYER_2
 10
-27.6025
 20
229.0396
 11
-27.6025
 21
228.2496
  0
LINE
  8
LAYER_2
 10
-34.6534
 20
229.0396
 11
-36.1279
 21
228.6446
  0
LINE
  8
LAYER_2
 10
-36.1279
 20
228.6446
 11
-34.6534
 21
228.2496
  0
LINE
  8
LAYER_2
 10
-34.6534
 20
228.2496
 11
-34.6534
 21
229.0396
  0
LINE
  8
LAYER_2
 10
-24.6541
 20
229.0396
 11
-26.128
 21
228.6446
  0
LINE
  8
LAYER_2
 10
-26.128
 20
228.6446
 11
-24.6541
 21
228.2496
  0
LINE
  8
LAYER_2
 10
-24.6541
 20
228.2496
 11
-24.6541
 21
229.0396
  0
LINE
  8
LAYER_2
 10
-7.8528
 20
202.6658
 11
-6.3783
 21
203.0611
  0
LINE
  8
LAYER_2
 10
-6.3783
 20
203.0611
 11
-7.8528
 21
203.4561
  0
LINE
  8
LAYER_2
 10
-7.8528
 20
203.4561
 11
-7.8528
 21
202.6658
  0
LINE
  8
LAYER_2
 10
-14.9045
 20
203.4561
 11
-16.3783
 21
203.0611
  0
LINE
  8
LAYER_2
 10
-16.3783
 20
203.0611
 11
-14.9045
 21
202.6658
  0
LINE
  8
LAYER_2
 10
-14.9045
 20
202.6658
 11
-14.9045
 21
203.4561
  0
LINE
  8
LAYER_2
 10
-12.8523
 20
133.8037
 11
-11.3781
 21
134.1985
  0
LINE
  8
LAYER_2
 10
-11.3781
 20
134.1985
 11
-12.8523
 21
134.594
  0
LINE
  8
LAYER_2
 10
-12.8523
 20
134.594
 11
-12.8523
 21
133.8037
  0
LINE
  8
LAYER_2
 10
-9.9036
 20
134.594
 11
-11.3781
 21
134.1985
  0
LINE
  8
LAYER_2
 10
-11.3781
 20
134.1985
 11
-9.9036
 21
133.8037
  0
LINE
  8
LAYER_2
 10
-9.9036
 20
133.8037
 11
-9.9036
 21
134.594
  0
LINE
  8
LAYER_2
 10
0.1478
 20
133.8037
 11
1.622
 21
134.1985
  0
LINE
  8
LAYER_2
 10
1.622
 20
134.1985
 11
0.1478
 21
134.594
  0
LINE
  8
LAYER_2
 10
0.1478
 20
134.594
 11
0.1478
 21
133.8037
  0
LINE
  8
LAYER_2
 10
3.0964
 20
134.594
 11
1.622
 21
134.1985
  0
LINE
  8
LAYER_2
 10
1.622
 20
134.1985
 11
3.0964
 21
133.8037
  0
LINE
  8
LAYER_2
 10
3.0964
 20
133.8037
 11
3.0964
 21
134.594
  0
LINE
  8
LAYER_2
 10
71.596
 20
113.0395
 11
71.2012
 21
114.5139
  0
LINE
  8
LAYER_2
 10
71.2012
 20
114.5139
 11
70.806
 21
113.0395
  0
LINE
  8
LAYER_2
 10
70.806
 20
113.0395
 11
71.596
 21
113.0395
  0
LINE
  8
LAYER_2
 10
70.806
 20
119.1552
 11
71.2012
 21
117.6807
  0
LINE
  8
LAYER_2
 10
71.2012
 20
117.6807
 11
71.596
 21
119.1552
  0
LINE
  8
LAYER_2
 10
71.596
 20
119.1552
 11
70.806
 21
119.1552
  0
LINE
  8
LAYER_2
 10
55.8991
 20
90.1881
 11
54.4249
 21
89.7933
  0
LINE
  8
LAYER_2
 10
54.4249
 20
89.7933
 11
55.8991
 21
89.3985
  0
LINE
  8
LAYER_2
 10
55.8991
 20
89.3985
 11
55.8991
 21
90.1881
  0
LINE
  8
LAYER_2
 10
79.6168
 20
89.3985
 11
81.0913
 21
89.7933
  0
LINE
  8
LAYER_2
 10
81.0913
 20
89.7933
 11
79.6168
 21
90.1881
  0
LINE
  8
LAYER_2
 10
79.6168
 20
90.1881
 11
79.6168
 21
89.3985
  0
LINE
  8
LAYER_2
 10
46.6886
 20
114.6228
 11
46.2938
 21
116.0973
  0
LINE
  8
LAYER_2
 10
46.2938
 20
116.0973
 11
45.8986
 21
114.6228
  0
LINE
  8
LAYER_2
 10
45.8986
 20
114.6228
 11
46.6886
 21
114.6228
  0
LINE
  8
LAYER_2
 10
45.8986
 20
106.4049
 11
46.2938
 21
104.9304
  0
LINE
  8
LAYER_2
 10
46.2938
 20
104.9304
 11
46.6886
 21
106.4049
  0
LINE
  8
LAYER_2
 10
46.6886
 20
106.4049
 11
45.8986
 21
106.4049
  0
LINE
  8
LAYER_2
 10
15.7313
 20
228.2496
 11
17.2051
 21
228.6446
  0
LINE
  8
LAYER_2
 10
17.2051
 20
228.6446
 11
15.7313
 21
229.0396
  0
LINE
  8
LAYER_2
 10
15.7313
 20
229.0396
 11
15.7313
 21
228.2496
  0
LINE
  8
LAYER_2
 10
18.6797
 20
229.0396
 11
17.2051
 21
228.6446
  0
LINE
  8
LAYER_2
 10
17.2051
 20
228.6446
 11
18.6797
 21
228.2496
  0
LINE
  8
LAYER_2
 10
18.6797
 20
228.2496
 11
18.6797
 21
229.0396
  0
ENDBLK
  0
BLOCK
  8
LAYER_2
  2
AIGNBL02010015
 70
64
 10
0
 20
0
 30
0
  3
AIGNBL02010015
  0
LINE
  8
LAYER_2
 10
80.8412
 20
121.0968
 11
80.8412
 21
111.0971
  0
LINE
  8
LAYER_2
 10
81.0913
 20
111.0971
 11
80.8412
 21
111.0971
  0
ENDBLK
  0
BLOCK
  8
LAYER_2
  2
AIGNBL02010016
 70
64
 10
0
 20
0
 30
0
  3
AIGNBL02010016
  0
LINE
  8
LAYER_2
 10
81.0913
 20
121.0968
 11
81.0913
 21
111.0971
  0
LINE
  8
LAYER_2
 10
81.0913
 20
121.0968
 11
80.8412
 21
121.0968
  0
ENDBLK
  0
BLOCK
  8
LAYER_2
  2
AIGNBL02010017
 70
64
 10
0
 20
0
 30
0
  3
AIGNBL02010017
  0
LINE
  8
LAYER_2
 10
-43.4408
 20
202.9013
 11
-43.4408
 21
222.065
  0
LINE
  8
LAYER_2
 10
-43.0532
 20
220.5907
 11
-43.448
 21
222.065
  0
LINE
  8
LAYER_2
 10
-43.448
 20
222.065
 11
-43.8432
 21
220.5907
  0
LINE
  8
LAYER_2
 10
-43.8432
 20
220.5907
 11
-43.0532
 21
220.5907
  0
LINE
  8
LAYER_2
 10
8.3209
 20
180.3397
 11
3.2105
 21
186.1316
  0
LINE
  8
LAYER_2
 10
4.4762
 20
185.2827
 11
3.205
 21
186.1268
  0
LINE
  8
LAYER_2
 10
3.205
 20
186.1268
 11
3.884
 21
184.7598
  0
LINE
  8
LAYER_2
 10
3.884
 20
184.7598
 11
4.4762
 21
185.2827
  0
LINE
  8
LAYER_2
 10
-43.0457
 20
208.5075
 11
-43.4408
 21
209.9818
  0
LINE
  8
LAYER_2
 10
-43.4408
 20
209.9818
 11
-43.836
 21
208.5075
  0
LINE
  8
LAYER_2
 10
-43.836
 20
208.5075
 11
-43.0457
 21
208.5075
  0
LINE
  8
LAYER_2
 10
-43.836
 20
211.8725
 11
-43.4408
 21
210.3985
  0
LINE
  8
LAYER_2
 10
-43.4408
 20
210.3985
 11
-43.0457
 21
211.8725
  0
LINE
  8
LAYER_2
 10
-43.0457
 20
211.8725
 11
-43.836
 21
211.8725
  0
LINE
  8
LAYER_2
 10
13.4032
 20
222.065
 11
34.6598
 21
222.065
  0
LINE
  8
LAYER_2
 10
30.187
 20
209.5652
 11
34.6598
 21
209.5652
  0
LINE
  8
LAYER_2
 10
30.187
 20
207.8983
 11
34.6598
 21
207.8983
  0
LINE
  8
LAYER_2
 10
8.3209
 20
180.3397
 11
18.8119
 21
180.3397
  0
LINE
  8
LAYER_2
 10
-18.8526
 20
195.278
 11
-13.7421
 21
201.0699
  0
LINE
  8
LAYER_2
 10
-15.0079
 20
200.221
 11
-13.7366
 21
201.0651
  0
LINE
  8
LAYER_2
 10
-13.7366
 20
201.0651
 11
-14.4157
 21
199.6982
  0
LINE
  8
LAYER_2
 10
-14.4157
 20
199.6982
 11
-15.0079
 21
200.221
  0
LINE
  8
LAYER_2
 10
-7.521
 20
189.6828
 11
-9.4237
 21
207.6476
  0
LINE
  8
LAYER_2
 10
-9.6538
 20
206.1411
 11
-9.4165
 21
207.6483
  0
LINE
  8
LAYER_2
 10
-9.4165
 20
207.6483
 11
-8.8684
 21
206.2241
  0
LINE
  8
LAYER_2
 10
-8.8684
 20
206.2241
 11
-9.6538
 21
206.1411
  0
LINE
  8
LAYER_2
 10
-17.1624
 20
236.5334
 11
-12.4423
 21
213.0666
  0
LINE
  8
LAYER_2
 10
-12.3531
 20
214.5881
 11
-12.4495
 21
213.0652
  0
LINE
  8
LAYER_2
 10
-12.4495
 20
213.0652
 11
-13.1272
 21
214.4327
  0
LINE
  8
LAYER_2
 10
-13.1272
 20
214.4327
 11
-12.3531
 21
214.5881
  0
LINE
  8
LAYER_2
 10
7.2285
 20
189.6828
 11
5.3261
 21
207.6476
  0
LINE
  8
LAYER_2
 10
5.096
 20
206.1411
 11
5.333
 21
207.6483
  0
LINE
  8
LAYER_2
 10
5.333
 20
207.6483
 11
5.8815
 21
206.2241
  0
LINE
  8
LAYER_2
 10
5.8815
 20
206.2241
 11
5.096
 21
206.1411
  0
LINE
  8
LAYER_2
 10
-18.8526
 20
195.278
 11
-27.4484
 21
195.278
  0
LINE
  8
LAYER_2
 10
-17.1624
 20
236.5334
 11
-27.0207
 21
236.5334
  0
LINE
  8
LAYER_2
 10
41.6161
 20
203.1842
 11
63.1844
 21
203.1842
  0
LINE
  8
LAYER_2
 10
34.3098
 20
204.36
 11
34.3098
 21
222.065
  0
LINE
  8
LAYER_2
 10
33.9222
 20
220.5907
 11
34.317
 21
222.065
  0
LINE
  8
LAYER_2
 10
34.317
 20
222.065
 11
34.7122
 21
220.5907
  0
LINE
  8
LAYER_2
 10
34.7122
 20
220.5907
 11
33.9222
 21
220.5907
  0
LINE
  8
LAYER_2
 10
33.915
 20
206.4242
 11
34.3098
 21
207.8983
  0
LINE
  8
LAYER_2
 10
34.3098
 20
207.8983
 11
34.7049
 21
206.4242
  0
LINE
  8
LAYER_2
 10
34.7049
 20
206.4242
 11
33.915
 21
206.4242
  0
LINE
  8
LAYER_2
 10
34.7049
 20
211.0391
 11
34.3098
 21
209.5652
  0
LINE
  8
LAYER_2
 10
34.3098
 20
209.5652
 11
33.9146
 21
211.0391
  0
LINE
  8
LAYER_2
 10
33.9146
 20
211.0391
 11
34.7049
 21
211.0391
  0
ENDBLK
  0
BLOCK
  8
LAYER_2
  2
AIGNBL02010018
 70
64
 10
0
 20
0
 30
0
  3
AIGNBL02010018
  0
LINE
  8
LAYER_2
 10
91.0911
 20
96.4823
 11
105.4013
 21
96.4823
  0
LINE
  8
LAYER_2
 10
93.7838
 20
96.0951
 11
95.2583
 21
96.4899
  0
LINE
  8
LAYER_2
 10
95.2583
 20
96.4899
 11
93.7838
 21
96.8847
  0
LINE
  8
LAYER_2
 10
93.7838
 20
96.8847
 11
93.7838
 21
96.0951
  0
LINE
  8
LAYER_2
 10
92.5649
 20
96.8778
 11
91.0911
 21
96.4823
  0
LINE
  8
LAYER_2
 10
91.0911
 20
96.4823
 11
92.5649
 21
96.0875
  0
LINE
  8
LAYER_2
 10
92.5649
 20
96.0875
 11
92.5649
 21
96.8778
  0
LINE
  8
LAYER_2
 10
93.7838
 20
89.3765
 11
95.2583
 21
89.7713
  0
LINE
  8
LAYER_2
 10
95.2583
 20
89.7713
 11
93.7838
 21
90.1661
  0
LINE
  8
LAYER_2
 10
93.7838
 20
90.1661
 11
93.7838
 21
89.3765
  0
LINE
  8
LAYER_2
 10
84.2319
 20
90.1888
 11
82.7581
 21
89.7933
  0
LINE
  8
LAYER_2
 10
82.7581
 20
89.7933
 11
84.2319
 21
89.3985
  0
LINE
  8
LAYER_2
 10
84.2319
 20
89.3985
 11
84.2319
 21
90.1888
  0
ENDBLK
  0
BLOCK
  8
LAYER_2
  2
AIGNBL02010019
 70
64
 10
0
 20
0
 30
0
  3
AIGNBL02010019
  0
LINE
  8
LAYER_2
 10
-21.0447
 20
221.9816
 11
-22.0448
 21
221.9816
  0
LINE
  8
LAYER_2
 10
-21.1277
 20
222.065
 11
-21.9614
 21
222.065
  0
LINE
  8
LAYER_2
 10
-21.1277
 20
222.065
 11
-21.0447
 21
221.9816
  0
LINE
  8
LAYER_2
 10
-22.0448
 20
221.9816
 11
-21.9614
 21
222.065
  0
LINE
  8
LAYER_2
 10
-21.0447
 20
221.9816
 11
-21.0447
 21
221.7317
  0
LINE
  8
LAYER_2
 10
-22.0448
 20
221.9816
 11
-22.0448
 21
221.7317
  0
ENDBLK
  0
BLOCK
  8
LAYER_2
  2
AIGNBL0201001A
 70
64
 10
0
 20
0
 30
0
  3
AIGNBL0201001A
  0
LINE
  8
LAYER_2
 10
12.2883
 20
221.9816
 11
11.2885
 21
221.9816
  0
LINE
  8
LAYER_2
 10
12.2053
 20
222.065
 11
11.3716
 21
222.065
  0
LINE
  8
LAYER_2
 10
12.2053
 20
222.065
 11
12.2883
 21
221.9816
  0
LINE
  8
LAYER_2
 10
11.2885
 20
221.9816
 11
11.3716
 21
222.065
  0
LINE
  8
LAYER_2
 10
12.2883
 20
221.9816
 11
12.2883
 21
221.7317
  0
LINE
  8
LAYER_2
 10
11.2885
 20
221.9816
 11
11.2885
 21
221.7317
  0
ENDBLK
  0
BLOCK
  8
LAYER_2
  2
AIGNBL0201001B
 70
64
 10
0
 20
0
 30
0
  3
AIGNBL0201001B
  0
INSERT
  8
LAYER_2
  2
AIGNBL0202001C
 10
0
 20
0
 30
0
  0
INSERT
  8
LAYER_2
  2
AIGNBL0202001D
 10
0
 20
0
 30
0
  0
INSERT
  8
LAYER_2
  2
AIGNBL0202001E
 10
0
 20
0
 30
0
  0
INSERT
  8
LAYER_2
  2
AIGNBL0202001F
 10
0
 20
0
 30
0
  0
INSERT
  8
LAYER_2
  2
AIGNBL02020020
 10
0
 20
0
 30
0
  0
INSERT
  8
LAYER_2
  2
AIGNBL02020021
 10
0
 20
0
 30
0
  0
INSERT
  8
LAYER_2
  2
AIGNBL02020022
 10
0
 20
0
 30
0
  0
INSERT
  8
LAYER_2
  2
AIGNBL02020023
 10
0
 20
0
 30
0
  0
INSERT
  8
LAYER_2
  2
AIGNBL02020024
 10
0
 20
0
 30
0
  0
INSERT
  8
LAYER_2
  2
AIGNBL02020025
 10
0
 20
0
 30
0
  0
INSERT
  8
LAYER_2
  2
AIGNBL02020026
 10
0
 20
0
 30
0
  0
INSERT
  8
LAYER_2
  2
AIGNBL02020027
 10
0
 20
0
 30
0
  0
INSERT
  8
LAYER_2
  2
AIGNBL02020028
 10
0
 20
0
 30
0
  0
INSERT
  8
LAYER_2
  2
AIGNBL02020029
 10
0
 20
0
 30
0
  0
INSERT
  8
LAYER_2
  2
AIGNBL0202002A
 10
0
 20
0
 30
0
  0
INSERT
  8
LAYER_2
  2
AIGNBL0202002B
 10
0
 20
0
 30
0
  0
INSERT
  8
LAYER_2
  2
AIGNBL0202002C
 10
0
 20
0
 30
0
  0
INSERT
  8
LAYER_2
  2
AIGNBL0202002D
 10
0
 20
0
 30
0
  0
INSERT
  8
LAYER_2
  2
AIGNBL0202002E
 10
0
 20
0
 30
0
  0
INSERT
  8
LAYER_2
  2
AIGNBL0202002F
 10
0
 20
0
 30
0
  0
INSERT
  8
LAYER_2
  2
AIGNBL02020030
 10
0
 20
0
 30
0
  0
ENDBLK
  0
BLOCK
  8
LAYER_2
  2
AIGNBL02010031
 70
64
 10
0
 20
0
 30
0
  3
AIGNBL02010031
  0
INSERT
  8
LAYER_2
  2
AIGNBL02020032
 10
0
 20
0
 30
0
  0
INSERT
  8
LAYER_2
  2
AIGNBL02020033
 10
0
 20
0
 30
0
  0
INSERT
  8
LAYER_2
  2
AIGNBL02020034
 10
0
 20
0
 30
0
  0
INSERT
  8
LAYER_2
  2
AIGNBL02020035
 10
0
 20
0
 30
0
  0
INSERT
  8
LAYER_2
  2
AIGNBL02020036
 10
0
 20
0
 30
0
  0
INSERT
  8
LAYER_2
  2
AIGNBL02020037
 10
0
 20
0
 30
0
  0
INSERT
  8
LAYER_2
  2
AIGNBL02020038
 10
0
 20
0
 30
0
  0
INSERT
  8
LAYER_2
  2
AIGNBL02020039
 10
0
 20
0
 30
0
  0
INSERT
  8
LAYER_2
  2
AIGNBL0202003A
 10
0
 20
0
 30
0
  0
INSERT
  8
LAYER_2
  2
AIGNBL0202003B
 10
0
 20
0
 30
0
  0
INSERT
  8
LAYER_2
  2
AIGNBL0202003C
 10
0
 20
0
 30
0
  0
INSERT
  8
LAYER_2
  2
AIGNBL0202003D
 10
0
 20
0
 30
0
  0
INSERT
  8
LAYER_2
  2
AIGNBL0202003E
 10
0
 20
0
 30
0
  0
INSERT
  8
LAYER_2
  2
AIGNBL0202003F
 10
0
 20
0
 30
0
  0
INSERT
  8
LAYER_2
  2
AIGNBL02020040
 10
0
 20
0
 30
0
  0
INSERT
  8
LAYER_2
  2
AIGNBL02020041
 10
0
 20
0
 30
0
  0
INSERT
  8
LAYER_2
  2
AIGNBL02020042
 10
0
 20
0
 30
0
  0
INSERT
  8
LAYER_2
  2
AIGNBL02020043
 10
0
 20
0
 30
0
  0
INSERT
  8
LAYER_2
  2
AIGNBL02020044
 10
0
 20
0
 30
0
  0
INSERT
  8
LAYER_2
  2
AIGNBL02020045
 10
0
 20
0
 30
0
  0
INSERT
  8
LAYER_2
  2
AIGNBL02020046
 10
0
 20
0
 30
0
  0
ENDBLK
  0
BLOCK
  8
LAYER_3
  2
AIGNBL03010002
 70
64
 10
0
 20
0
 30
0
  3
AIGNBL03010002
  0
ARC
  8
LAYER_3
 10
181.2361
 20
51.0518
 40
2.085
 50
359.9990616
 51
90.00093841
  0
ARC
  8
LAYER_3
 10
181.2364
 20
51.0522
 40
2.0846
 50
90.00927268
 51
180.0099666
  0
ARC
  8
LAYER_3
 10
181.2361
 20
51.0519
 40
2.0843
 50
180.0023133
 51
270.0004358
  0
ARC
  8
LAYER_3
 10
181.2365
 20
51.0522
 40
2.0846
 50
269.9893525
 51
359.9886593
  0
ARC
  8
LAYER_3
 10
181.2365
 20
51.0515
 40
1.2199
 50
0.01483428533
 51
90.01804168
  0
ARC
  8
LAYER_3
 10
181.2361
 20
51.0519
 40
1.2195
 50
90.00175626
 51
180.0029419
  0
ARC
  8
LAYER_3
 10
181.2361
 20
51.0518
 40
1.2195
 50
180.0016044
 51
269.9983956
  0
ARC
  8
LAYER_3
 10
181.2365
 20
51.0522
 40
1.2199
 50
269.9818051
 51
359.9806209
  0
LINE
  8
LAYER_3
 10
184.9472
 20
49.8323
 11
184.9472
 21
52.2714
  0
LINE
  8
LAYER_3
 10
190.1252
 20
48.9676
 11
190.1252
 21
53.1368
  0
LINE
  8
LAYER_3
 10
184.9472
 20
52.2714
 11
190.1252
 21
53.1368
  0
LINE
  8
LAYER_3
 10
184.9472
 20
49.8323
 11
190.1252
 21
48.9676
  0
LINE
  8
LAYER_3
 10
181.2361
 20
51.0518
 11
181.2361
 21
50.8004
  0
LINE
  8
LAYER_3
 10
181.2361
 20
50.5599
 11
181.2361
 21
48.3729
  0
LINE
  8
LAYER_3
 10
181.2361
 20
51.0518
 11
181.4883
 21
51.0518
  0
LINE
  8
LAYER_3
 10
181.7288
 20
51.0518
 11
183.9157
 21
51.0518
  0
LINE
  8
LAYER_3
 10
181.2361
 20
51.0518
 11
181.2361
 21
51.304
  0
LINE
  8
LAYER_3
 10
181.2361
 20
51.5445
 11
181.2361
 21
53.7314
  0
LINE
  8
LAYER_3
 10
181.2361
 20
51.0518
 11
180.9846
 21
51.0518
  0
LINE
  8
LAYER_3
 10
180.7442
 20
51.0518
 11
178.5572
 21
51.0518
  0
LINE
  8
LAYER_3
 10
187.1404
 20
51.0518
 11
187.3925
 21
51.0518
  0
LINE
  8
LAYER_3
 10
187.633
 20
51.0518
 11
190.5579
 21
51.0518
  0
LINE
  8
LAYER_3
 10
187.1404
 20
51.0518
 11
186.8882
 21
51.0518
  0
LINE
  8
LAYER_3
 10
186.6477
 20
51.0518
 11
184.4614
 21
51.0518
  0
ENDBLK
  0
ENDSEC
  0
SECTION
  2
ENTITIES
  0
TEXT
  8
LAYER_1
 10
-4.3346
 20
99.6349
 11
-4.3346
 21
99.6349
 40
3.0923
 41
0.5
  1
水側
  0
TEXT
  8
LAYER_1
 10
-16.958
 20
99.6349
 11
-16.958
 21
99.6349
 40
3.0923
 41
0.5
 72
2
  1
湯側
  0
TEXT
  8
LAYER_1
 10
-25.1258
 20
203.7612
 11
-25.1258
 21
203.7612
 40
3.0923
 41
0.5
  1
%%c60
  0
TEXT
  8
LAYER_1
 10
18.812
 20
181.0398
 11
18.812
 21
181.0398
 40
3.0923
 41
0.5
 72
2
  1
VL010R
  0
TEXT
  8
LAYER_1
 10
-27.4485
 20
195.978
 11
-27.4485
 21
195.978
 40
3.0923
 41
0.5
  1
VL028
  0
TEXT
  8
LAYER_1
 10
-27.0207
 20
237.2334
 11
-27.0207
 21
237.2334
 40
3.0923
 41
0.5
  1
VL100A
  0
TEXT
  8
LAYER_1
 10
-18.6287
 20
190.398
 11
-18.6287
 21
190.398
 40
3.0923
 41
0.5
  1
VL3001
  0
TEXT
  8
LAYER_1
 10
17.4518
 20
190.398
 11
17.4518
 21
190.398
 40
3.0923
 41
0.5
 72
2
  1
VL001R
  0
TEXT
  8
LAYER_1
 10
67.508
 20
90.4934
 11
67.508
 21
90.4934
 40
3.0923
 41
0.5
 72
1
  1
160
  0
TEXT
  8
LAYER_1
 10
88.2624
 20
90.4934
 11
88.2624
 21
90.4934
 40
3.0923
 41
0.5
 72
1
  1
75～101
  0
TEXT
  8
LAYER_1
 10
45.5938
 20
110.4487
 11
45.5938
 21
110.4487
 40
3.0923
 41
0.5
 50
89.99999999
 72
1
  1
67
  0
TEXT
  8
LAYER_1
 10
70.5011
 20
123.8408
 11
70.5011
 21
123.8408
 40
3.0923
 41
0.5
 50
89.99999999
 72
2
  1
%%c19
  0
TEXT
  8
LAYER_1
 10
-11.3781
 20
82.1983
 11
-11.3781
 21
82.1983
 40
3.0923
 41
0.5
 72
1
  1
54
  0
TEXT
  8
LAYER_1
 10
21.9475
 20
229.3447
 11
21.9475
 21
229.3447
 40
3.0923
 41
0.5
 72
1
  1
57
  0
TEXT
  8
LAYER_1
 10
63.1844
 20
203.9541
 11
63.1844
 21
203.9541
 40
3.0923
 41
0.5
 72
2
  1
壁仕上厚：max.15
  0
TEXT
  8
LAYER_1
 10
81.1075
 20
83.034
 11
81.1075
 21
83.034
 40
3.0923
 41
0.5
 72
1
  1
max.15
  0
TEXT
  8
LAYER_1
 10
-4.4614
 20
229.3447
 11
-4.4614
 21
229.3447
 40
3.0923
 41
0.5
 72
1
  1
260
  0
TEXT
  8
LAYER_1
 10
-31.1356
 20
229.3447
 11
-31.1356
 21
229.3447
 40
3.0923
 41
0.5
 72
1
  1
60
  0
TEXT
  8
LAYER_1
 10
-23.8516
 20
134.8986
 11
-23.8516
 21
134.8986
 40
3.0923
 41
0.5
 72
1
  1
148
  0
TEXT
  8
LAYER_1
 10
-4.8779
 20
134.8986
 11
-4.8779
 21
134.8986
 40
3.0923
 41
0.5
 72
1
  1
78
  0
TEXT
  8
LAYER_1
 10
-4.6698
 20
143.1592
 11
-4.6698
 21
143.1592
 40
3.0923
 41
0.5
 72
1
  1
377
  0
TEXT
  8
LAYER_1
 10
14.0574
 20
134.8986
 11
14.0574
 21
134.8986
 40
3.0923
 41
0.5
 72
1
  1
151
  0
TEXT
  8
LAYER_1
 10
-60.5002
 20
114.0137
 11
-60.5002
 21
114.0137
 40
3.0923
 41
0.5
 50
89.99999999
 72
1
  1
120
  0
TEXT
  8
LAYER_1
 10
-52.7308
 20
116.0966
 11
-52.7308
 21
116.0966
 40
3.0923
 41
0.5
 50
89.99999999
 72
1
  1
95
  0
TEXT
  8
LAYER_1
 10
-45.1864
 20
108.6552
 11
-45.1864
 21
108.6552
 40
3.0923
 41
0.5
 50
89.99999999
  1
72.5
  0
TEXT
  8
LAYER_1
 10
-44.1408
 20
216.2318
 11
-44.1408
 21
216.2318
 40
3.0923
 41
0.5
 50
89.99999999
 72
1
  1
70
  0
TEXT
  8
LAYER_1
 10
33.6097
 20
215.1099
 11
33.6097
 21
215.1099
 40
3.0923
 41
0.5
 50
89.99999999
 72
1
  1
75～101
  0
TEXT
  8
LAYER_1
 10
-44.1408
 20
202.9013
 11
-44.1408
 21
202.9013
 40
3.0923
 41
0.5
 50
89.99999999
  1
2.5
  0
TEXT
  8
LAYER_1
 10
5.0969
 20
91.3174
 11
5.0969
 21
91.3174
 40
3.0923
 41
0.5
 72
2
  1
PF 1/2
  0
TEXT
  8
LAYER_1
 10
103.9461
 20
97.1824
 11
103.9461
 21
97.1824
 40
3.0923
 41
0.5
 72
2
  1
25～51
  0
TEXT
  8
LAYER_1
 10
-77.8468
 20
21.9587
 11
-77.8468
 21
21.9587
 40
3.6546
 41
0.5
  1
※壁仕上面が15mmを超え65mmまでの場合は延長部材（別売）が必要です。
  0
TEXT
  8
LAYER_1
 10
-77.8468
 20
27.4267
 11
-77.8468
 21
27.4267
 40
3.6546
 41
0.5
  1
※メンテナンスのため配管途中に、必ず止水栓（現場手配）を設置してください。
  0
INSERT
  8
LAYER_2
  2
AIGNBL02010002
 10
0
 20
0
 30
0
  0
LINE
  8
LAYER_2
 10
-14.243
 20
207.6483
 11
-14.243
 21
207.3152
  0
LINE
  8
LAYER_2
 10
-8.5814
 20
207.6483
 11
-8.5814
 21
207.3152
  0
ARC
  8
LAYER_2
 10
-11.5435
 20
115.9504
 40
5.1672
 50
1.621098406
 51
81.66574036
  0
ARC
  8
LAYER_2
 10
-11.378
 20
116.0968
 40
4.9997
 50
269.9984536
 51
359.9981084
  0
ARC
  8
LAYER_2
 10
-11.3784
 20
116.097
 40
4.9999
 50
180.0041102
 51
270.0039115
  0
ARC
  8
LAYER_2
 10
-11.2087
 20
115.9471
 40
5.1717
 50
98.36836692
 51
178.343795
  0
INSERT
  8
LAYER_2
  2
AIGNBL02010004
 10
0
 20
0
 30
0
  0
INSERT
  8
LAYER_2
  2
AIGNBL02010005
 10
0
 20
0
 30
0
  0
INSERT
  8
LAYER_2
  2
AIGNBL02010006
 10
0
 20
0
 30
0
  0
INSERT
  8
LAYER_2
  2
AIGNBL02010007
 10
0
 20
0
 30
0
  0
LINE
  8
LAYER_2
 10
-11.7946
 20
123.5973
 11
-10.9613
 21
123.5973
  0
LINE
  8
LAYER_2
 10
-10.7945
 20
123.4305
 11
-10.7945
 21
119.3791
  0
LINE
  8
LAYER_2
 10
-11.9614
 20
123.4305
 11
-11.9614
 21
119.3791
  0
LINE
  8
LAYER_2
 10
-10.3363
 20
119.264
 11
-10.3363
 21
112.9299
  0
LINE
  8
LAYER_2
 10
-12.4196
 20
119.264
 11
-12.4196
 21
112.9299
  0
LINE
  8
LAYER_2
 10
-10.3363
 20
202.7318
 11
-10.3363
 21
201.0651
  0
LINE
  8
LAYER_2
 10
-12.4199
 20
202.7318
 11
-12.4199
 21
201.0651
  0
CIRCLE
  8
LAYER_2
 10
-11.3781
 20
116.0973
 40
3.3335
  0
CIRCLE
  8
LAYER_2
 10
-11.3781
 20
201.8983
 40
0.5834
  0
LINE
  8
LAYER_2
 10
-14.7116
 20
201.2318
 11
-14.7116
 21
207.3152
  0
LINE
  8
LAYER_2
 10
-8.0446
 20
201.2318
 11
-8.0446
 21
207.3152
  0
LINE
  8
LAYER_2
  6
AIGENLINE001
 10
-12.9436
 20
201.8983
 11
-9.9074
 21
201.8983
  0
LINE
  8
LAYER_2
 10
-14.5449
 20
201.0651
 11
-8.2114
 21
201.0651
  0
LINE
  8
LAYER_2
 10
-12.4199
 20
202.7318
 11
-10.3363
 21
202.7318
  0
LINE
  8
LAYER_2
 10
-14.7116
 20
207.3152
 11
-8.0446
 21
207.3152
  0
ARC
  8
LAYER_2
 10
-11.7946
 20
123.4305
 40
0.1668
 50
89.99108794
 51
180.0089121
  0
ARC
  8
LAYER_2
 10
-10.9613
 20
123.4305
 40
0.1668
 50
359.9902767
 51
90.00972326
  0
LINE
  8
LAYER_2
 10
74.4247
 20
119.4301
 11
80.5081
 21
119.4301
  0
LINE
  8
LAYER_2
 10
74.258
 20
119.264
 11
75.9247
 21
119.264
  0
LINE
  8
LAYER_2
 10
74.4247
 20
112.7638
 11
80.5081
 21
112.7638
  0
LINE
  8
LAYER_2
 10
74.6749
 20
123.5973
 11
75.5082
 21
123.5973
  0
LINE
  8
LAYER_2
  6
AIGENLINE001
 10
75.0914
 20
124.112
 11
75.0914
 21
118.3339
  0
LINE
  8
LAYER_2
 10
75.675
 20
123.4305
 11
75.675
 21
119.4301
  0
LINE
  8
LAYER_2
 10
74.5081
 20
123.4305
 11
74.5081
 21
119.4301
  0
LINE
  8
LAYER_2
 10
74.258
 20
114.5139
 11
74.258
 21
112.9306
  0
LINE
  8
LAYER_2
 10
74.258
 20
119.264
 11
74.258
 21
117.6807
  0
LINE
  8
LAYER_2
 10
75.9247
 20
119.4301
 11
75.9247
 21
119.264
  0
LINE
  8
LAYER_2
 10
80.5081
 20
113.0973
 11
80.5081
 21
112.7638
  0
LINE
  8
LAYER_2
 10
80.5081
 20
119.4301
 11
80.5081
 21
119.0973
  0
ARC
  8
LAYER_2
 10
74.4308
 20
119.2573
 40
0.1729
 50
92.02023884
 51
177.773166
  0
ARC
  8
LAYER_2
 10
74.6749
 20
123.4305
 40
0.1668
 50
89.99114562
 51
180.0088544
  0
ARC
  8
LAYER_2
 10
75.5082
 20
123.4305
 40
0.1668
 50
359.9902227
 51
90.00977733
  0
ARC
  8
LAYER_2
 10
74.4248
 20
112.9306
 40
0.1668
 50
179.9886861
 51
269.9769536
  0
ARC
  8
LAYER_2
 10
-14.5449
 20
201.2318
 40
0.1667
 50
180.0104866
 51
269.9895135
  0
ARC
  8
LAYER_2
 10
-8.2114
 20
201.2319
 40
0.1668
 50
269.9843796
 51
359.9812601
  0
INSERT
  8
LAYER_2
  2
AIGNBL02010008
 10
0
 20
0
 30
0
  0
LINE
  8
LAYER_2
  6
AIGENLINE001
 10
61.9249
 20
116.0973
 11
86.2776
 21
116.0973
  0
LINE
  8
LAYER_2
 10
52.8416
 20
104.9304
 11
56.0083
 21
104.9304
  0
LINE
  8
LAYER_2
 10
52.8416
 20
107.9303
 11
56.0083
 21
107.9303
  0
LINE
  8
LAYER_2
 10
61.9249
 20
117.6807
 11
79.8415
 21
117.6807
  0
LINE
  8
LAYER_2
 10
61.9249
 20
114.5139
 11
79.8415
 21
114.5139
  0
LINE
  8
LAYER_2
  6
AIGENLINE001
 10
54.4249
 20
103.5868
 11
54.4249
 21
108.5973
  0
LINE
  8
LAYER_2
 10
52.8416
 20
104.9304
 11
52.8416
 21
108.5973
  0
LINE
  8
LAYER_2
 10
56.0083
 20
104.9304
 11
56.0083
 21
108.5973
  0
LINE
  8
LAYER_2
 10
79.8415
 20
118.9306
 11
79.8415
 21
113.2641
  0
LINE
  8
LAYER_2
 10
80.8412
 20
119.0973
 11
80.8412
 21
113.0973
  0
LINE
  8
LAYER_2
 10
80.0078
 20
119.0973
 11
80.0078
 21
113.0973
  0
LINE
  8
LAYER_2
 10
80.0078
 20
119.0973
 11
80.8412
 21
119.0973
  0
LINE
  8
LAYER_2
 10
80.0078
 20
113.0973
 11
80.8412
 21
113.0973
  0
ARC
  8
LAYER_2
  6
AIGENLINE001
 10
61.9249
 20
108.5973
 40
7.5
 50
89.99988153
 51
180.0001185
  0
ARC
  8
LAYER_2
 10
61.9249
 20
108.5973
 40
5.9166
 50
89.99984983
 51
180.0001502
  0
ARC
  8
LAYER_2
 10
61.9249
 20
108.5974
 40
9.0833
 50
90.00021757
 51
180.0004132
  0
LINE
  8
LAYER_2
 10
80.0078
 20
113.0973
 11
79.8415
 21
113.2641
  0
LINE
  8
LAYER_2
 10
80.0078
 20
119.0973
 11
79.8415
 21
118.9306
  0
LINE
  8
LAYER_2
 10
81.0913
 20
118.2636
 11
83.0916
 21
118.2636
  0
LINE
  8
LAYER_2
 10
81.0913
 20
113.9303
 11
83.0916
 21
113.9303
  0
LINE
  8
LAYER_2
 10
81.0913
 20
114.0971
 11
83.0916
 21
114.0971
  0
LINE
  8
LAYER_2
 10
81.0913
 20
118.0968
 11
83.0916
 21
118.0968
  0
LINE
  8
LAYER_2
 10
0.0386
 20
181.2316
 11
0.0386
 21
206.6484
  0
LINE
  8
LAYER_2
 10
3.205
 20
181.2316
 11
3.205
 21
206.6484
  0
LINE
  8
LAYER_2
 10
-1.2117
 20
206.6484
 11
4.4555
 21
206.6484
  0
LINE
  8
LAYER_2
 10
-1.3784
 20
206.8149
 11
4.622
 21
206.8149
  0
LINE
  8
LAYER_2
 10
-1.3784
 20
206.8149
 11
-1.3784
 21
207.6483
  0
LINE
  8
LAYER_2
 10
4.622
 20
206.8149
 11
4.622
 21
207.6483
  0
LINE
  8
LAYER_2
 10
4.622
 20
206.8149
 11
4.4555
 21
206.6484
  0
LINE
  8
LAYER_2
 10
-1.3784
 20
206.8149
 11
-1.2117
 21
206.6484
  0
LINE
  8
LAYER_2
 10
-0.5447
 20
207.8983
 11
-0.5447
 21
209.9818
  0
LINE
  8
LAYER_2
 10
3.7886
 20
207.8983
 11
3.7886
 21
209.9818
  0
LINE
  8
LAYER_2
 10
3.6218
 20
207.8983
 11
3.6218
 21
209.9818
  0
LINE
  8
LAYER_2
 10
-0.3779
 20
207.8983
 11
-0.3779
 21
209.9818
  0
INSERT
  8
LAYER_2
  2
AIGNBL0201000C
 10
0
 20
0
 30
0
  0
ARC
  8
LAYER_2
 10
1.6216
 20
181.2317
 40
1.5834
 50
269.9986909
 51
359.9976905
  0
ARC
  8
LAYER_2
 10
1.6218
 20
181.2315
 40
1.5832
 50
179.9955642
 51
269.9935785
  0
LINE
  8
LAYER_2
 10
-35.2942
 20
209.9818
 11
-36.1279
 21
209.9818
  0
LINE
  8
LAYER_2
 10
-36.1279
 20
210.3985
 11
-35.2942
 21
210.3985
  0
LINE
  8
LAYER_2
 10
-36.1279
 20
209.9818
 11
-36.1279
 21
210.3985
  0
LINE
  8
LAYER_2
 10
15.9553
 20
211.2317
 11
15.9553
 21
220.9819
  0
LINE
  8
LAYER_2
 10
14.7054
 20
213.5652
 11
14.7054
 21
218.3987
  0
LINE
  8
LAYER_2
 10
14.7884
 20
218.4821
 11
14.7884
 21
213.4819
  0
LINE
  8
LAYER_2
 10
16.3718
 20
215.8151
 11
16.3718
 21
216.0755
  0
LINE
  8
LAYER_2
 10
16.7886
 20
216.6486
 11
16.7886
 21
215.8151
  0
LINE
  8
LAYER_2
 10
-20.4615
 20
214.6911
 11
-20.4615
 21
215.3982
  0
LINE
  8
LAYER_2
 10
-21.5446
 20
214.6911
 11
-21.5446
 21
215.3982
  0
LINE
  8
LAYER_2
 10
-22.6281
 20
214.6911
 11
-22.6281
 21
215.3982
  0
LINE
  8
LAYER_2
 10
-26.128
 20
210.732
 11
-26.128
 21
220.9819
  0
LINE
  8
LAYER_2
 10
-25.7114
 20
220.9819
 11
-25.7114
 21
210.732
  0
LINE
  8
LAYER_2
 10
6.3803
 20
216.3985
 11
6.3803
 21
213.732
  0
ARC
  8
LAYER_2
 10
-3.5565
 20
214.7275
 40
2.7372
 50
0.09420156259
 51
25.60007279
  0
ARC
  8
LAYER_2
 10
6.7162
 20
215.0654
 40
2.6898
 50
150.2835603
 51
209.7164397
  0
LINE
  8
LAYER_2
 10
-11.3699
 20
213.0652
 11
-11.3699
 21
216.8153
  0
LINE
  8
LAYER_2
 10
-7.8696
 20
215.9102
 11
-7.8696
 21
213.4819
  0
ARC
  8
LAYER_2
 10
-15.8696
 20
217.5655
 40
2.3332
 50
90.00582466
 51
180.0064535
  0
ARC
  8
LAYER_2
 10
-15.8697
 20
217.5651
 40
2.3331
 50
179.9966445
 51
269.998444
  0
LINE
  8
LAYER_2
 10
-14.8697
 20
215.9818
 11
-14.8697
 21
210.4819
  0
LINE
  8
LAYER_2
 10
14.7884
 20
213.4819
 11
15.9553
 21
213.4819
  0
LINE
  8
LAYER_2
 10
14.7054
 20
213.5652
 11
14.7884
 21
213.4819
  0
LINE
  8
LAYER_2
 10
-20.5028
 20
214.4818
 11
-20.4615
 21
214.5232
  0
ARC
  8
LAYER_2
 10
-20.7949
 20
213.5652
 40
0.0833
 50
270.0293682
 51
359.9706318
  0
LINE
  8
LAYER_2
 10
-20.7116
 20
213.5652
 11
-20.7116
 21
214.4818
  0
ARC
  8
LAYER_2
 10
-22.2916
 20
213.5683
 40
0.0864
 50
182.0263927
 51
267.8358771
  0
LINE
  8
LAYER_2
 10
-21.3482
 20
213.4819
 11
-22.2949
 21
213.4819
  0
LINE
  8
LAYER_2
 10
-22.378
 20
213.5652
 11
-21.3262
 21
213.5652
  0
LINE
  8
LAYER_2
 10
-22.378
 20
214.4818
 11
-22.378
 21
213.5652
  0
LINE
  8
LAYER_2
 10
-22.6281
 20
214.5232
 11
-22.5864
 21
214.4818
  0
LINE
  8
LAYER_2
 10
-20.7949
 20
213.4819
 11
-21.3482
 21
213.4819
  0
LINE
  8
LAYER_2
 10
-22.5864
 20
214.4818
 11
-20.5028
 21
214.4818
  0
LINE
  8
LAYER_2
 10
-21.3262
 20
213.5652
 11
-20.7116
 21
213.5652
  0
LINE
  8
LAYER_2
 10
-35.2942
 20
210.3985
 11
-26.4614
 21
210.3985
  0
LINE
  8
LAYER_2
 10
-26.4614
 20
209.9818
 11
-35.2942
 21
209.9818
  0
ARC
  8
LAYER_2
 10
-26.4615
 20
210.7319
 40
0.7501
 50
270.0095355
 51
0.00574133644
  0
ARC
  8
LAYER_2
 10
-26.4615
 20
210.732
 40
0.3335
 50
270.0128587
 51
0.00432402945
  0
LINE
  8
LAYER_2
 10
4.3801
 20
209.9818
 11
-1.1196
 21
209.9818
  0
LINE
  8
LAYER_2
 10
-0.1647
 20
213.0652
 11
-0.1647
 21
213.4819
  0
LINE
  8
LAYER_2
 10
-0.8193
 20
213.4819
 11
-0.8193
 21
214.732
  0
LINE
  8
LAYER_2
 10
-1.1196
 20
209.9818
 11
-1.1196
 21
213.0652
  0
LINE
  8
LAYER_2
 10
4.3801
 20
213.732
 11
4.3801
 21
209.9818
  0
LINE
  8
LAYER_2
 10
6.3803
 20
213.732
 11
4.3801
 21
213.732
  0
LINE
  8
LAYER_2
 10
-10.0362
 20
210.4819
 11
-11.0364
 21
210.4819
  0
LINE
  8
LAYER_2
 10
-11.0364
 20
210.4819
 11
-12.6197
 21
210.4819
  0
LINE
  8
LAYER_2
 10
-8.6658
 20
213.0652
 11
-8.6696
 21
214.8153
  0
LINE
  8
LAYER_2
 10
-7.8696
 20
210.4819
 11
-7.8696
 21
209.6483
  0
LINE
  8
LAYER_2
 10
-7.8696
 20
210.4819
 11
-7.8696
 21
213.0652
  0
LINE
  8
LAYER_2
 10
-12.6197
 20
210.4819
 11
-13.4531
 21
210.4819
  0
LINE
  8
LAYER_2
 10
-15.3007
 20
215.232
 11
-14.8697
 21
215.3347
  0
LINE
  8
LAYER_2
 10
-15.8698
 20
215.232
 11
-15.3007
 21
215.232
  0
LINE
  8
LAYER_2
 10
-14.0739
 20
213.0652
 11
-14.0701
 21
214.8153
  0
LINE
  8
LAYER_2
 10
-14.8697
 20
210.4819
 11
-14.8697
 21
209.6483
  0
LINE
  8
LAYER_2
 10
-14.2865
 20
210.4819
 11
-14.703
 21
210.4819
  0
LINE
  8
LAYER_2
 10
-14.8697
 20
210.4819
 11
-7.8696
 21
210.4819
  0
LINE
  8
LAYER_2
 10
-14.8697
 20
213.0652
 11
-7.8696
 21
213.0652
  0
LINE
  8
LAYER_2
 10
-7.8696
 20
210.4819
 11
-14.8697
 21
210.4819
  0
LINE
  8
LAYER_2
 10
-14.8697
 20
209.6483
 11
-7.8696
 21
209.6483
  0
LINE
  8
LAYER_2
 10
-0.1647
 20
213.4819
 11
-8.6665
 21
213.4819
  0
LINE
  8
LAYER_2
 10
-8.6637
 20
213.0652
 11
-0.1647
 21
213.0652
  0
LINE
  8
LAYER_2
 10
-8.3947
 20
207.8983
 11
-8.3947
 21
209.6483
  0
LINE
  8
LAYER_2
 10
-8.5197
 20
207.8983
 11
-8.5197
 21
209.6483
  0
LINE
  8
LAYER_2
 10
-14.3447
 20
207.8983
 11
-14.3447
 21
209.6483
  0
LINE
  8
LAYER_2
 10
-14.2196
 20
207.8983
 11
-14.2196
 21
209.6483
  0
LINE
  8
LAYER_2
 10
26.7051
 20
210.3985
 11
26.7051
 21
209.9818
  0
LINE
  8
LAYER_2
 10
26.7051
 20
209.9818
 11
25.8717
 21
209.9818
  0
LINE
  8
LAYER_2
 10
25.8717
 20
210.3985
 11
26.7051
 21
210.3985
  0
LINE
  8
LAYER_2
 10
16.872
 20
215.6068
 11
16.872
 21
213.0237
  0
LINE
  8
LAYER_2
 10
16.7886
 20
215.8151
 11
16.7886
 21
210.732
  0
LINE
  8
LAYER_2
 10
16.3718
 20
210.732
 11
16.3718
 21
215.8151
  0
LINE
  8
LAYER_2
 10
17.2051
 20
214.3151
 11
17.2051
 21
213.732
  0
LINE
  8
LAYER_2
 10
17.1218
 20
213.6486
 11
17.1218
 21
214.3151
  0
LINE
  8
LAYER_2
 10
16.9885
 20
213.0237
 11
16.9885
 21
215.6068
  0
ARC
  8
LAYER_2
 10
17.1219
 20
210.7319
 40
0.7501
 50
179.9923281
 51
269.992395
  0
LINE
  8
LAYER_2
 10
15.0385
 20
212.1288
 11
15.0385
 21
211.1484
  0
LINE
  8
LAYER_2
 10
16.9554
 20
212.3987
 11
16.9554
 21
211.5652
  0
LINE
  8
LAYER_2
 10
16.872
 20
211.4818
 11
16.872
 21
212.4821
  0
LINE
  8
LAYER_2
 10
14.9552
 20
211.2317
 11
14.9552
 21
212.1142
  0
LINE
  8
LAYER_2
 10
15.0385
 20
211.1484
 11
15.9553
 21
211.1484
  0
ARC
  8
LAYER_2
 10
15.0385
 20
211.2317
 40
0.0833
 50
180.017266
 51
269.982734
  0
LINE
  8
LAYER_2
 10
15.9553
 20
210.4819
 11
15.9553
 21
211.2317
  0
LINE
  8
LAYER_2
 10
16.3718
 20
210.732
 11
16.3718
 21
210.4819
  0
LINE
  8
LAYER_2
 10
16.3718
 20
210.4819
 11
15.9553
 21
210.4819
  0
ARC
  8
LAYER_2
 10
17.1219
 20
210.7318
 40
0.3333
 50
179.9741437
 51
269.9742927
  0
LINE
  8
LAYER_2
 10
15.9553
 20
211.2317
 11
16.3718
 21
211.2317
  0
LINE
  8
LAYER_2
 10
16.872
 20
211.4818
 11
16.9554
 21
211.5652
  0
LINE
  8
LAYER_2
 10
16.7886
 20
211.4818
 11
16.872
 21
211.4818
  0
LINE
  8
LAYER_2
 10
15.9553
 20
212.8151
 11
15.0385
 21
212.8151
  0
LINE
  8
LAYER_2
 10
15.0385
 20
213.3153
 11
15.0385
 21
212.8151
  0
LINE
  8
LAYER_2
 10
14.9552
 20
212.7317
 11
14.9552
 21
213.3153
  0
LINE
  8
LAYER_2
 10
15.0385
 20
212.8151
 11
15.0385
 21
212.1288
  0
LINE
  8
LAYER_2
 10
14.9552
 20
212.1142
 11
14.9552
 21
212.7317
  0
ARC
  8
LAYER_2
 10
15.0386
 20
212.7317
 40
0.0834
 50
90.04324382
 51
180.0254974
  0
LINE
  8
LAYER_2
 10
15.0385
 20
213.4819
 11
15.0385
 21
213.3153
  0
LINE
  8
LAYER_2
 10
14.9552
 20
213.3153
 11
14.9552
 21
213.4819
  0
LINE
  8
LAYER_2
 10
16.9554
 20
213.0237
 11
16.9554
 21
212.8985
  0
LINE
  8
LAYER_2
 10
16.872
 20
212.8151
 11
16.872
 21
213.0237
  0
LINE
  8
LAYER_2
 10
16.9554
 20
212.3987
 11
16.872
 21
212.4821
  0
LINE
  8
LAYER_2
 10
16.872
 20
212.4821
 11
16.7886
 21
212.4821
  0
LINE
  8
LAYER_2
 10
16.872
 20
212.8151
 11
16.9554
 21
212.8985
  0
LINE
  8
LAYER_2
 10
16.7886
 20
212.8151
 11
16.872
 21
212.8151
  0
LINE
  8
LAYER_2
 10
17.1218
 20
213.6486
 11
17.2051
 21
213.732
  0
LINE
  8
LAYER_2
 10
16.9885
 20
213.6486
 11
17.1218
 21
213.6486
  0
ARC
  8
LAYER_2
 10
16.872
 20
213.1071
 40
0.0834
 50
179.9927554
 51
270.0072446
  0
LINE
  8
LAYER_2
 10
16.872
 20
213.0237
 11
16.9885
 21
213.0237
  0
LINE
  8
LAYER_2
 10
17.1218
 20
214.3151
 11
17.1218
 21
214.9819
  0
LINE
  8
LAYER_2
 10
17.2051
 20
214.8985
 11
17.1218
 21
214.9819
  0
LINE
  8
LAYER_2
 10
17.2051
 20
214.8985
 11
17.2051
 21
214.3151
  0
LINE
  8
LAYER_2
 10
16.7886
 20
215.8151
 11
16.3718
 21
215.8151
  0
LINE
  8
LAYER_2
 10
17.1218
 20
214.9819
 11
16.9885
 21
214.9819
  0
ARC
  8
LAYER_2
 10
16.875
 20
215.5204
 40
0.0864
 50
91.95688303
 51
177.9055521
  0
LINE
  8
LAYER_2
 10
16.9885
 20
215.6068
 11
16.872
 21
215.6068
  0
LINE
  8
LAYER_2
 10
25.8717
 20
209.9818
 11
17.1218
 21
209.9818
  0
LINE
  8
LAYER_2
 10
17.1218
 20
210.3985
 11
25.8717
 21
210.3985
  0
ARC
  8
LAYER_2
 10
14.3717
 20
124.0136
 40
0.9999
 50
180.0077494
 51
270.0094402
  0
ARC
  8
LAYER_2
 10
14.3723
 20
124.0138
 40
1.0001
 50
269.9779743
 51
359.9819247
  0
ARC
  8
LAYER_2
 10
14.3717
 20
108.1803
 40
0.9999
 50
89.99005042
 51
179.9870289
  0
ARC
  8
LAYER_2
 10
14.3723
 20
108.1801
 40
1.0001
 50
0.02329611117
 51
90.02253592
  0
LINE
  8
LAYER_2
 10
14.7884
 20
113.6389
 11
15.9553
 21
113.6389
  0
LINE
  8
LAYER_2
 10
15.9553
 20
118.6384
 11
14.7884
 21
118.6384
  0
LINE
  8
LAYER_2
 10
13.3718
 20
221.7317
 11
15.372
 21
221.7317
  0
LINE
  8
LAYER_2
  6
AIGENLINE002
 10
81.0913
 20
127.4654
 11
81.0913
 21
104.3371
  0
LINE
  8
LAYER_2
  6
AIGENLINE002
 10
82.7581
 20
127.4654
 11
82.7581
 21
104.3371
  0
LINE
  8
LAYER_2
 10
13.3718
 20
221.3153
 11
15.372
 21
221.3153
  0
LINE
  8
LAYER_2
 10
15.9553
 20
218.4821
 11
14.7884
 21
218.4821
  0
LINE
  8
LAYER_2
 10
5.044
 20
112.4565
 11
13.4555
 21
112.4565
  0
LINE
  8
LAYER_2
 10
-5.4787
 20
112.4565
 11
-1.8049
 21
112.4565
  0
LINE
  8
LAYER_2
 10
-17.8925
 20
111.3755
 11
-23.2113
 21
111.3755
  0
CIRCLE
  8
LAYER_2
 10
9.2887
 20
121.7638
 40
0.6835
  0
LINE
  8
LAYER_2
 10
7.789
 20
124.0135
 11
12.6218
 21
124.0135
  0
LINE
  8
LAYER_2
 10
10.122
 20
122.6389
 11
10.122
 21
123.2638
  0
LINE
  8
LAYER_2
 10
13.4555
 20
120.8184
 11
13.4555
 21
123.1804
  0
CIRCLE
  8
LAYER_2
 10
10.122
 20
123.097
 40
0.4584
  0
CIRCLE
  8
LAYER_2
 10
11.7884
 20
122.4301
 40
1.0416
  0
ARC
  8
LAYER_2
 10
11.8198
 20
122.3999
 40
0.8645
 50
92.07899647
 51
177.9966506
  0
ARC
  8
LAYER_2
 10
11.7886
 20
122.4299
 40
0.8328
 50
179.9862577
 51
269.9862227
  0
ARC
  8
LAYER_2
 10
11.7886
 20
122.4303
 40
0.8332
 50
269.9847365
 51
359.9877572
  0
ARC
  8
LAYER_2
 10
11.7883
 20
122.4303
 40
0.8335
 50
359.989672
 51
89.98970692
  0
LINE
  8
LAYER_2
 10
11.6658
 20
122.8959
 11
11.3244
 21
122.5569
  0
LINE
  8
LAYER_2
 10
12.2528
 20
122.304
 11
12.1298
 21
122.7691
  0
CIRCLE
  8
LAYER_2
 10
11.7884
 20
122.4301
 40
0.7502
  0
LINE
  8
LAYER_2
 10
11.4477
 20
122.0911
 11
11.9114
 21
121.965
  0
LINE
  8
LAYER_2
 10
11.3244
 20
122.5569
 11
11.4477
 21
122.0911
  0
LINE
  8
LAYER_2
 10
13.4555
 20
120.2087
 11
13.4555
 21
119.7374
  0
LINE
  8
LAYER_2
 10
13.4555
 20
120.8184
 11
13.4555
 21
120.5828
  0
LINE
  8
LAYER_2
 10
13.4555
 20
120.2087
 11
13.4555
 21
120.5828
  0
LINE
  8
LAYER_2
 10
11.9114
 20
121.965
 11
12.2528
 21
122.304
  0
LINE
  8
LAYER_2
 10
12.1298
 20
122.7691
 11
11.6658
 21
122.8959
  0
ARC
  8
LAYER_2
 10
10.8677
 20
123.2637
 40
0.7457
 50
157.2724075
 51
179.9929754
  0
LINE
  8
LAYER_2
 10
13.3718
 20
124.0135
 11
12.6218
 21
124.0135
  0
ARC
  8
LAYER_2
 10
12.6221
 20
123.1801
 40
0.8334
 50
0.019739381
 51
90.02151027
  0
LINE
  8
LAYER_2
 10
-3.8782
 20
124.0135
 11
5.7884
 21
124.0135
  0
ARC
  8
LAYER_2
 10
-4.8781
 20
124.0136
 40
0.9999
 50
180.0073673
 51
270.0098223
  0
ARC
  8
LAYER_2
 10
-4.8779
 20
124.0134
 40
0.9997
 50
270.0012713
 51
0.004459735152
  0
ARC
  8
LAYER_2
 10
6.7884
 20
124.0137
 40
1
 50
180.0092845
 51
270.0136338
  0
ARC
  8
LAYER_2
 10
6.7889
 20
124.0138
 40
1.0001
 50
269.982167
 51
359.983459
  0
LINE
  8
LAYER_2
 10
13.4555
 20
111.3755
 11
13.4555
 21
109.0135
  0
LINE
  8
LAYER_2
 10
7.789
 20
108.1805
 11
12.6218
 21
108.1805
  0
CIRCLE
  8
LAYER_2
 10
9.2887
 20
110.4301
 40
0.6835
  0
CIRCLE
  8
LAYER_2
 10
11.7884
 20
109.7638
 40
1.0416
  0
LINE
  8
LAYER_2
 10
11.4477
 20
109.4249
 11
11.9114
 21
109.2987
  0
LINE
  8
LAYER_2
 10
12.1298
 20
110.1028
 11
11.6658
 21
110.2289
  0
CIRCLE
  8
LAYER_2
 10
11.7884
 20
109.7638
 40
0.7498
  0
ARC
  8
LAYER_2
 10
11.7886
 20
109.7641
 40
0.8328
 50
90.01660555
 51
180.0177919
  0
ARC
  8
LAYER_2
 10
11.8205
 20
109.7948
 40
0.8653
 50
182.050594
 51
267.873759
  0
ARC
  8
LAYER_2
 10
11.7882
 20
109.7637
 40
0.8336
 50
270.0109031
 51
0.009718022735
  0
ARC
  8
LAYER_2
 10
11.7886
 20
109.7637
 40
0.8332
 50
0.008193992921
 51
90.01243454
  0
LINE
  8
LAYER_2
 10
10.122
 20
108.9301
 11
10.122
 21
109.5558
  0
ARC
  8
LAYER_2
 10
10.1222
 20
109.0971
 40
0.4587
 50
90.02876297
 51
180.0212007
  0
ARC
  8
LAYER_2
 10
10.1219
 20
109.0971
 40
0.4584
 50
180.0201063
 51
270.017395
  0
ARC
  8
LAYER_2
 10
10.122
 20
109.0969
 40
0.4582
 50
269.9962137
 51
0.003786301735
  0
ARC
  8
LAYER_2
 10
10.1041
 20
109.0798
 40
0.4764
 50
2.0604521
 51
87.85208297
  0
ARC
  8
LAYER_2
 10
10.8642
 20
108.9295
 40
0.7422
 50
179.9537348
 51
202.7808824
  0
LINE
  8
LAYER_2
 10
11.6658
 20
110.2289
 11
11.3244
 21
109.8899
  0
LINE
  8
LAYER_2
 10
11.3244
 20
109.8899
 11
11.4477
 21
109.4249
  0
LINE
  8
LAYER_2
 10
13.3718
 20
108.1805
 11
12.6218
 21
108.1805
  0
ARC
  8
LAYER_2
 10
12.6222
 20
109.0138
 40
0.8333
 50
269.9756606
 51
359.9762119
  0
LINE
  8
LAYER_2
 10
12.2528
 20
109.6378
 11
12.1298
 21
110.1028
  0
LINE
  8
LAYER_2
 10
11.9114
 20
109.2987
 11
12.2528
 21
109.6378
  0
CIRCLE
  8
LAYER_2
 10
11.7884
 20
114.7634
 40
0.6833
  0
LINE
  8
LAYER_2
 10
13.4555
 20
112.4565
 11
13.4555
 21
111.9852
  0
LINE
  8
LAYER_2
 10
13.4555
 20
111.6111
 11
13.4555
 21
111.3755
  0
LINE
  8
LAYER_2
 10
13.4555
 20
111.9852
 11
13.4555
 21
111.6111
  0
CIRCLE
  8
LAYER_2
 10
11.7884
 20
117.4305
 40
0.6833
  0
CIRCLE
  8
LAYER_2
 10
10.122
 20
116.0973
 40
0.6832
  0
LINE
  8
LAYER_2
 10
10.122
 20
115.4138
 11
10.122
 21
116.7801
  0
LINE
  8
LAYER_2
 10
14.7054
 20
113.7223
 11
14.7054
 21
118.5557
  0
LINE
  8
LAYER_2
 10
14.7884
 20
118.6384
 11
14.7884
 21
113.6389
  0
LINE
  8
LAYER_2
 10
14.7054
 20
113.7223
 11
14.7884
 21
113.6389
  0
LINE
  8
LAYER_2
 10
14.7884
 20
118.6384
 11
14.7054
 21
118.5557
  0
LINE
  8
LAYER_2
 10
3.2053
 20
108.1805
 11
5.7884
 21
108.1805
  0
LINE
  8
LAYER_2
 10
-3.8782
 20
108.1805
 11
0.0386
 21
108.1805
  0
ARC
  8
LAYER_2
 10
-4.878
 20
108.1806
 40
0.9998
 50
359.9935131
 51
70.5094203
  0
ARC
  8
LAYER_2
 10
-4.8656
 20
114.2054
 40
0.5369
 50
200.9202514
 51
286.7139059
  0
ARC
  8
LAYER_2
 10
-4.878
 20
114.1805
 40
0.517
 50
288.8247559
 51
341.1752441
  0
ARC
  8
LAYER_2
 10
-4.878
 20
118.0135
 40
0.5167
 50
89.98509868
 51
161.1788403
  0
ARC
  8
LAYER_2
 10
-4.8781
 20
118.013
 40
0.5172
 50
18.86326032
 51
89.97280064
  0
ARC
  8
LAYER_2
 10
6.7884
 20
108.1802
 40
1
 50
89.98585671
 51
179.9854939
  0
ARC
  8
LAYER_2
 10
6.7889
 20
108.1801
 40
1.0001
 50
0.02176196092
 51
90.01834307
  0
LINE
  8
LAYER_2
 10
13.4555
 20
112.4565
 11
13.4555
 21
119.7374
  0
LINE
  8
LAYER_2
 10
-22.378
 20
124.0135
 11
-17.5448
 21
124.0135
  0
LINE
  8
LAYER_2
 10
-19.8782
 20
122.6389
 11
-19.8782
 21
123.1804
  0
LINE
  8
LAYER_2
 10
-23.2113
 20
123.1804
 11
-23.2113
 21
120.8184
  0
CIRCLE
  8
LAYER_2
 10
-19.8782
 20
123.097
 40
0.458
  0
CIRCLE
  8
LAYER_2
 10
-21.5446
 20
122.4301
 40
1.0418
  0
CIRCLE
  8
LAYER_2
 10
-21.5446
 20
122.4301
 40
0.8335
  0
LINE
  8
LAYER_2
 10
-21.6672
 20
122.8959
 11
-22.009
 21
122.5569
  0
LINE
  8
LAYER_2
 10
-21.0802
 20
122.304
 11
-21.2035
 21
122.7691
  0
CIRCLE
  8
LAYER_2
 10
-21.5446
 20
122.4301
 40
0.7503
  0
LINE
  8
LAYER_2
 10
-23.2113
 20
119.7374
 11
-23.2113
 21
120.2087
  0
LINE
  8
LAYER_2
 10
-23.2113
 20
120.5828
 11
-23.2113
 21
120.8184
  0
LINE
  8
LAYER_2
 10
-23.2113
 20
120.5828
 11
-23.2113
 21
120.2087
  0
LINE
  8
LAYER_2
 10
-21.886
 20
122.0911
 11
-21.4219
 21
121.965
  0
LINE
  8
LAYER_2
 10
-22.009
 20
122.5569
 11
-21.886
 21
122.0911
  0
LINE
  8
LAYER_2
 10
-21.4219
 20
121.965
 11
-21.0802
 21
122.304
  0
CIRCLE
  8
LAYER_2
 10
-19.0448
 20
121.7638
 40
0.6833
  0
LINE
  8
LAYER_2
 10
-22.378
 20
124.0135
 11
-23.2113
 21
124.0135
  0
ARC
  8
LAYER_2
 10
-22.3781
 20
123.1803
 40
0.8332
 50
89.99308752
 51
179.9931593
  0
LINE
  8
LAYER_2
 10
-21.2035
 20
122.7691
 11
-21.6672
 21
122.8959
  0
ARC
  8
LAYER_2
 10
-20.7115
 20
123.1808
 40
0.8333
 50
359.9696103
 51
26.11985842
  0
ARC
  8
LAYER_2
 10
-16.5449
 20
124.0136
 40
0.9999
 50
180.0068021
 51
270.0103875
  0
ARC
  8
LAYER_2
 10
-16.5445
 20
124.0136
 40
0.9999
 50
269.9903767
 51
359.9924337
  0
LINE
  8
LAYER_2
 10
-25.2115
 20
124.0135
 11
-25.378
 21
124.0135
  0
LINE
  8
LAYER_2
 10
-25.7114
 20
124.0135
 11
-25.378
 21
124.0135
  0
ARC
  8
LAYER_2
 10
-24.2114
 20
124.0138
 40
1.0001
 50
180.0156734
 51
270.0187007
  0
ARC
  8
LAYER_2
 10
-24.2111
 20
124.0135
 40
0.9998
 50
269.9986925
 51
0.00130752423
  0
LINE
  8
LAYER_2
 10
-23.2113
 20
109.0135
 11
-23.2113
 21
111.3755
  0
LINE
  8
LAYER_2
 10
-22.378
 20
108.1805
 11
-18.2111
 21
108.1805
  0
CIRCLE
  8
LAYER_2
 10
-21.5446
 20
109.7638
 40
1.0418
  0
CIRCLE
  8
LAYER_2
 10
-21.5446
 20
109.7638
 40
0.8332
  0
CIRCLE
  8
LAYER_2
 10
-21.5446
 20
109.7638
 40
0.75
  0
LINE
  8
LAYER_2
 10
-22.378
 20
108.1805
 11
-23.2113
 21
108.1805
  0
ARC
  8
LAYER_2
 10
-22.3781
 20
109.0137
 40
0.8332
 50
180.0108898
 51
270.0097412
  0
LINE
  8
LAYER_2
 10
-21.6672
 20
110.2289
 11
-22.009
 21
109.8899
  0
LINE
  8
LAYER_2
 10
-21.2035
 20
110.1028
 11
-21.6672
 21
110.2289
  0
LINE
  8
LAYER_2
 10
-21.886
 20
109.4249
 11
-21.4219
 21
109.2987
  0
LINE
  8
LAYER_2
 10
-22.009
 20
109.8899
 11
-21.886
 21
109.4249
  0
LINE
  8
LAYER_2
 10
-21.0802
 20
109.6378
 11
-21.2035
 21
110.1028
  0
LINE
  8
LAYER_2
 10
-21.4219
 20
109.2987
 11
-21.0802
 21
109.6378
  0
LINE
  8
LAYER_2
 10
-19.8782
 20
109.0135
 11
-19.8782
 21
109.5558
  0
ARC
  8
LAYER_2
 10
-19.8605
 20
109.0802
 40
0.4759
 50
92.13534471
 51
177.989646
  0
ARC
  8
LAYER_2
 10
-19.8781
 20
109.0967
 40
0.458
 50
179.9789957
 51
269.9834784
  0
ARC
  8
LAYER_2
 10
-19.878
 20
109.097
 40
0.4583
 50
269.9810592
 51
359.9814395
  0
ARC
  8
LAYER_2
 10
-19.8784
 20
109.0971
 40
0.4587
 50
359.9772562
 51
89.97278022
  0
ARC
  8
LAYER_2
 10
-20.7056
 20
109.0124
 40
0.8274
 50
333.78573
 51
0.07669344412
  0
CIRCLE
  8
LAYER_2
 10
-19.0448
 20
110.4301
 40
0.6833
  0
CIRCLE
  8
LAYER_2
 10
-21.5446
 20
114.7634
 40
0.6835
  0
LINE
  8
LAYER_2
 10
-23.2113
 20
111.9852
 11
-23.2113
 21
112.4565
  0
LINE
  8
LAYER_2
 10
-23.2113
 20
111.3755
 11
-23.2113
 21
111.6111
  0
LINE
  8
LAYER_2
 10
-23.2113
 20
111.6111
 11
-23.2113
 21
111.9852
  0
CIRCLE
  8
LAYER_2
 10
-21.5446
 20
117.4305
 40
0.6835
  0
CIRCLE
  8
LAYER_2
 10
-19.8782
 20
116.0973
 40
0.683
  0
LINE
  8
LAYER_2
 10
-19.8782
 20
115.4138
 11
-19.8782
 21
116.7801
  0
LINE
  8
LAYER_2
 10
-25.2115
 20
108.1805
 11
-25.378
 21
108.1805
  0
LINE
  8
LAYER_2
 10
-25.378
 20
108.1805
 11
-25.7114
 21
108.1805
  0
ARC
  8
LAYER_2
 10
-24.2114
 20
108.1801
 40
1.0001
 50
89.98078931
 51
179.9791056
  0
ARC
  8
LAYER_2
 10
-24.2111
 20
108.1804
 40
0.9998
 50
0.003914866555
 51
90.00181613
  0
LINE
  8
LAYER_2
 10
-25.7114
 20
124.0135
 11
-25.7114
 21
108.1805
  0
LINE
  8
LAYER_2
 10
-23.2113
 20
119.7374
 11
-23.2113
 21
112.4565
  0
LINE
  8
LAYER_2
 10
-15.5446
 20
124.0135
 11
-5.878
 21
124.0135
  0
LINE
  8
LAYER_2
 10
-13.5447
 20
108.1805
 11
-9.2115
 21
108.1805
  0
LINE
  8
LAYER_2
 10
3.2704
 20
120.8184
 11
13.4555
 21
120.8184
  0
LINE
  8
LAYER_2
 10
-9.7293
 20
120.8184
 11
-0.0265
 21
120.8184
  0
LINE
  8
LAYER_2
 10
-23.2113
 20
120.8184
 11
-13.027
 21
120.8184
  0
LINE
  8
LAYER_2
 10
-0.0272
 20
111.3755
 11
-4.8634
 21
111.3755
  0
LINE
  8
LAYER_2
 10
13.4555
 20
111.3755
 11
3.2708
 21
111.3755
  0
LINE
  8
LAYER_2
 10
-14.8057
 20
119.7374
 11
-23.2113
 21
119.7374
  0
LINE
  8
LAYER_2
 10
-1.8056
 20
119.7374
 11
-7.9509
 21
119.7374
  0
LINE
  8
LAYER_2
 10
13.4555
 20
119.7374
 11
5.0491
 21
119.7374
  0
LINE
  8
LAYER_2
 10
-23.2113
 20
112.4565
 11
-17.2775
 21
112.4565
  0
LINE
  8
LAYER_2
 10
10.122
 20
221.3153
 11
10.122
 21
221.7317
  0
LINE
  8
LAYER_2
 10
13.3718
 20
221.7317
 11
13.3718
 21
221.3153
  0
LINE
  8
LAYER_2
 10
7.7887
 20
221.3153
 11
12.6218
 21
221.3153
  0
LINE
  8
LAYER_2
 10
7.7887
 20
220.8986
 11
12.6218
 21
220.8986
  0
LINE
  8
LAYER_2
 10
7.7887
 20
220.8986
 11
7.7887
 21
221.3153
  0
LINE
  8
LAYER_2
 10
13.3718
 20
221.3153
 11
10.872
 21
221.3153
  0
LINE
  8
LAYER_2
 10
13.4552
 20
220.8986
 11
12.6218
 21
220.8986
  0
LINE
  8
LAYER_2
 10
13.4552
 20
220.4272
 11
13.4552
 21
220.8008
  0
LINE
  8
LAYER_2
 10
13.4552
 20
220.4272
 11
13.4552
 21
220.2317
  0
LINE
  8
LAYER_2
 10
13.4552
 20
220.8986
 11
13.4552
 21
220.8008
  0
LINE
  8
LAYER_2
 10
13.4552
 20
221.3153
 11
13.4552
 21
220.8986
  0
LINE
  8
LAYER_2
 10
10.872
 20
221.7317
 11
13.3718
 21
221.7317
  0
LINE
  8
LAYER_2
 10
10.122
 20
221.7317
 11
10.872
 21
221.7317
  0
LINE
  8
LAYER_2
 10
14.7884
 20
218.4821
 11
14.7054
 21
218.3987
  0
LINE
  8
LAYER_2
 10
12.6218
 20
220.8986
 11
12.6218
 21
221.3153
  0
LINE
  8
LAYER_2
 10
10.872
 20
221.7317
 11
10.872
 21
221.3153
  0
LINE
  8
LAYER_2
 10
-3.8782
 20
221.3153
 11
5.7884
 21
221.3153
  0
LINE
  8
LAYER_2
 10
-3.8782
 20
220.8986
 11
5.7884
 21
220.8986
  0
LINE
  8
LAYER_2
 10
-3.8782
 20
221.3153
 11
-5.878
 21
221.3153
  0
LINE
  8
LAYER_2
 10
-3.8782
 20
220.8986
 11
-5.878
 21
220.8986
  0
LINE
  8
LAYER_2
 10
-5.878
 20
221.3153
 11
-5.878
 21
220.8986
  0
LINE
  8
LAYER_2
 10
-3.8782
 20
220.8986
 11
-3.8782
 21
221.3153
  0
LINE
  8
LAYER_2
 10
5.7884
 20
221.3153
 11
5.7884
 21
220.8986
  0
LINE
  8
LAYER_2
 10
7.7887
 20
221.3153
 11
5.7884
 21
221.3153
  0
LINE
  8
LAYER_2
 10
7.7887
 20
220.8986
 11
5.7884
 21
220.8986
  0
LINE
  8
LAYER_2
 10
-19.8782
 20
221.7317
 11
-19.8782
 21
221.3153
  0
LINE
  8
LAYER_2
 10
-23.2113
 20
221.3153
 11
-23.2113
 21
221.7317
  0
LINE
  8
LAYER_2
 10
-22.378
 20
221.3153
 11
-17.5448
 21
221.3153
  0
LINE
  8
LAYER_2
 10
-22.378
 20
220.8986
 11
-17.5448
 21
220.8986
  0
LINE
  8
LAYER_2
 10
-20.7116
 20
221.3153
 11
-23.2113
 21
221.3153
  0
LINE
  8
LAYER_2
 10
-22.378
 20
220.8986
 11
-23.2113
 21
220.8986
  0
LINE
  8
LAYER_2
 10
-23.2113
 20
220.8008
 11
-23.2113
 21
220.4272
  0
LINE
  8
LAYER_2
 10
-23.2113
 20
220.2317
 11
-23.2113
 21
220.4272
  0
LINE
  8
LAYER_2
 10
-23.2113
 20
220.8008
 11
-23.2113
 21
220.8986
  0
LINE
  8
LAYER_2
 10
-23.2113
 20
220.8986
 11
-23.2113
 21
221.3153
  0
LINE
  8
LAYER_2
 10
-15.5446
 20
221.3153
 11
-17.5448
 21
221.3153
  0
LINE
  8
LAYER_2
 10
-15.5446
 20
220.8986
 11
-17.5448
 21
220.8986
  0
LINE
  8
LAYER_2
 10
-17.5448
 20
221.3153
 11
-17.5448
 21
220.8986
  0
LINE
  8
LAYER_2
 10
-15.5446
 20
220.8986
 11
-15.5446
 21
221.3153
  0
LINE
  8
LAYER_2
 10
-23.2113
 20
221.7317
 11
-20.7116
 21
221.7317
  0
LINE
  8
LAYER_2
 10
-20.7116
 20
221.7317
 11
-19.8782
 21
221.7317
  0
LINE
  8
LAYER_2
 10
-22.378
 20
221.3153
 11
-22.378
 21
220.8986
  0
ARC
  8
LAYER_2
 10
-20.6282
 20
215.6483
 40
0.0834
 50
89.99672129
 51
180.0032787
  0
ARC
  8
LAYER_2
 10
-20.6282
 20
215.4816
 40
0.0834
 50
180.0064878
 51
269.9935123
  0
LINE
  8
LAYER_2
 10
-20.7116
 20
215.4816
 11
-20.7116
 21
215.6483
  0
ARC
  8
LAYER_2
 10
-22.4614
 20
215.6483
 40
0.0834
 50
359.9666374
 51
89.9646214
  0
ARC
  8
LAYER_2
 10
-22.4614
 20
215.4816
 40
0.0834
 50
270.0451538
 51
0.02358739102
  0
LINE
  8
LAYER_2
 10
-22.378
 20
215.6483
 11
-22.378
 21
215.4816
  0
LINE
  8
LAYER_2
 10
-21.5446
 20
215.3982
 11
-22.6281
 21
215.3982
  0
LINE
  8
LAYER_2
 10
-20.4615
 20
215.3982
 11
-21.5446
 21
215.3982
  0
LINE
  8
LAYER_2
 10
-22.5447
 20
215.7317
 11
-20.5448
 21
215.7317
  0
LINE
  8
LAYER_2
 10
-20.7116
 20
215.6483
 11
-22.378
 21
215.6483
  0
LINE
  8
LAYER_2
 10
-22.378
 20
215.4816
 11
-20.7116
 21
215.4816
  0
LINE
  8
LAYER_2
 10
-22.5447
 20
220.2317
 11
-22.5447
 21
215.7317
  0
LINE
  8
LAYER_2
 10
-20.5448
 20
215.7317
 11
-20.5448
 21
220.2317
  0
LINE
  8
LAYER_2
 10
-22.7114
 20
220.8986
 11
-22.7114
 21
220.2317
  0
LINE
  8
LAYER_2
 10
-20.3781
 20
220.2317
 11
-20.3781
 21
220.8986
  0
LINE
  8
LAYER_2
 10
-20.7116
 20
221.3153
 11
-20.7116
 21
221.7317
  0
LINE
  8
LAYER_2
 10
-25.2115
 20
221.7317
 11
-25.2115
 21
221.3153
  0
ARC
  8
LAYER_2
 10
-25.3781
 20
220.9818
 40
0.7499
 50
89.99558643
 51
179.9891326
  0
ARC
  8
LAYER_2
 10
-25.378
 20
220.9819
 40
0.3334
 50
90.00725743
 51
179.9927425
  0
LINE
  8
LAYER_2
 10
-25.2115
 20
221.3153
 11
-25.378
 21
221.3153
  0
LINE
  8
LAYER_2
 10
-25.378
 20
221.7317
 11
-25.2115
 21
221.7317
  0
LINE
  8
LAYER_2
 10
-25.2115
 20
221.3153
 11
-23.2113
 21
221.3153
  0
LINE
  8
LAYER_2
 10
-25.2115
 20
221.7317
 11
-23.2113
 21
221.7317
  0
LINE
  8
LAYER_2
 10
13.4552
 20
220.2317
 11
-23.2113
 21
220.2317
  0
LINE
  8
LAYER_2
 10
-15.5446
 20
221.3153
 11
-5.878
 21
221.3153
  0
LINE
  8
LAYER_2
 10
-15.5446
 20
220.8986
 11
-5.878
 21
220.8986
  0
LINE
  8
LAYER_2
 10
4.192
 20
218.5655
 11
-0.9315
 21
218.5655
  0
LINE
  8
LAYER_2
 10
-1.1196
 20
220.2317
 11
4.3801
 21
220.2317
  0
LINE
  8
LAYER_2
 10
-0.9315
 20
218.5655
 11
-0.9315
 21
220.2317
  0
ARC
  8
LAYER_2
 10
1.6366
 20
219.5695
 40
2.7574
 50
201.35246
 51
231.9366799
  0
ARC
  8
LAYER_2
 10
1.6366
 20
219.5695
 40
2.7574
 50
201.35246
 51
231.9366799
  0
LINE
  8
LAYER_2
 10
-1.088
 20
219.0652
 11
-1.1186
 21
219.3985
  0
LINE
  8
LAYER_2
 10
-1.1186
 20
219.3985
 11
-1.1196
 21
220.2317
  0
LINE
  8
LAYER_2
 10
-1.088
 20
215.9102
 11
-1.088
 21
219.0652
  0
LINE
  8
LAYER_2
 10
4.3801
 20
220.2317
 11
4.3801
 21
216.3985
  0
LINE
  8
LAYER_2
 10
4.192
 20
220.2317
 11
4.192
 21
218.5655
  0
LINE
  8
LAYER_2
 10
3.3238
 20
217.3985
 11
-0.0634
 21
217.3985
  0
ARC
  8
LAYER_2
 10
1.6234
 20
219.5699
 40
2.758
 50
308.0627614
 51
338.6417777
  0
ARC
  8
LAYER_2
 10
1.6234
 20
219.5699
 40
2.758
 50
308.0627614
 51
338.6417777
  0
LINE
  8
LAYER_2
 10
4.3801
 20
216.3985
 11
6.3803
 21
216.3985
  0
LINE
  8
LAYER_2
 10
-9.7445
 20
111.3706
 11
-9.3183
 21
109.9065
  0
ARC
  8
LAYER_2
 10
-9.2086
 20
109.6795
 40
4.6642
 50
0.01246892355
 51
25.29476775
  0
LINE
  8
LAYER_2
 10
-13.0118
 20
111.3699
 11
-13.4376
 21
109.9065
  0
LINE
  8
LAYER_2
 10
-9.2115
 20
104.014
 11
-4.5448
 21
104.014
  0
LINE
  8
LAYER_2
 10
-9.2115
 20
109.6805
 11
-9.3183
 21
109.9065
  0
LINE
  8
LAYER_2
 10
-9.2115
 20
109.6805
 11
-9.2115
 21
104.014
  0
LINE
  8
LAYER_2
 10
-4.5448
 20
109.6805
 11
-4.5448
 21
104.014
  0
LINE
  8
LAYER_2
 10
-4.9916
 20
111.6724
 11
-5.0981
 21
111.8991
  0
ARC
  8
LAYER_2
 10
-13.5472
 20
109.681
 40
4.6639
 50
154.724369
 51
180.0067349
  0
LINE
  8
LAYER_2
 10
-13.5447
 20
104.014
 11
-18.2111
 21
104.014
  0
LINE
  8
LAYER_2
 10
-18.2111
 20
109.6805
 11
-18.2111
 21
104.014
  0
LINE
  8
LAYER_2
 10
-13.5447
 20
109.6805
 11
-13.5447
 21
104.014
  0
LINE
  8
LAYER_2
 10
-17.7646
 20
111.6724
 11
-17.6578
 21
111.8991
  0
LINE
  8
LAYER_2
 10
-13.5447
 20
109.6805
 11
-13.4376
 21
109.9065
  0
LINE
  8
LAYER_2
 10
-6.8699
 20
219.8987
 11
-7.4386
 21
219.8987
  0
ARC
  8
LAYER_2
 10
-8.7918
 20
216.4139
 40
2.6091
 50
129.5471331
 51
171.1502462
  0
ARC
  8
LAYER_2
 10
-13.945
 20
216.4161
 40
2.6059
 50
8.81218846
 51
50.46355947
  0
ARC
  8
LAYER_2
 10
-6.886
 20
216.6228
 40
3.3221
 50
99.57452126
 51
118.1470912
  0
ARC
  8
LAYER_2
 10
-9.6439
 20
217.0653
 40
1.7821
 50
337.6475932
 51
48.0758544
  0
ARC
  8
LAYER_2
 10
-6.8699
 20
217.5649
 40
2.3338
 50
51.79091083
 51
89.99893111
  0
LINE
  8
LAYER_2
 10
-15.8698
 20
219.8987
 11
-15.3007
 21
219.8987
  0
ARC
  8
LAYER_2
 10
-15.8525
 20
216.6268
 40
3.3181
 50
61.83781434
 51
80.42674801
  0
LINE
  8
LAYER_2
 10
-16.0359
 20
114.2755
 11
-17.6578
 21
111.8991
  0
LINE
  8
LAYER_2
 10
-6.5416
 20
114.0137
 11
-5.0981
 21
111.8991
  0
LINE
  8
LAYER_2
 10
-1.088
 20
215.9102
 11
-7.8696
 21
215.9102
  0
LINE
  8
LAYER_2
 10
-8.4532
 20
219.3985
 11
-1.1186
 21
219.3985
  0
ARC
  8
LAYER_2
 10
93.2515
 20
104.1869
 40
0.173
 50
272.037845
 51
357.721055
  0
LINE
  8
LAYER_2
 10
93.4244
 20
104.18
 11
93.4244
 21
108.1805
  0
ARC
  8
LAYER_2
 10
88.9307
 20
104.1866
 40
0.1727
 50
182.1960807
 51
268.0450193
  0
LINE
  8
LAYER_2
 10
88.7581
 20
104.18
 11
88.7581
 21
108.1805
  0
LINE
  8
LAYER_2
 10
88.9248
 20
104.014
 11
93.2577
 21
104.014
  0
LINE
  8
LAYER_2
 10
83.0916
 20
119.5968
 11
83.1746
 21
119.5968
  0
LINE
  8
LAYER_2
 10
81.0913
 20
119.0718
 11
83.0916
 21
119.0718
  0
LINE
  8
LAYER_2
 10
81.0913
 20
118.9471
 11
83.0916
 21
118.9471
  0
LINE
  8
LAYER_2
 10
83.0916
 20
112.5971
 11
83.1746
 21
112.5971
  0
LINE
  8
LAYER_2
 10
81.0913
 20
113.1221
 11
83.0916
 21
113.1221
  0
LINE
  8
LAYER_2
 10
81.0913
 20
113.2468
 11
83.0916
 21
113.2468
  0
LINE
  8
LAYER_2
 10
83.0916
 20
119.5968
 11
83.0916
 21
112.5971
  0
LINE
  8
LAYER_2
 10
83.5911
 20
108.1805
 11
83.5911
 21
124.0135
  0
LINE
  8
LAYER_2
 10
83.1746
 20
108.1805
 11
83.1746
 21
124.0135
  0
LINE
  8
LAYER_2
 10
94.9248
 20
108.1805
 11
94.9248
 21
124.0135
  0
LINE
  8
LAYER_2
 10
94.1744
 20
108.1805
 11
94.9248
 21
108.1805
  0
LINE
  8
LAYER_2
 10
94.9248
 20
124.0135
 11
94.1744
 21
124.0135
  0
LINE
  8
LAYER_2
 10
15.0389
 20
122.222
 11
15.0389
 21
120.5552
  0
LINE
  8
LAYER_2
 10
14.9552
 20
120.6386
 11
14.9552
 21
122.1386
  0
LINE
  8
LAYER_2
 10
15.0389
 20
120.5552
 11
15.9553
 21
120.5552
  0
ARC
  8
LAYER_2
 10
15.042
 20
120.642
 40
0.0868
 50
182.2310392
 51
267.9746905
  0
LINE
  8
LAYER_2
 10
15.9553
 20
122.222
 11
15.0389
 21
122.222
  0
ARC
  8
LAYER_2
 10
15.0418
 20
122.1354
 40
0.0867
 50
91.93678875
 51
177.8574815
  0
LINE
  8
LAYER_2
 10
15.6218
 20
124.0135
 11
15.9553
 21
124.0135
  0
LINE
  8
LAYER_2
 10
15.6218
 20
124.0135
 11
15.3724
 21
124.0135
  0
LINE
  8
LAYER_2
 10
15.9553
 20
123.2638
 11
15.9553
 21
124.0135
  0
LINE
  8
LAYER_2
 10
16.3718
 20
124.0135
 11
16.3718
 21
123.2638
  0
LINE
  8
LAYER_2
 10
16.3718
 20
123.2638
 11
15.9553
 21
123.2638
  0
LINE
  8
LAYER_2
 10
15.9553
 20
124.0135
 11
16.3718
 21
124.0135
  0
LINE
  8
LAYER_2
 10
15.0389
 20
111.722
 11
15.0389
 21
110.0553
  0
LINE
  8
LAYER_2
 10
14.9552
 20
111.6387
 11
14.9552
 21
110.1387
  0
LINE
  8
LAYER_2
 10
15.9553
 20
108.1805
 11
15.6218
 21
108.1805
  0
LINE
  8
LAYER_2
 10
15.6218
 20
108.1805
 11
15.3724
 21
108.1805
  0
LINE
  8
LAYER_2
 10
15.9553
 20
108.1805
 11
15.9553
 21
108.9301
  0
LINE
  8
LAYER_2
 10
16.3718
 20
108.2218
 11
16.3718
 21
108.3713
  0
LINE
  8
LAYER_2
 10
16.3718
 20
108.2218
 11
16.3718
 21
108.1805
  0
LINE
  8
LAYER_2
 10
16.3718
 20
108.1805
 11
15.9553
 21
108.1805
  0
LINE
  8
LAYER_2
 10
16.3718
 20
108.9301
 11
16.3718
 21
108.3713
  0
LINE
  8
LAYER_2
 10
15.9553
 20
108.9301
 11
16.3718
 21
108.9301
  0
LINE
  8
LAYER_2
 10
15.0389
 20
110.0553
 11
15.9553
 21
110.0553
  0
ARC
  8
LAYER_2
 10
15.0419
 20
110.142
 40
0.0868
 50
182.1975729
 51
268.0081568
  0
LINE
  8
LAYER_2
 10
15.9553
 20
111.722
 11
15.0389
 21
111.722
  0
ARC
  8
LAYER_2
 10
15.0418
 20
111.6354
 40
0.0867
 50
91.91130321
 51
177.8142265
  0
LINE
  8
LAYER_2
 10
15.9553
 20
108.9301
 11
15.9553
 21
123.2638
  0
LINE
  8
LAYER_2
 10
16.3718
 20
108.9301
 11
16.3718
 21
123.2638
  0
ARC
  8
LAYER_2
 10
15.6219
 20
220.9818
 40
0.7499
 50
0.009922872792
 51
90.00535803
  0
LINE
  8
LAYER_2
 10
15.372
 20
221.3153
 11
15.372
 21
221.7317
  0
LINE
  8
LAYER_2
 10
16.3718
 20
220.9819
 11
16.3718
 21
216.0755
  0
LINE
  8
LAYER_2
 10
16.3718
 20
216.6486
 11
16.7886
 21
216.6486
  0
ARC
  8
LAYER_2
 10
15.6218
 20
220.9818
 40
0.3335
 50
0.01372403967
 51
90.00345867
  0
LINE
  8
LAYER_2
 10
15.6218
 20
221.3153
 11
15.372
 21
221.3153
  0
LINE
  8
LAYER_2
 10
15.372
 20
221.7317
 11
15.6218
 21
221.7317
  0
ARC
  8
LAYER_2
 10
-13.7518
 20
217.5496
 40
1.8269
 50
107.0195363
 51
197.0074375
  0
ARC
  8
LAYER_2
 10
-13.7525
 20
217.5489
 40
1.826
 50
196.995624
 51
232.6475011
  0
ARC
  8
LAYER_2
 10
-8.9605
 20
217.5544
 40
1.8145
 50
306.5882402
 51
36.58252708
  0
ARC
  8
LAYER_2
 10
-8.9608
 20
217.5537
 40
1.8152
 50
36.59268077
 51
73.76081538
  0
ARC
  8
LAYER_2
 10
-6.4754
 20
215.0407
 40
2.2075
 50
157.4489757
 51
186.3143823
  0
ARC
  8
LAYER_2
 10
-7.3336
 20
215.3954
 40
1.279
 50
129.6662043
 51
157.3796305
  0
LINE
  8
LAYER_2
 10
-8.0629
 20
216.4111
 11
-8.15
 21
216.3799
  0
ARC
  8
LAYER_2
 10
-8.0653
 20
216.2718
 40
0.1393
 50
21.19759331
 51
89.02975615
  0
ARC
  8
LAYER_2
 10
-8.9246
 20
215.9544
 40
1.0554
 50
1.486589249
 51
20.39432012
  0
ARC
  8
LAYER_2
 10
-16.2563
 20
215.0418
 40
2.1998
 50
353.633638
 51
22.60300392
  0
ARC
  8
LAYER_2
 10
-15.404
 20
215.3971
 40
1.2764
 50
22.58600817
 51
50.35311468
  0
ARC
  8
LAYER_2
 10
-14.6763
 20
216.2746
 40
0.1365
 50
90.0433101
 51
159.603041
  0
LINE
  8
LAYER_2
 10
-14.5896
 20
216.3799
 11
-14.6764
 21
216.4111
  0
ARC
  8
LAYER_2
 10
-13.8039
 20
215.9532
 40
1.0662
 50
159.7527811
 51
178.4636791
  0
LINE
  8
LAYER_2
 10
-10.4528
 20
220.2317
 11
-8.4532
 21
220.2317
  0
LINE
  8
LAYER_2
 10
-8.4532
 20
220.2317
 11
-8.4532
 21
217.8566
  0
ARC
  8
LAYER_2
 10
-9.3421
 20
217.7572
 40
0.8945
 50
320.6648643
 51
6.382041034
  0
ARC
  8
LAYER_2
 10
-8.7588
 20
217.2802
 40
0.141
 50
269.5685846
 51
320.3392147
  0
LINE
  8
LAYER_2
 10
-9.0516
 20
217.1683
 11
-8.7599
 21
217.1392
  0
ARC
  8
LAYER_2
 10
-8.6118
 20
219.485
 40
2.3581
 50
235.2364357
 51
259.2497978
  0
ARC
  8
LAYER_2
 10
-8.0896
 20
220.2393
 40
3.2759
 50
226.0007725
 51
235.2618814
  0
ARC
  8
LAYER_2
 10
-10.1515
 20
218.0992
 40
0.3039
 50
172.4703758
 51
225.4029249
  0
LINE
  8
LAYER_2
 10
-10.4528
 20
218.139
 11
-10.4528
 21
220.2317
  0
LINE
  8
LAYER_2
 10
-12.2862
 20
220.2317
 11
-14.2865
 21
220.2317
  0
LINE
  8
LAYER_2
 10
-14.2865
 20
220.2317
 11
-14.2865
 21
217.8566
  0
ARC
  8
LAYER_2
 10
-13.3972
 20
217.7576
 40
0.8948
 50
173.646841
 51
219.3536849
  0
ARC
  8
LAYER_2
 10
-13.981
 20
217.2793
 40
0.1401
 50
219.4886196
 51
270.4833331
  0
LINE
  8
LAYER_2
 10
-13.9798
 20
217.1392
 11
-13.6877
 21
217.1683
  0
ARC
  8
LAYER_2
 10
-14.1295
 20
219.4923
 40
2.3656
 50
280.7644864
 51
304.6954146
  0
ARC
  8
LAYER_2
 10
-14.622
 20
220.2075
 40
3.2335
 50
304.6609479
 51
314.0338368
  0
ARC
  8
LAYER_2
 10
-12.5876
 20
218.099
 40
0.3036
 50
314.5971573
 51
7.569563692
  0
LINE
  8
LAYER_2
 10
-12.2862
 20
218.139
 11
-12.2862
 21
220.2317
  0
LINE
  8
LAYER_2
 10
-6.832
 20
114.0137
 11
-2.9245
 21
114.0137
  0
LINE
  8
LAYER_2
 10
-6.832
 20
118.1802
 11
-2.9245
 21
118.1802
  0
LINE
  8
LAYER_2
 10
-22.6277
 20
123.0557
 11
-21.5446
 21
123.6813
  0
LINE
  8
LAYER_2
 10
-20.4615
 20
123.0557
 11
-20.4615
 21
121.8051
  0
LINE
  8
LAYER_2
 10
-22.6277
 20
121.8051
 11
-21.5446
 21
121.1795
  0
LINE
  8
LAYER_2
 10
-22.6277
 20
123.0557
 11
-22.6277
 21
121.8051
  0
LINE
  8
LAYER_2
 10
-21.5446
 20
123.6813
 11
-20.4615
 21
123.0557
  0
LINE
  8
LAYER_2
 10
-21.5446
 20
121.1795
 11
-20.4615
 21
121.8051
  0
LINE
  8
LAYER_2
 10
10.7053
 20
123.0557
 11
11.7884
 21
123.6813
  0
LINE
  8
LAYER_2
 10
11.7884
 20
123.6813
 11
12.8719
 21
123.0557
  0
LINE
  8
LAYER_2
 10
12.8719
 20
123.0557
 11
12.8719
 21
121.8051
  0
LINE
  8
LAYER_2
 10
12.8719
 20
121.8051
 11
11.7884
 21
121.1795
  0
LINE
  8
LAYER_2
 10
11.7884
 20
121.1795
 11
10.7053
 21
121.8051
  0
LINE
  8
LAYER_2
 10
10.7053
 20
121.8051
 11
10.7053
 21
123.0557
  0
LINE
  8
LAYER_2
 10
-21.5446
 20
111.0144
 11
-20.4615
 21
110.3895
  0
LINE
  8
LAYER_2
 10
-20.4615
 20
110.3895
 11
-20.4615
 21
109.1382
  0
LINE
  8
LAYER_2
 10
-20.4615
 20
109.1382
 11
-21.5446
 21
108.5126
  0
LINE
  8
LAYER_2
 10
-21.5446
 20
108.5126
 11
-22.6277
 21
109.1382
  0
LINE
  8
LAYER_2
 10
-22.6277
 20
109.1382
 11
-22.6277
 21
110.3895
  0
LINE
  8
LAYER_2
 10
-22.6277
 20
110.3895
 11
-21.5446
 21
111.0144
  0
LINE
  8
LAYER_2
 10
10.7053
 20
110.3895
 11
10.7053
 21
109.1382
  0
LINE
  8
LAYER_2
 10
10.7053
 20
109.1382
 11
11.7884
 21
108.5126
  0
LINE
  8
LAYER_2
 10
11.7884
 20
108.5126
 11
12.8719
 21
109.1382
  0
LINE
  8
LAYER_2
 10
12.8719
 20
109.1382
 11
12.8719
 21
110.3895
  0
LINE
  8
LAYER_2
 10
12.8719
 20
110.3895
 11
11.7884
 21
111.0144
  0
LINE
  8
LAYER_2
 10
11.7884
 20
111.0144
 11
10.7053
 21
110.3895
  0
LINE
  8
LAYER_2
 10
-22.6281
 20
214.6911
 11
-22.6281
 21
214.5232
  0
LINE
  8
LAYER_2
 10
-20.4615
 20
214.6911
 11
-20.4615
 21
214.5232
  0
ARC
  8
LAYER_2
 10
-22.0864
 20
215.4703
 40
0.949
 50
235.1888412
 51
304.8111588
  0
ARC
  8
LAYER_2
 10
-21.0031
 20
215.4686
 40
0.9475
 50
235.1414442
 51
304.8585558
  0
LINE
  8
LAYER_2
 10
-36.1279
 20
124.4846
 11
-36.1279
 21
142.8092
  0
LINE
  8
LAYER_2
 10
-11.3781
 20
126.0909
 11
-11.3781
 21
134.4597
  0
LINE
  8
LAYER_2
 10
1.622
 20
125.9682
 11
1.622
 21
134.5486
  0
LINE
  8
LAYER_2
 10
26.7051
 20
124.5278
 11
26.7051
 21
142.8168
  0
INSERT
  8
LAYER_2
  2
AIGNBL0201000D
 10
0
 20
0
 30
0
  0
INSERT
  8
LAYER_2
  2
AIGNBL0201000E
 10
0
 20
0
 30
0
  0
LINE
  8
LAYER_2
 10
-18.7362
 20
104.014
 11
-60.1505
 21
104.014
  0
LINE
  8
LAYER_2
 10
-52.3808
 20
108.1805
 11
-36.5796
 21
108.1805
  0
INSERT
  8
LAYER_2
  2
AIGNBL0201000F
 10
0
 20
0
 30
0
  0
LINE
  8
LAYER_2
  6
AIGENLINE001
 10
29.5338
 20
116.0973
 11
-38.8362
 21
116.0973
  0
LINE
  8
LAYER_2
  6
AIGENLINE001
 10
-11.3781
 20
125.3908
 11
-11.3781
 21
106.7287
  0
LINE
  8
LAYER_2
  6
AIGENLINE001
 10
1.622
 20
125.2681
 11
1.622
 21
103.6605
  0
LINE
  8
LAYER_2
 10
-44.8364
 20
116.0973
 11
-39.3613
 21
116.0973
  0
INSERT
  8
LAYER_2
  2
AIGNBL02010010
 10
0
 20
0
 30
0
  0
LINE
  8
LAYER_2
 10
-60.1505
 20
124.0135
 11
-36.5796
 21
124.0135
  0
INSERT
  8
LAYER_2
  2
AIGNBL02010011
 10
0
 20
0
 30
0
  0
LINE
  8
LAYER_2
  6
AIGENLINE001
 10
-15.8781
 20
106.1844
 11
-15.8781
 21
102.5801
  0
LINE
  8
LAYER_2
  6
AIGENLINE001
 10
-6.8781
 20
106.1844
 11
-6.8781
 21
102.5801
  0
LINE
  8
LAYER_2
 10
-6.8781
 20
81.1482
 11
-6.8781
 21
102.0551
  0
LINE
  8
LAYER_2
 10
-15.8781
 20
81.1482
 11
-15.8781
 21
102.0551
  0
INSERT
  8
LAYER_2
  2
AIGNBL02010012
 10
0
 20
0
 30
0
  0
LINE
  8
LAYER_2
 10
-8.6282
 20
90.3363
 11
-8.6282
 21
103.7825
  0
LINE
  8
LAYER_2
 10
-5.128
 20
90.3363
 11
-5.128
 21
103.7825
  0
INSERT
  8
LAYER_2
  2
AIGNBL02010013
 10
0
 20
0
 30
0
  0
LINE
  8
LAYER_2
 10
-36.1279
 20
210.9236
 11
-36.1279
 21
228.9946
  0
LINE
  8
LAYER_2
  6
AIGENLINE001
 10
-11.3781
 20
198.9674
 11
-11.3781
 21
223.175
  0
LINE
  8
LAYER_2
  6
AIGENLINE001
 10
1.6216
 20
178.1555
 11
1.6216
 21
223.175
  0
LINE
  8
LAYER_2
 10
-26.128
 20
221.7427
 11
-26.128
 21
228.9946
  0
LINE
  8
LAYER_2
 10
-16.3783
 20
202.3611
 11
-16.3783
 21
206.9483
  0
LINE
  8
LAYER_2
 10
-6.3783
 20
202.3611
 11
-6.3783
 21
206.9483
  0
LINE
  8
LAYER_2
 10
17.2051
 20
215.4235
 11
17.2051
 21
228.9946
  0
LINE
  8
LAYER_2
 10
26.7051
 20
210.9236
 11
26.7051
 21
228.9946
  0
INSERT
  8
LAYER_2
  2
AIGNBL02010014
 10
0
 20
0
 30
0
  0
LINE
  8
LAYER_2
 10
-22.451
 20
222.065
 11
-43.7908
 21
222.065
  0
LINE
  8
LAYER_2
 10
-36.8945
 20
210.3985
 11
-43.7908
 21
210.3985
  0
LINE
  8
LAYER_2
  6
AIGENLINE002
 10
29.4632
 20
207.8983
 11
-24.7427
 21
207.8983
  0
INSERT
  8
LAYER_2
  2
AIGNBL02010015
 10
0
 20
0
 30
0
  0
INSERT
  8
LAYER_2
  2
AIGNBL02010016
 10
0
 20
0
 30
0
  0
LINE
  8
LAYER_2
  6
AIGENLINE002
 10
29.4632
 20
209.5652
 11
-24.7427
 21
209.5652
  0
LINE
  8
LAYER_2
 10
-37.003
 20
209.9818
 11
-43.7908
 21
209.9818
  0
INSERT
  8
LAYER_2
  2
AIGNBL02010017
 10
0
 20
0
 30
0
  0
LINE
  8
LAYER_2
 10
95.2583
 20
109.0018
 11
95.2583
 21
89.2896
  0
LINE
  8
LAYER_2
  6
AIGENLINE001
 10
91.0911
 20
109.0424
 11
91.0911
 21
102.9894
  0
LINE
  8
LAYER_2
 10
91.0911
 20
96.0268
 11
91.0911
 21
102.2894
  0
LINE
  8
LAYER_2
 10
82.7581
 20
89.2896
 11
82.7581
 21
103.6578
  0
INSERT
  8
LAYER_2
  2
AIGNBL02010018
 10
0
 20
0
 30
0
  0
ARC
  8
LAYER_2
 10
89.008
 20
109.0137
 40
0.8332
 50
269.9841567
 51
359.988337
  0
LINE
  8
LAYER_2
 10
83.1746
 20
108.1805
 11
89.0078
 21
108.1805
  0
LINE
  8
LAYER_2
 10
89.0078
 20
108.1805
 11
94.1744
 21
108.1805
  0
ARC
  8
LAYER_2
 10
89.008
 20
123.1803
 40
0.8332
 50
0.007614240704
 51
90.01301429
  0
LINE
  8
LAYER_2
 10
89.8412
 20
109.0135
 11
89.8412
 21
123.1804
  0
LINE
  8
LAYER_2
 10
83.1746
 20
124.0135
 11
89.0078
 21
124.0135
  0
LINE
  8
LAYER_2
 10
89.0078
 20
124.0135
 11
94.1744
 21
124.0135
  0
CIRCLE
  8
LAYER_2
 10
87.5082
 20
116.0973
 40
1.2499
  0
ARC
  8
LAYER_2
 10
87.533
 20
116.0718
 40
0.6922
 50
92.05136503
 51
177.8884729
  0
ARC
  8
LAYER_2
 10
87.5082
 20
116.0973
 40
0.667
 50
179.9990393
 51
270.0009607
  0
ARC
  8
LAYER_2
 10
87.4831
 20
116.1217
 40
0.6919
 50
272.082266
 51
357.9778961
  0
ARC
  8
LAYER_2
 10
87.5082
 20
116.0973
 40
0.6663
 50
0.0009616244123
 51
89.99903836
  0
ARC
  8
LAYER_2
 10
89.1743
 20
116.0972
 40
2.5004
 50
285.4462724
 51
15.44101272
  0
ARC
  8
LAYER_2
 10
89.1742
 20
116.0965
 40
2.5006
 50
15.45520802
 51
74.55464762
  0
ARC
  8
LAYER_2
 10
92.0078
 20
113.264
 40
0.5002
 50
270.0020847
 51
0.009368729603
  0
LINE
  8
LAYER_2
 10
89.8412
 20
112.7638
 11
92.0078
 21
112.7638
  0
ARC
  8
LAYER_2
 10
91.9899
 20
118.912
 40
0.5184
 50
2.059183068
 51
88.02105507
  0
LINE
  8
LAYER_2
 10
92.508
 20
113.2641
 11
92.508
 21
118.9306
  0
LINE
  8
LAYER_2
 10
89.8412
 20
119.4301
 11
92.0078
 21
119.4301
  0
CIRCLE
  8
LAYER_2
 10
86.5081
 20
110.847
 40
0.5002
  0
CIRCLE
  8
LAYER_2
 10
85.0911
 20
121.3469
 40
0.5001
  0
INSERT
  8
LAYER_2
  2
AIGNBL02010019
 10
0
 20
0
 30
0
  0
INSERT
  8
LAYER_2
  2
AIGNBL0201001A
 10
0
 20
0
 30
0
  0
LINE
  8
LAYER_2
 10
95.1749
 20
121.9305
 11
95.1749
 21
122.9303
  0
LINE
  8
LAYER_2
 10
95.2583
 20
122.0139
 11
95.2583
 21
122.8469
  0
LINE
  8
LAYER_2
 10
95.2583
 20
122.0139
 11
95.1749
 21
121.9305
  0
LINE
  8
LAYER_2
 10
95.1749
 20
122.9303
 11
95.2583
 21
122.8469
  0
LINE
  8
LAYER_2
 10
95.1749
 20
121.9305
 11
94.9248
 21
121.9305
  0
LINE
  8
LAYER_2
 10
95.1749
 20
122.9303
 11
94.9248
 21
122.9303
  0
LINE
  8
LAYER_2
 10
95.1749
 20
109.2636
 11
95.1749
 21
110.2641
  0
LINE
  8
LAYER_2
 10
95.2583
 20
109.347
 11
95.2583
 21
110.18
  0
LINE
  8
LAYER_2
 10
95.2583
 20
109.347
 11
95.1749
 21
109.2636
  0
LINE
  8
LAYER_2
 10
95.1749
 20
110.2641
 11
95.2583
 21
110.18
  0
LINE
  8
LAYER_2
 10
95.1749
 20
109.2636
 11
94.9248
 21
109.2636
  0
LINE
  8
LAYER_2
 10
95.1749
 20
110.2641
 11
94.9248
 21
110.2641
  0
LINE
  8
LAYER_2
 10
12.8719
 20
214.6911
 11
12.8719
 21
215.3982
  0
LINE
  8
LAYER_2
 10
11.7884
 20
214.6911
 11
11.7884
 21
215.3982
  0
LINE
  8
LAYER_2
 10
10.7049
 20
214.6911
 11
10.7049
 21
215.3982
  0
LINE
  8
LAYER_2
 10
12.8302
 20
214.4818
 11
12.8719
 21
214.5232
  0
ARC
  8
LAYER_2
 10
12.5384
 20
213.5653
 40
0.0834
 50
269.9700716
 51
359.9611872
  0
LINE
  8
LAYER_2
 10
12.6218
 20
213.5652
 11
12.6218
 21
214.4818
  0
ARC
  8
LAYER_2
 10
11.0384
 20
213.5652
 40
0.0833
 50
180.019729
 51
269.980271
  0
LINE
  8
LAYER_2
 10
11.9851
 20
213.4819
 11
11.0384
 21
213.4819
  0
LINE
  8
LAYER_2
 10
10.9551
 20
213.5652
 11
12.0069
 21
213.5652
  0
LINE
  8
LAYER_2
 10
10.9551
 20
214.4818
 11
10.9551
 21
213.5652
  0
LINE
  8
LAYER_2
 10
10.7049
 20
214.5232
 11
10.7466
 21
214.4818
  0
LINE
  8
LAYER_2
 10
12.5384
 20
213.4819
 11
11.9851
 21
213.4819
  0
LINE
  8
LAYER_2
 10
10.7466
 20
214.4818
 11
12.8302
 21
214.4818
  0
LINE
  8
LAYER_2
 10
12.0069
 20
213.5652
 11
12.6218
 21
213.5652
  0
ARC
  8
LAYER_2
 10
12.7052
 20
215.6483
 40
0.0834
 50
89.97514529
 51
180.0248547
  0
ARC
  8
LAYER_2
 10
12.7052
 20
215.4816
 40
0.0834
 50
179.9849264
 51
270.0150736
  0
LINE
  8
LAYER_2
 10
12.6218
 20
215.4816
 11
12.6218
 21
215.6483
  0
ARC
  8
LAYER_2
 10
10.8717
 20
215.6483
 40
0.0834
 50
359.9942391
 51
90.00576086
  0
ARC
  8
LAYER_2
 10
10.8717
 20
215.4816
 40
0.0834
 50
270.0040072
 51
359.9959928
  0
LINE
  8
LAYER_2
 10
10.9551
 20
215.6483
 11
10.9551
 21
215.4816
  0
LINE
  8
LAYER_2
 10
11.7884
 20
215.3982
 11
10.7049
 21
215.3982
  0
LINE
  8
LAYER_2
 10
12.8719
 20
215.3982
 11
11.7884
 21
215.3982
  0
LINE
  8
LAYER_2
 10
10.7883
 20
215.7317
 11
12.7885
 21
215.7317
  0
LINE
  8
LAYER_2
 10
12.6218
 20
215.6483
 11
10.9551
 21
215.6483
  0
LINE
  8
LAYER_2
 10
10.9551
 20
215.4816
 11
12.6218
 21
215.4816
  0
LINE
  8
LAYER_2
 10
10.7883
 20
220.2317
 11
10.7883
 21
215.7317
  0
LINE
  8
LAYER_2
 10
12.7885
 20
215.7317
 11
12.7885
 21
220.2317
  0
LINE
  8
LAYER_2
 10
10.6219
 20
220.8986
 11
10.6219
 21
220.2317
  0
LINE
  8
LAYER_2
 10
12.955
 20
220.2317
 11
12.955
 21
220.8986
  0
LINE
  8
LAYER_2
 10
10.7049
 20
214.6911
 11
10.7049
 21
214.5232
  0
LINE
  8
LAYER_2
 10
12.8719
 20
214.6911
 11
12.8719
 21
214.5232
  0
ARC
  8
LAYER_2
 10
11.2466
 20
215.4703
 40
0.949
 50
235.1888384
 51
304.8111617
  0
ARC
  8
LAYER_2
 10
12.3302
 20
215.4692
 40
0.9481
 50
235.1533838
 51
304.8466162
  0
LINE
  8
LAYER_2
 10
-6.3783
 20
203.0611
 11
-25.1258
 21
203.0611
  0
ARC
  8
LAYER_2
 10
-6.8654
 20
107.53
 40
0.4782
 50
89.99858121
 51
179.9894359
  0
LINE
  8
LAYER_2
 10
-7.3436
 20
107.5301
 11
-7.3394
 21
107.4673
  0
LINE
  8
LAYER_2
 10
-6.8309
 20
108.0027
 11
-6.852
 21
108.002
  0
ARC
  8
LAYER_2
 10
-6.8308
 20
107.6061
 40
0.3966
 50
12.80643476
 51
90.00774971
  0
ARC
  8
LAYER_2
 10
-6.8491
 20
107.624
 40
0.2588
 50
8.503489649
 51
90.01801895
  0
LINE
  8
LAYER_2
 10
-16.1358
 20
107.9882
 11
-16.1358
 21
107.5541
  0
LINE
  8
LAYER_2
 10
-15.6204
 20
107.5541
 11
-15.6204
 21
107.9882
  0
LINE
  8
LAYER_2
 10
-15.4711
 20
107.9882
 11
-15.4711
 21
106.9306
  0
LINE
  8
LAYER_2
 10
-16.2851
 20
106.9306
 11
-16.2851
 21
107.9882
  0
LINE
  8
LAYER_2
 10
-16.1358
 20
106.9306
 11
-16.2851
 21
106.9306
  0
LINE
  8
LAYER_2
 10
-16.1358
 20
107.5541
 11
-15.6204
 21
107.5541
  0
LINE
  8
LAYER_2
 10
-15.6204
 20
107.4322
 11
-16.1358
 21
107.4322
  0
LINE
  8
LAYER_2
 10
-16.1358
 20
107.4322
 11
-16.1358
 21
106.9306
  0
LINE
  8
LAYER_2
 10
-15.4711
 20
106.9306
 11
-15.6204
 21
106.9306
  0
LINE
  8
LAYER_2
 10
-15.6204
 20
106.9306
 11
-15.6204
 21
107.4322
  0
ARC
  8
LAYER_2
 10
-6.87
 20
107.3415
 40
0.3063
 50
271.3084524
 51
352.9637062
  0
ARC
  8
LAYER_2
 10
-6.8434
 20
107.3485
 40
0.4338
 50
269.2700278
 51
349.4271328
  0
LINE
  8
LAYER_2
 10
-16.2851
 20
107.9882
 11
-16.1358
 21
107.9882
  0
LINE
  8
LAYER_2
 10
-15.6204
 20
107.9882
 11
-15.4711
 21
107.9882
  0
LINE
  8
LAYER_2
 10
-6.5932
 20
107.6623
 11
-6.4441
 21
107.694
  0
LINE
  8
LAYER_2
 10
-6.566
 20
107.304
 11
-6.4169
 21
107.2689
  0
ARC
  8
LAYER_2
 10
-6.8494
 20
107.4104
 40
0.4933
 50
173.3706365
 51
263.4490647
  0
LINE
  8
LAYER_2
 10
-6.9057
 20
106.9203
 11
-6.8489
 21
106.9168
  0
ARC
  8
LAYER_2
 10
-6.8592
 20
107.5635
 40
0.3193
 50
89.9948195
 51
172.869253
  0
ARC
  8
LAYER_2
 10
-6.8422
 20
107.3736
 40
0.3389
 50
202.7146465
 51
266.4779087
  0
ARC
  8
LAYER_2
 10
-6.6494
 20
107.4534
 40
0.5475
 50
164.132672
 51
202.6319348
  0
INSERT
  8
LAYER_2
  2
AIGNBL0201001B
 10
0
 20
0
 30
0
  0
INSERT
  8
LAYER_2
  2
AIGNBL02010031
 10
0
 20
0
 30
0
  0
LINE
  8
LAYER_3
 10
126.9566
 20
57.1559
 11
293.4567
 21
57.1559
  0
LINE
  8
LAYER_3
 10
126.9566
 20
75.5544
 11
290.1597
 21
75.5544
  0
LINE
  8
LAYER_3
 10
126.9566
 20
89.1284
 11
290.1597
 21
89.1284
  0
LINE
  8
LAYER_3
 10
213.4567
 20
37.1557
 11
293.4567
 21
37.1557
  0
LINE
  8
LAYER_3
 10
126.9566
 20
44.6564
 11
213.4567
 21
44.6564
  0
LINE
  8
LAYER_3
 10
126.9566
 20
30.6562
 11
213.4567
 21
30.6562
  0
LINE
  8
LAYER_3
 10
138.4563
 20
30.6562
 11
138.4563
 21
44.6564
  0
LINE
  8
LAYER_3
 10
213.4567
 20
17.1562
 11
213.4567
 21
57.1559
  0
LINE
  8
LAYER_3
 10
126.9566
 20
17.1562
 11
126.9566
 21
57.1559
  0
LINE
  8
LAYER_3
 10
194.4563
 20
30.6562
 11
194.4563
 21
57.1559
  0
LINE
  8
LAYER_3
 10
175.4566
 20
30.6562
 11
175.4566
 21
57.1559
  0
LINE
  8
LAYER_3
 10
293.4567
 20
17.1562
 11
-83.0433
 21
17.1562
  0
LINE
  8
LAYER_3
 10
-83.0433
 20
17.1562
 11
-83.0433
 21
280.1562
  0
LINE
  8
LAYER_3
 10
-83.0433
 20
280.1562
 11
293.4567
 21
280.1562
  0
LINE
  8
LAYER_3
 10
293.4567
 20
280.1562
 11
293.4567
 21
17.1562
  0
TEXT
  8
LAYER_3
 10
153.4949
 20
49.1839
 11
153.4949
 21
49.1839
 40
4.4979
 41
0.5
 72
1
  1
セラトレーディング株式会社
  0
TEXT
  8
LAYER_3
 10
127.9281
 20
40.658
 11
127.9281
 21
40.658
 40
3.0923
 41
0.5
  1
製図
  0
TEXT
  8
LAYER_3
 10
127.9281
 20
26.4587
 11
127.9281
 21
26.4587
 40
3.0923
 41
0.5
  1
備考
  0
TEXT
  8
LAYER_3
 10
139.5463
 20
40.658
 11
139.5463
 21
40.658
 40
3.0923
 41
0.5
  1
検図
  0
TEXT
  8
LAYER_3
 10
176.4998
 20
40.658
 11
176.4998
 21
40.658
 40
3.0923
 41
0.5
  1
日付
  0
TEXT
  8
LAYER_3
 10
169.5094
 20
63.9148
 11
169.5094
 21
63.9148
 40
3.9357
 41
0.5
  1
（2）湯水を逆に配管しないでください。
  0
TEXT
  8
LAYER_3
 10
169.5094
 20
69.912
 11
169.5094
 21
69.912
 40
3.9357
 41
0.5
  1
（1）水圧は湯水ほぼ同圧、且つ湯圧が水圧より高くならないように設定してください。
  0
TEXT
  8
LAYER_3
 10
169.5094
 20
77.6173
 11
169.5094
 21
77.6173
 40
3.9357
 41
0.5
  1
※安全のため給湯温度は60℃以下でのご使用をおすすめします。
  0
TEXT
  8
LAYER_3
 10
169.5094
 20
83.6145
 11
169.5094
 21
83.6145
 40
3.9357
 41
0.5
  1
65℃
  0
LINE
  8
LAYER_3
 10
126.9566
 20
102.7024
 11
290.1597
 21
102.7024
  0
TEXT
  8
LAYER_3
 10
169.5094
 20
91.1913
 11
169.5094
 21
91.1913
 40
3.9357
 41
0.5
  1
※寒冷地仕様ではありません、凍結が予想される場合は凍結予防をしてください。
  0
TEXT
  8
LAYER_3
 10
169.5094
 20
97.1886
 11
169.5094
 21
97.1886
 40
3.9357
 41
0.5
  1
1～40℃
  0
TEXT
  8
LAYER_3
 10
129.4953
 20
69.912
 11
129.4953
 21
69.912
 40
3.9357
 41
0.5
  1
特記事項
  0
TEXT
  8
LAYER_3
 10
129.4953
 20
83.6145
 11
129.4953
 21
83.6145
 40
3.9357
 41
0.5
  1
最高給湯温度
  0
TEXT
  8
LAYER_3
 10
129.4953
 20
97.1886
 11
129.4953
 21
97.1886
 40
3.9357
 41
0.5
  1
使用環境温度
  0
LINE
  8
LAYER_3
 10
145.6397
 20
124.0389
 11
290.1597
 21
124.0389
  0
TEXT
  8
LAYER_3
 10
147.4139
 20
118.5251
 11
147.4139
 21
118.5251
 40
3.9357
 41
0.5
  1
最高水圧
  0
LINE
  8
LAYER_3
 10
126.9566
 20
110.4649
 11
290.1597
 21
110.4649
  0
TEXT
  8
LAYER_3
 10
169.5094
 20
104.8105
 11
169.5094
 21
104.8105
 40
3.9357
 41
0.5
  1
水道水
  0
TEXT
  8
LAYER_3
 10
129.4953
 20
104.8105
 11
129.4953
 21
104.8105
 40
3.9357
 41
0.5
  1
使用可能水質
  0
LINE
  8
LAYER_3
 10
126.9566
 20
131.8014
 11
290.1597
 21
131.8014
  0
TEXT
  8
LAYER_3
 10
169.5094
 20
126.147
 11
169.5094
 21
126.147
 40
3.9357
 41
0.5
  1
0.1MPa（流動圧）
  0
TEXT
  8
LAYER_3
 10
147.4139
 20
126.147
 11
147.4139
 21
126.147
 40
3.9357
 41
0.5
  1
最低必要水圧
  0
LINE
  8
LAYER_3
 10
290.1597
 20
139.5639
 11
126.9566
 21
139.5639
  0
LINE
  8
LAYER_3
 10
126.9566
 20
139.5639
 11
126.9566
 21
61.9804
  0
LINE
  8
LAYER_3
 10
126.9566
 20
61.9804
 11
290.1597
 21
61.9804
  0
LINE
  8
LAYER_3
 10
290.1597
 20
61.9804
 11
290.1597
 21
139.5639
  0
LINE
  8
LAYER_3
 10
166.9707
 20
139.5639
 11
166.9707
 21
61.9804
  0
LINE
  8
LAYER_3
 10
145.6397
 20
131.8014
 11
145.6397
 21
110.4649
  0
TEXT
  8
LAYER_3
 10
169.5094
 20
133.9095
 11
169.5094
 21
133.9095
 40
3.9357
 41
0.5
  1
一般住宅用（屋内用）
  0
TEXT
  8
LAYER_3
 10
129.4953
 20
133.9095
 11
129.4953
 21
133.9095
 40
3.9357
 41
0.5
  1
用途
  0
TEXT
  8
LAYER_3
 10
129.4953
 20
126.147
 11
129.4953
 21
126.147
 40
3.9357
 41
0.5
  1
給水圧力
  0
TEXT
  8
LAYER_3
 10
253.4564
 20
20.3547
 11
253.4564
 21
20.3547
 40
3.9357
 41
0.5
 72
1
  1
VL100A11R
  0
TEXT
  8
LAYER_3
 10
195.5498
 20
40.658
 11
195.5498
 21
40.658
 40
3.0923
 41
0.5
  1
尺度
  0
TEXT
  8
LAYER_3
 10
195.5498
 20
53.0652
 11
195.5498
 21
53.0652
 40
3.0923
 41
0.5
  1
単位
  0
TEXT
  8
LAYER_3
 10
203.2744
 20
48.0691
 11
203.2744
 21
48.0691
 40
3.6546
 41
0.5
 72
1
  1
mm
  0
TEXT
  8
LAYER_3
 10
214.5116
 20
53.0652
 11
214.5116
 21
53.0652
 40
3.0923
 41
0.5
  1
名称
  0
TEXT
  8
LAYER_3
 10
214.5116
 20
32.9265
 11
214.5116
 21
32.9265
 40
3.0923
 41
0.5
  1
品番
  0
LINE
  8
LAYER_3
 10
213.4567
 20
27.156
 11
293.4567
 21
27.156
  0
TEXT
  8
LAYER_3
 10
214.5116
 20
22.9268
 11
214.5116
 21
22.9268
 40
3.0923
 41
0.5
  1
図番
  0
INSERT
  8
LAYER_3
  2
AIGNBL03010002
 10
0
 20
0
 30
0
  0
LINE
  8
LAYER_3
 10
-83.0433
 20
148.6576
 11
-104.7936
 21
148.6576
  0
LINE
  8
LAYER_3
 10
105.2067
 20
297.1763
 11
105.2067
 21
280.1562
  0
LINE
  8
LAYER_3
 10
105.2067
 20
17.1562
 11
105.2067
 21
0.176
  0
LINE
  8
LAYER_3
 10
315.2069
 20
148.6576
 11
293.4567
 21
148.6576
  0
TEXT
  8
LAYER_3
 10
134.4938
 20
21.9546
 11
134.4938
 21
21.9546
 40
3.9357
 41
0.5
  1
（社）日本水道協会認証品
  0
TEXT
  8
LAYER_3
 10
293.4567
 20
12.8082
 11
293.4567
 21
12.8082
 40
3.3734
 41
0.5
 72
2
  1
A3
  0
TEXT
  8
LAYER_3
 10
132.6465
 20
34.8502
 11
132.6465
 21
34.8502
 40
3.6546
 41
0.5
 72
1
  1
恋塚
  0
TEXT
  8
LAYER_3
 10
151.2204
 20
34.8502
 11
151.2204
 21
34.8502
 40
3.6546
 41
0.5
 72
1
  1
井田
  0
TEXT
  8
LAYER_3
 10
253.4564
 20
30.3551
 11
253.4564
 21
30.3551
 40
3.9357
 41
0.5
 72
1
  1
図中の表参照
  0
TEXT
  8
LAYER_3
 10
203.8663
 20
34.4651
 11
203.8663
 21
34.4651
 40
3.6546
 41
0.5
 72
1
  1
1 ： 6
  0
TEXT
  8
LAYER_3
 10
219.0853
 20
45.4728
 11
219.0853
 21
45.4728
 40
3.9357
 41
0.5
  1
ボラ 湯水混合水栓（左ハンドル）
  0
LINE
  8
LAYER_3
 10
237.2282
 20
273.1563
 11
293.4567
 21
273.1563
  0
LINE
  8
LAYER_3
 10
237.2282
 20
266.1564
 11
293.4567
 21
266.1564
  0
LINE
  8
LAYER_3
 10
237.2282
 20
259.1564
 11
293.4567
 21
259.1564
  0
LINE
  8
LAYER_3
 10
237.2282
 20
245.1568
 11
293.4567
 21
245.1568
  0
TEXT
  8
LAYER_3
 10
246.6513
 20
275.3071
 11
246.6513
 21
275.3071
 40
3.3734
 41
0.5
 72
1
  1
品番
  0
TEXT
  8
LAYER_3
 10
259.7812
 20
268.3071
 11
259.7812
 21
268.3071
 40
3.3734
 41
0.5
 72
1
  1
1
  0
TEXT
  8
LAYER_3
 10
259.7812
 20
261.3072
 11
259.7812
 21
261.3072
 40
3.3734
 41
0.5
 72
1
  1
1
  0
TEXT
  8
LAYER_3
 10
259.7812
 20
247.3072
 11
259.7812
 21
247.3072
 40
3.3734
 41
0.5
 72
1
  1
1
  0
TEXT
  8
LAYER_3
 10
259.7812
 20
240.3075
 11
259.7812
 21
240.3075
 40
3.3734
 41
0.5
 72
1
  1
1
  0
TEXT
  8
LAYER_3
 10
246.6513
 20
268.3071
 11
246.6513
 21
268.3071
 40
3.3734
 41
0.5
 72
1
  1
VL100A
  0
TEXT
  8
LAYER_3
 10
246.6513
 20
261.3072
 11
246.6513
 21
261.3072
 40
3.3734
 41
0.5
 72
1
  1
VL028
  0
TEXT
  8
LAYER_3
 10
278.2077
 20
275.3071
 11
278.2077
 21
275.3071
 40
3.3734
 41
0.5
 72
1
  1
名称
  0
TEXT
  8
LAYER_3
 10
279.3682
 20
261.307
 11
279.3682
 21
261.307
 40
3.3734
 41
0.5
 72
1
  1
シングルレバーハンドル
  0
LINE
  8
LAYER_3
 10
237.2282
 20
252.1565
 11
293.4567
 21
252.1565
  0
TEXT
  8
LAYER_3
 10
259.7812
 20
254.3073
 11
259.7812
 21
254.3073
 40
3.3734
 41
0.5
 72
1
  1
1
  0
TEXT
  8
LAYER_3
 10
246.6513
 20
254.3073
 11
246.6513
 21
254.3073
 40
3.3734
 41
0.5
 72
1
  1
VL3001
  0
TEXT
  8
LAYER_3
 10
278.2073
 20
254.3071
 11
278.2073
 21
254.3071
 40
3.3734
 41
0.5
 72
1
  1
台座
  0
TEXT
  8
LAYER_3
 10
246.6513
 20
247.3072
 11
246.6513
 21
247.3072
 40
3.3734
 41
0.5
 72
1
  1
VL001R
  0
TEXT
  8
LAYER_3
 10
278.2077
 20
247.3072
 11
278.2077
 21
247.3072
 40
3.3734
 41
0.5
 72
1
  1
台座
  0
LINE
  8
LAYER_3
 10
237.2282
 20
238.1567
 11
293.4567
 21
238.1567
  0
TEXT
  8
LAYER_3
 10
246.6513
 20
240.3075
 11
246.6513
 21
240.3075
 40
3.3734
 41
0.5
 72
1
  1
VL010R
  0
TEXT
  8
LAYER_3
 10
238.5343
 20
232.7489
 11
238.5343
 21
232.7489
 40
3.3734
 41
0.5
  1
注：色番号はカタログを参照ください
  0
TEXT
  8
LAYER_3
 10
279.2825
 20
240.3075
 11
279.2825
 21
240.3075
 40
3.3734
 41
0.5
 72
1
  1
スパウト
  0
LINE
  8
LAYER_3
 10
263.0727
 20
280.1562
 11
263.0727
 21
238.1567
  0
LINE
  8
LAYER_3
 10
256.4198
 20
280.1562
 11
256.4198
 21
238.1567
  0
LINE
  8
LAYER_3
 10
237.2282
 20
280.1562
 11
237.2282
 21
238.1567
  0
TEXT
  8
LAYER_3
 10
259.7812
 20
275.3071
 11
259.7812
 21
275.3071
 40
3.3734
 41
0.5
 72
1
  1
数
  0
TEXT
  8
LAYER_3
 10
169.5094
 20
118.5251
 11
169.5094
 21
118.5251
 40
3.9357
 41
0.5
  1
0.5MPa（静水圧）
  0
TEXT
  8
LAYER_3
 10
169.5094
 20
112.4448
 11
169.5094
 21
112.4448
 40
3.9357
 41
0.5
  1
※快適にお使いいただくためには、0.2～0.3MPa程度の圧力をおすすめします。
  0
TEXT
  8
LAYER_3
 10
177.6925
 20
34.4651
 11
177.6925
 21
34.4651
 40
3.6546
 41
0.5
  1
23.02.14
  0
TEXT
  8
LAYER_3
 10
278.208
 20
268.307
 11
278.208
 21
268.307
 40
3.3734
 41
0.5
 72
1
  1
埋込形湯水混合水栓
  0
ENDSEC
  0
EOF
