  0
SECTION
  2
HEADER
  9
$ACADVER
  1
AC1009
  9
$INSBASE
 10
0.0
 20
0.0
 30
0.0
  9
$EXTMIN
 10
-4.70052
 20
-21.071400000000001
 30
0.0
  9
$EXTMAX
 10
205.30099999999999
 20
275.93099999999998
 30
0.0
  9
$LIMMIN
 10
0.0
 20
0.0
  9
$LIMMAX
 10
12.0
 20
9.0
  9
$ORTHOMODE
 70
     0
  9
$REGENMODE
 70
     1
  9
$FILLMODE
 70
     1
  9
$QTEXTMODE
 70
     0
  9
$MIRRTEXT
 70
     1
  9
$DRAGMODE
 70
     2
  9
$LTSCALE
 40
1.0
  9
$OSMODE
 70
    37
  9
$ATTMODE
 70
     1
  9
$TEXTSIZE
 40
0.0
  9
$TRACEWID
 40
0.05
  9
$TEXTSTYLE
  7
STANDARD
  9
$CLAYER
  8
0
  9
$CELTYPE
  6
CONTINUOUS
  9
$CECOLOR
 62
   256
  9
$DIMSCALE
 40
1.0
  9
$DIMASZ
 40
0.18
  9
$DIMEXO
 40
0.0625
  9
$DIMDLI
 40
0.38
  9
$DIMRND
 40
0.0
  9
$DIMDLE
 40
0.0
  9
$DIMEXE
 40
0.18
  9
$DIMTP
 40
0.0
  9
$DIMTM
 40
0.0
  9
$DIMTXT
 40
0.18
  9
$DIMCEN
 40
0.09
  9
$DIMTSZ
 40
0.0
  9
$DIMTOL
 70
     0
  9
$DIMLIM
 70
     0
  9
$DIMTIH
 70
     1
  9
$DIMTOH
 70
     1
  9
$DIMSE1
 70
     0
  9
$DIMSE2
 70
     0
  9
$DIMTAD
 70
     0
  9
$DIMZIN
 70
     0
  9
$DIMBLK
  1

  9
$DIMASO
 70
     1
  9
$DIMSHO
 70
     1
  9
$DIMPOST
  1

  9
$DIMAPOST
  1

  9
$DIMALT
 70
     0
  9
$DIMALTD
 70
     2
  9
$DIMALTF
 40
25.399999999999999
  9
$DIMLFAC
 40
1.0
  9
$DIMTOFL
 70
     0
  9
$DIMTVP
 40
0.0
  9
$DIMTIX
 70
     0
  9
$DIMSOXD
 70
     0
  9
$DIMSAH
 70
     0
  9
$DIMBLK1
  1

  9
$DIMBLK2
  1

  9
$DIMSTYLE
  2
STANDARD
  9
$DIMCLRD
 70
     0
  9
$DIMCLRE
 70
     0
  9
$DIMCLRT
 70
     0
  9
$DIMTFAC
 40
1.0
  9
$DIMGAP
 40
0.09
  9
$LUNITS
 70
     2
  9
$LUPREC
 70
     4
  9
$SKETCHINC
 40
0.1
  9
$FILLETRAD
 40
0.0
  9
$AUNITS
 70
     0
  9
$AUPREC
 70
     0
  9
$MENU
  1
.
  9
$ELEVATION
 40
0.0
  9
$PELEVATION
 40
0.0
  9
$THICKNESS
 40
0.0
  9
$LIMCHECK
 70
     0
  9
$BLIPMODE
 70
     0
  9
$CHAMFERA
 40
0.0
  9
$CHAMFERB
 40
0.0
  9
$SKPOLY
 70
     0
  9
$TDCREATE
 40
2444972.375
  9
$TDUPDATE
 40
2457477.2487155902
  9
$TDINDWG
 40
0.0000320023
  9
$TDUSRTIMER
 40
0.0000320023
  9
$USRTIMER
 70
     1
  9
$ANGBASE
 50
0.0
  9
$ANGDIR
 70
     0
  9
$PDMODE
 70
     0
  9
$PDSIZE
 40
0.0
  9
$PLINEWID
 40
0.0
  9
$COORDS
 70
     1
  9
$SPLFRAME
 70
     0
  9
$SPLINETYPE
 70
     6
  9
$SPLINESEGS
 70
     8
  9
$ATTDIA
 70
     1
  9
$ATTREQ
 70
     1
  9
$HANDLING
 70
     1
  9
$HANDSEED
  5
579
  9
$SURFTAB1
 70
     6
  9
$SURFTAB2
 70
     6
  9
$SURFTYPE
 70
     6
  9
$SURFU
 70
     6
  9
$SURFV
 70
     6
  9
$UCSNAME
  2

  9
$UCSORG
 10
0.0
 20
0.0
 30
0.0
  9
$UCSXDIR
 10
1.0
 20
0.0
 30
0.0
  9
$UCSYDIR
 10
0.0
 20
1.0
 30
0.0
  9
$PUCSNAME
  2

  9
$PUCSORG
 10
0.0
 20
0.0
 30
0.0
  9
$PUCSXDIR
 10
1.0
 20
0.0
 30
0.0
  9
$PUCSYDIR
 10
0.0
 20
1.0
 30
0.0
  9
$USERI1
 70
     0
  9
$USERI2
 70
     0
  9
$USERI3
 70
     0
  9
$USERI4
 70
     0
  9
$USERI5
 70
     0
  9
$USERR1
 40
0.0
  9
$USERR2
 40
0.0
  9
$USERR3
 40
0.0
  9
$USERR4
 40
0.0
  9
$USERR5
 40
0.0
  9
$WORLDVIEW
 70
     1
  9
$SHADEDGE
 70
     3
  9
$SHADEDIF
 70
    70
  9
$TILEMODE
 70
     1
  9
$MAXACTVP
 70
    48
  9
$PLIMCHECK
 70
     0
  9
$PEXTMIN
 10
1.0000000000000000E+020
 20
1.0000000000000000E+020
 30
1.0000000000000000E+020
  9
$PEXTMAX
 10
-1.0000000000000000E+020
 20
-1.0000000000000000E+020
 30
-1.0000000000000000E+020
  9
$PLIMMIN
 10
0.0
 20
0.0
  9
$PLIMMAX
 10
12.0
 20
9.0
  9
$UNITMODE
 70
     0
  9
$VISRETAIN
 70
     1
  9
$PLINEGEN
 70
     0
  9
$PSLTSCALE
 70
     1
  0
ENDSEC
  0
SECTION
  2
TABLES
  0
TABLE
  2
VPORT
 70
     1
  0
VPORT
  2
*ACTIVE
 70
     0
 10
0.0
 20
0.0
 11
1.0
 21
1.0
 12
173.0589517274982
 22
127.4298
 13
0.0
 23
0.0
 14
1.0
 24
1.0
 15
0.0
 25
0.0
 16
0.0
 26
0.0
 36
1.0
 17
0.0
 27
0.0
 37
0.0
 40
289.64168420534031
 41
2.1063583815028899
 42
50.0
 43
0.0
 44
0.0
 50
0.0
 51
0.0
 71
     0
 72
   100
 73
     1
 74
     1
 75
     0
 76
     0
 77
     0
 78
     0
  0
ENDTAB
  0
TABLE
  2
LTYPE
 70
     3
  0
LTYPE
  2
CONTINUOUS
 70
     0
  3
Solid line
 72
    65
 73
     0
 40
0.0
  0
LTYPE
  2
AIGENLINE001
 70
     0
  3
generate AI->DXF Converter
 72
    65
 73
     4
 40
5.8561449999999988
 49
3.5278
 49
-0.776115
 49
0.776115
 49
-0.776115
  0
LTYPE
  2
AIGENLINE002
 70
     0
  3
generate AI->DXF Converter
 72
    65
 73
     6
 40
7.4083750000000004
 49
3.5278
 49
-0.776115
 49
0.776115
 49
-0.776115
 49
0.776115
 49
-0.776115
  0
ENDTAB
  0
TABLE
  2
LAYER
 70
     2
  0
LAYER
  2
0
 70
     0
 62
     7
  6
CONTINUOUS
  0
LAYER
  2
_________2
 70
     0
 62
     7
  6
CONTINUOUS
  0
ENDTAB
  0
TABLE
  2
STYLE
 70
     1
  0
STYLE
  2
STANDARD
 70
     0
 40
0.0
 41
0.0
 50
0.0
 71
     0
 42
0.0
  3
TXT
  4
EXTFONT.SHX
  0
ENDTAB
  0
TABLE
  2
VIEW
 70
     0
  0
ENDTAB
  0
TABLE
  2
UCS
 70
     0
  0
ENDTAB
  0
TABLE
  2
APPID
 70
     3
  0
APPID
  2
ACAD
 70
     0
  0
APPID
  2
ACAD_NAV_VCDISPLAY
 70
     0
  0
APPID
  2
ACAD_MLEADERVER
 70
     0
  0
ENDTAB
  0
TABLE
  2
DIMSTYLE
 70
     1
  0
DIMSTYLE
  2
STANDARD
 70
     0
  3

  4

  5

  6

  7

 40
1.0
 41
0.18
 42
0.0625
 43
0.38
 44
0.18
 45
0.0
 46
0.0
 47
0.0
 48
0.0
140
0.18
141
0.09
142
0.0
143
25.399999999999999
144
1.0
145
0.0
146
1.0
147
0.09
 71
     0
 72
     0
 73
     1
 74
     1
 75
     0
 76
     0
 77
     0
 78
     0
170
     0
171
     2
172
     0
173
     0
174
     0
175
     0
176
     0
177
     0
178
     0
  0
ENDTAB
  0
ENDSEC
  0
SECTION
  2
BLOCKS
  0
BLOCK
  8
0
  2
$MODEL_SPACE
 70
     0
 10
0.0
 20
0.0
 30
0.0
  3
$MODEL_SPACE
  1

  0
ENDBLK
  5
1A
  8
0
  0
BLOCK
 67
     1
  8
0
  2
$PAPER_SPACE
 70
     0
 10
0.0
 20
0.0
 30
0.0
  3
$PAPER_SPACE
  1

  0
ENDBLK
  5
17
 67
     1
  8
0
  0
ENDSEC
  0
SECTION
  2
ENTITIES
  0
TEXT
  5
23
  8
0
 62
     7
 10
167.119696
 20
89.181299999999993
 30
0.0
 40
3.0923400000000001
  1
25～51
 41
0.5
 72
     2
 11
174.12899999999999
 21
89.181299999999993
 31
0.0
  0
TEXT
  5
24
  8
0
 62
     7
 10
77.505398
 20
90.278999999999996
 30
0.0
 40
3.0923400000000001
  1
G 1/2
 41
0.5
 72
     2
 11
83.587000000000003
 21
90.278999999999996
 31
0.0
  0
TEXT
  5
25
  8
0
 62
     7
 10
34.848700000000001
 20
174.209
 30
0.0
 40
3.0923400000000001
  1
2.5
 50
90.0
 41
0.5
  0
TEXT
  5
26
  8
0
 62
     7
 10
115.184
 20
183.30280550000001
 30
0.0
 40
3.0923400000000001
  1
75～101
 50
90.0
 41
0.5
 72
     1
 11
115.184
 21
187.19399999999999
 31
0.0
  0
TEXT
  5
27
  8
0
 62
     7
 10
34.848700000000001
 20
186.38037249999999
 30
0.0
 40
3.0923400000000001
  1
70
 50
90.0
 41
0.5
 72
     1
 11
34.848700000000001
 21
187.53999999999999
 31
0.0
  0
TEXT
  5
28
  8
0
 62
     7
 10
38.169499999999999
 20
100.654
 30
0.0
 40
3.0923400000000001
  1
72.5
 50
90.0
 41
0.5
  0
TEXT
  5
29
  8
0
 62
     7
 10
32.760300000000001
 20
106.807525
 30
0.0
 40
3.0923400000000001
  1
95
 50
90.0
 41
0.5
 72
     1
 11
32.760300000000001
 21
108.096
 31
0.0
  0
TEXT
  5
2A
  8
0
 62
     7
 10
27.126200000000001
 20
104.3379825
 30
0.0
 40
3.0923400000000001
  1
120
 50
90.0
 41
0.5
 72
     1
 11
27.126200000000001
 21
106.01300000000001
 31
0.0
  0
TEXT
  5
2B
  8
0
 62
     7
 10
92.236155000000011
 20
124.288
 30
0.0
 40
3.0923400000000001
  1
158.5
 41
0.5
 72
     1
 11
95.070800000000006
 21
124.288
 31
0.0
  0
TEXT
  5
2C
  8
0
 62
     7
 10
72.478059999999999
 20
130.41300000000001
 30
0.0
 40
3.0923400000000001
  1
392.5
 41
0.5
 72
     1
 11
75.570400000000006
 21
130.41300000000001
 31
0.0
  0
TEXT
  5
2D
  8
0
 62
     7
 10
74.073824999999999
 20
124.288
 30
0.0
 40
3.0923400000000001
  1
78
 41
0.5
 72
     1
 11
75.362300000000005
 21
124.288
 31
0.0
  0
TEXT
  5
2E
  8
0
 62
     7
 10
54.058334999999992
 20
124.288
 30
0.0
 40
3.0923400000000001
  1
156
 41
0.5
 72
     1
 11
55.862200000000001
 21
124.288
 31
0.0
  0
TEXT
  5
2F
  8
0
 62
     7
 10
46.167645
 20
200.65299999999999
 30
0.0
 40
3.0923400000000001
  1
67.5
 41
0.5
 72
     1
 11
48.486899999999999
 21
200.65299999999999
 31
0.0
  0
TEXT
  5
30
  8
0
 62
     7
 10
73.84608750000001
 20
200.65299999999999
 30
0.0
 40
3.0923400000000001
  1
260
 41
0.5
 72
     1
 11
75.778800000000004
 21
200.65299999999999
 31
0.0
  0
TEXT
  5
31
  8
0
 62
     7
 10
146.22727
 20
75.033299999999997
 30
0.0
 40
3.0923400000000001
  1
max.15
 41
0.5
 72
     1
 11
149.83500000000001
 21
75.033299999999997
 31
0.0
  0
TEXT
  5
32
  8
0
 62
     7
 10
130.06952000000001
 20
175.262
 30
0.0
 40
3.0923400000000001
  1
壁仕上厚：max.15
 41
0.5
 72
     2
 11
146.56200000000001
 21
175.262
 31
0.0
  0
TEXT
  5
33
  8
0
 62
     7
 10
101.573525
 20
200.65299999999999
 30
0.0
 40
3.0923400000000001
  1
65
 41
0.5
 72
     1
 11
102.86199999999999
 21
200.65299999999999
 31
0.0
  0
TEXT
  5
34
  8
0
 62
     7
 10
67.573524999999989
 20
85.393100000000004
 30
0.0
 40
3.0923400000000001
  1
54
 41
0.5
 72
     1
 11
68.861999999999995
 21
85.393100000000004
 31
0.0
  0
TEXT
  5
35
  8
0
 62
     7
 10
139.22900000000001
 20
113.45726999999999
 30
0.0
 40
3.0923400000000001
  1
%%c19
 50
90.0
 41
0.5
 72
     2
 11
139.22900000000001
 21
117.065
 31
0.0
  0
TEXT
  5
36
  8
0
 62
     7
 10
116.33799999999999
 20
101.159525
 30
0.0
 40
3.0923400000000001
  1
67
 50
90.0
 41
0.5
 72
     1
 11
116.33799999999999
 21
102.44799999999999
 31
0.0
  0
TEXT
  5
37
  8
0
 62
     7
 10
153.87480550000001
 20
82.4923
 30
0.0
 40
3.0923400000000001
  1
75～101
 41
0.5
 72
     1
 11
157.76599999999999
 21
82.4923
 31
0.0
  0
TEXT
  5
38
  8
0
 62
     7
 10
134.55998249999999
 20
82.4923
 30
0.0
 40
3.0923400000000001
  1
160
 41
0.5
 72
     1
 11
136.23500000000001
 21
82.4923
 31
0.0
  0
TEXT
  5
39
  8
0
 62
     7
 10
89.241929999999996
 20
161.70599999999999
 30
0.0
 40
3.0923400000000001
  1
VL001
 41
0.5
 72
     2
 11
95.941999999999993
 21
161.70599999999999
 31
0.0
  0
TEXT
  5
3A
  8
0
 62
     7
 10
61.611400000000003
 20
161.70599999999999
 30
0.0
 40
3.0923400000000001
  1
VL3001
 41
0.5
  0
TEXT
  5
3B
  8
0
 62
     7
 10
53.919400000000003
 20
208.542
 30
0.0
 40
3.0923400000000001
  1
VL100T
 41
0.5
  0
TEXT
  5
3C
  8
0
 62
     7
 10
52.791600000000003
 20
167.286
 30
0.0
 40
3.0923400000000001
  1
VL028
 41
0.5
  0
TEXT
  5
3D
  8
0
 62
     7
 10
90.602130000000002
 20
152.34800000000001
 30
0.0
 40
3.0923400000000001
  1
VL010
 41
0.5
 72
     2
 11
97.302199999999999
 21
152.34800000000001
 31
0.0
  0
TEXT
  5
3E
  8
0
 62
     7
 10
55.1143
 20
175.06899999999999
 30
0.0
 40
3.0923400000000001
  1
%%c60
 41
0.5
  0
ARC
  5
3F
  8
0
 62
     7
 10
106.67945899999999
 20
101.820429
 30
0.0
 40
0.4329840000000001
 50
272.09424899999999
 51
357.85838999999999
  0
ARC
  5
40
  8
0
 62
     7
 10
106.679086
 20
101.788411
 30
0.0
 40
0.433344
 50
2.0945079999999998
 51
87.858149999999995
  0
ARC
  5
41
  8
0
 62
     7
 10
101.71159900000001
 20
101.788735
 30
0.0
 40
0.433008
 50
92.100544999999997
 51
177.94675799999999
  0
ARC
  5
42
  8
0
 62
     7
 10
101.711236
 20
101.820115
 30
0.0
 40
0.4326590000000001
 50
182.10155700000001
 51
267.94584400000002
  0
LINE
  5
43
  8
0
 62
     7
 10
101.696
 20
101.38800000000001
 30
0.0
 11
106.69499999999999
 21
101.38800000000001
 31
0.0
  0
LINE
  5
44
  8
0
 62
     7
 10
101.696
 20
102.221
 30
0.0
 11
106.69499999999999
 21
102.221
 31
0.0
  0
ARC
  5
45
  8
0
 62
     7
 10
102.378507
 20
110.62099499999999
 30
0.0
 40
0.4336810000000001
 50
92.08844599999999
 51
177.76952700000001
  0
ARC
  5
46
  8
0
 62
     7
 10
102.346537
 20
110.622066
 30
0.0
 40
0.432624
 50
2.0939689999999991
 51
87.858609999999999
  0
ARC
  5
47
  8
0
 62
     7
 10
102.37753499999999
 20
105.65388
 30
0.0
 40
0.432674
 50
182.10665099999991
 51
268.03537599999999
  0
ARC
  5
48
  8
0
 62
     7
 10
102.346851
 20
105.653468
 30
0.0
 40
0.432299
 50
272.10129999999998
 51
357.94612100000001
  0
LINE
  5
49
  8
0
 62
     7
 10
101.94499999999999
 20
105.63800000000001
 30
0.0
 11
101.94499999999999
 21
110.63800000000001
 31
0.0
  0
LINE
  5
4A
  8
0
 62
     7
 10
102.779
 20
105.63800000000001
 30
0.0
 11
102.779
 21
110.63800000000001
 31
0.0
  0
ARC
  5
4B
  8
0
 62
     7
 10
105.711331
 20
110.62169299999999
 30
0.0
 40
0.4329840000000001
 50
92.094228999999984
 51
177.85837000000001
  0
ARC
  5
4C
  8
0
 62
     7
 10
105.68001
 20
110.622018
 30
0.0
 40
0.432649
 50
2.1003080000000001
 51
87.947054000000009
  0
ARC
  5
4D
  8
0
 62
     7
 10
105.711007
 20
105.653831
 30
0.0
 40
0.432648
 50
182.10031000000001
 51
267.947091
  0
ARC
  5
4E
  8
0
 62
     7
 10
105.679686
 20
105.654156
 30
0.0
 40
0.4329840000000001
 50
272.09424899999999
 51
357.85838999999999
  0
LINE
  5
4F
  8
0
 62
     7
 10
105.279
 20
105.63800000000001
 30
0.0
 11
105.279
 21
110.63800000000001
 31
0.0
  0
LINE
  5
50
  8
0
 62
     7
 10
106.11199999999999
 20
105.63800000000001
 30
0.0
 11
106.11199999999999
 21
110.63800000000001
 31
0.0
  0
ARC
  5
51
  8
0
 62
     7
 10
106.679435
 20
114.455409
 30
0.0
 40
0.432996
 50
2.0974049999999989
 51
87.902585000000002
  0
ARC
  5
52
  8
0
 62
     7
 10
106.679435
 20
114.487103
 30
0.0
 40
0.432996
 50
272.09741500000001
 51
357.90259500000002
  0
ARC
  5
53
  8
0
 62
     7
 10
101.711574
 20
114.455409
 30
0.0
 40
0.432996
 50
92.097378000000006
 51
177.902592
  0
ARC
  5
54
  8
0
 62
     7
 10
101.711574
 20
114.487103
 30
0.0
 40
0.432996
 50
182.097408
 51
267.90262200000001
  0
LINE
  5
55
  8
0
 62
     7
 10
101.696
 20
114.88800000000001
 30
0.0
 11
106.69499999999999
 21
114.88800000000001
 31
0.0
  0
LINE
  5
56
  8
0
 62
     7
 10
101.696
 20
114.054
 30
0.0
 11
106.69499999999999
 21
114.054
 31
0.0
  0
LINE
  5
57
  8
0
 62
     7
 10
108.279
 20
101.05500000000001
 30
0.0
 11
107.446
 21
100.22199999999999
 31
0.0
  0
LINE
  5
58
  8
0
 62
     7
 10
108.279
 20
103.13800000000001
 30
0.0
 11
108.279
 21
101.05500000000001
 31
0.0
  0
LINE
  5
59
  8
0
 62
     7
 10
108.279
 20
103.13800000000001
 30
0.0
 11
106.94499999999999
 21
104.38800000000001
 31
0.0
  0
LINE
  5
5A
  8
0
 62
     7
 10
108.279
 20
113.13800000000001
 30
0.0
 11
106.94499999999999
 21
111.88800000000001
 31
0.0
  0
LINE
  5
5B
  8
0
 62
     7
 10
108.279
 20
115.221
 30
0.0
 11
107.446
 21
116.05500000000001
 31
0.0
  0
LINE
  5
5C
  8
0
 62
     7
 10
106.94499999999999
 20
104.38800000000001
 30
0.0
 11
106.94499999999999
 21
111.88800000000001
 31
0.0
  0
LINE
  5
5D
  8
0
 62
     7
 10
108.279
 20
113.13800000000001
 30
0.0
 11
108.279
 21
115.221
 31
0.0
  0
LINE
  5
5E
  8
0
 62
     7
 10
43.695099999999996
 20
103.929
 30
0.0
 11
43.361800000000002
 21
103.929
 31
0.0
  0
ARC
  5
5F
  8
0
 62
     7
 10
43.675785999999988
 20
104.448753
 30
0.0
 40
0.5199150000000001
 50
272.13017400000001
 51
357.86983600000002
  0
LINE
  5
60
  8
0
 62
     7
 10
42.861699999999999
 20
103.43000000000001
 30
0.0
 11
42.861699999999999
 21
101.01300000000001
 31
0.0
  0
ARC
  5
61
  8
0
 62
     7
 10
43.726764999999993
 20
115.14756
 30
0.0
 40
0.86562
 50
92.095660999999993
 51
177.880619
  0
ARC
  5
62
  8
0
 62
     7
 10
43.727511
 20
101.044954
 30
0.0
 40
0.8660219999999999
 50
182.12083100000001
 51
267.86735499999998
  0
ARC
  5
63
  8
0
 62
     7
 10
43.381081999999992
 20
103.40983199999999
 30
0.0
 40
0.5197230000000001
 50
92.126634999999993
 51
177.81409400000001
  0
LINE
  5
64
  8
0
 62
     7
 10
44.195300000000003
 20
104.429
 30
0.0
 11
44.195300000000003
 21
111.76300000000001
 31
0.0
  0
LINE
  5
65
  8
0
 62
     7
 10
43.695300000000003
 20
112.26300000000001
 30
0.0
 11
43.361800000000002
 21
112.26300000000001
 31
0.0
  0
ARC
  5
66
  8
0
 62
     7
 10
43.695197
 20
111.76279100000001
 30
0.0
 40
0.500145
 50
359.99014299999999
 51
89.990113000000008
  0
LINE
  5
67
  8
0
 62
     7
 10
42.861699999999999
 20
112.76300000000001
 30
0.0
 11
42.861699999999999
 21
115.18000000000001
 31
0.0
  0
ARC
  5
68
  8
0
 62
     7
 10
43.380934000000003
 20
112.782139
 30
0.0
 40
0.5195560000000001
 50
182.13073399999999
 51
267.88903599999998
  0
ARC
  5
69
  8
0
 62
     7
 10
44.461336999999993
 20
101.77878699999999
 30
0.0
 40
0.433043
 50
182.14711800000001
 51
267.852912
  0
ARC
  5
6A
  8
0
 62
     7
 10
44.460993999999999
 20
101.74739700000001
 30
0.0
 40
0.432661
 50
92.103450999999993
 51
177.99122299999999
  0
ARC
  5
6B
  8
0
 62
     7
 10
49.429361999999998
 20
101.778564
 30
0.0
 40
0.4328050000000001
 50
272.09507500000001
 51
357.88124399999998
  0
ARC
  5
6C
  8
0
 62
     7
 10
49.42882199999999
 20
101.746737
 30
0.0
 40
0.433338
 50
2.092925999999999
 51
87.836050999999998
  0
LINE
  5
6D
  8
0
 62
     7
 10
49.445399999999992
 20
101.346
 30
0.0
 11
44.445099999999996
 21
101.346
 31
0.0
  0
LINE
  5
6E
  8
0
 62
     7
 10
49.445399999999992
 20
102.18000000000001
 30
0.0
 11
44.445099999999996
 21
102.18000000000001
 31
0.0
  0
ARC
  5
6F
  8
0
 62
     7
 10
48.762889000000001
 20
110.580344
 30
0.0
 40
0.4326420000000001
 50
2.0987230000000001
 51
87.92495799999999
  0
ARC
  5
70
  8
0
 62
     7
 10
48.794376
 20
110.580187
 30
0.0
 40
0.4328050000000001
 50
92.095038000000002
 51
177.88124099999999
  0
ARC
  5
71
  8
0
 62
     7
 10
48.794218999999998
 20
105.612133
 30
0.0
 40
0.4326420000000001
 50
182.098726
 51
267.92499500000002
  0
ARC
  5
72
  8
0
 62
     7
 10
48.762731999999993
 20
105.61229
 30
0.0
 40
0.4328050000000001
 50
272.09507500000001
 51
357.88124399999998
  0
LINE
  5
73
  8
0
 62
     7
 10
49.1952
 20
105.596
 30
0.0
 11
49.1952
 21
110.596
 31
0.0
  0
LINE
  5
74
  8
0
 62
     7
 10
48.361899999999999
 20
105.596
 30
0.0
 11
48.361899999999999
 21
110.596
 31
0.0
  0
ARC
  5
75
  8
0
 62
     7
 10
45.429398999999989
 20
110.58035599999999
 30
0.0
 40
0.432636
 50
2.0971380000000002
 51
87.902851999999996
  0
ARC
  5
76
  8
0
 62
     7
 10
45.461052999999993
 20
110.580187
 30
0.0
 40
0.4328050000000001
 50
92.095038000000002
 51
177.88124099999999
  0
ARC
  5
77
  8
0
 62
     7
 10
45.461288000000003
 20
105.61252500000001
 30
0.0
 40
0.433049
 50
182.14869899999999
 51
267.875021
  0
ARC
  5
78
  8
0
 62
     7
 10
45.429398999999989
 20
105.612121
 30
0.0
 40
0.432636
 50
272.097148
 51
357.90286200000003
  0
LINE
  5
79
  8
0
 62
     7
 10
45.861699999999999
 20
105.596
 30
0.0
 11
45.861699999999999
 21
110.596
 31
0.0
  0
LINE
  5
7A
  8
0
 62
     7
 10
45.028500000000001
 20
105.596
 30
0.0
 11
45.028500000000001
 21
110.596
 31
0.0
  0
ARC
  5
7B
  8
0
 62
     7
 10
44.460945000000002
 20
114.413738
 30
0.0
 40
0.432636
 50
92.097110999999984
 51
177.90285900000001
  0
ARC
  5
7C
  8
0
 62
     7
 10
44.461686999999998
 20
114.445785
 30
0.0
 40
0.433391
 50
182.144226
 51
267.80843299999998
  0
ARC
  5
7D
  8
0
 62
     7
 10
49.429338000000001
 20
114.445238
 30
0.0
 40
0.432817
 50
272.09824300000002
 51
357.92544700000002
  0
ARC
  5
7E
  8
0
 62
     7
 10
49.429518999999999
 20
114.413726
 30
0.0
 40
0.4326420000000001
 50
2.0987230000000001
 51
87.92495799999999
  0
LINE
  5
7F
  8
0
 62
     7
 10
49.445399999999992
 20
114.846
 30
0.0
 11
44.445099999999996
 21
114.846
 31
0.0
  0
LINE
  5
80
  8
0
 62
     7
 10
49.445399999999992
 20
114.01300000000001
 30
0.0
 11
44.445099999999996
 21
114.01300000000001
 31
0.0
  0
LINE
  5
81
  8
0
 62
     7
 10
151.90199999999999
 20
104.304
 30
0.0
 11
152.31899999999999
 21
104.304
 31
0.0
  0
LINE
  5
82
  8
0
 62
     7
 10
151.90199999999999
 20
103.054
 30
0.0
 11
152.31899999999999
 21
103.054
 31
0.0
  0
LINE
  5
83
  8
0
 62
     7
 10
151.90199999999999
 20
100.971
 30
0.0
 11
152.31899999999999
 21
100.971
 31
0.0
  0
LINE
  5
84
  8
0
 62
     7
 10
151.90199999999999
 20
111.88800000000001
 30
0.0
 11
152.31899999999999
 21
111.88800000000001
 31
0.0
  0
LINE
  5
85
  8
0
 62
     7
 10
151.90199999999999
 20
113.13800000000001
 30
0.0
 11
152.31899999999999
 21
113.13800000000001
 31
0.0
  0
LINE
  5
86
  8
0
 62
     7
 10
151.90199999999999
 20
115.221
 30
0.0
 11
152.31899999999999
 21
115.221
 31
0.0
  0
ARC
  5
87
  8
0
 62
     7
 10
73.597130000000007
 20
99.453057000000001
 30
0.0
 40
0.5536270000000001
 50
164.34242599999999
 51
202.435405
  0
ARC
  5
88
  8
0
 62
     7
 10
73.397323999999983
 20
99.372214999999997
 30
0.0
 40
0.338095
 50
202.69475399999999
 51
266.58905800000002
  0
ARC
  5
89
  8
0
 62
     7
 10
73.390608
 20
99.551905000000005
 30
0.0
 40
0.330453
 50
91.666423999999978
 51
171.19735499999999
  0
ARC
  5
8A
  8
0
 62
     7
 10
73.411943999999991
 20
99.426197000000016
 30
0.0
 40
0.512774
 50
175.50414000000001
 51
261.31210199999998
  0
LINE
  5
8B
  8
0
 62
     7
 10
73.334500000000006
 20
98.919300000000021
 30
0.0
 11
73.391300000000001
 21
98.915899999999993
 31
0.0
  0
LINE
  5
8C
  8
0
 62
     7
 10
73.674199999999999
 20
99.303100000000001
 30
0.0
 11
73.823400000000007
 21
99.268000000000001
 31
0.0
  0
LINE
  5
8D
  8
0
 62
     7
 10
73.646999999999991
 20
99.661699999999996
 30
0.0
 11
73.796099999999996
 21
99.693399999999997
 31
0.0
  0
LINE
  5
8E
  8
0
 62
     7
 10
64.619699999999995
 20
99.9876
 30
0.0
 11
64.769099999999995
 21
99.9876
 31
0.0
  0
LINE
  5
8F
  8
0
 62
     7
 10
63.954999999999998
 20
99.9876
 30
0.0
 11
64.104299999999995
 21
99.9876
 31
0.0
  0
ARC
  5
90
  8
0
 62
     7
 10
73.39680899999999
 20
99.347692000000009
 30
0.0
 40
0.4339310000000001
 50
269.27696400000002
 51
349.41125099999999
  0
ARC
  5
91
  8
0
 62
     7
 10
73.371105
 20
99.339965000000007
 30
0.0
 40
0.305307
 50
271.14550600000001
 51
353.06352299999998
  0
LINE
  5
92
  8
0
 62
     7
 10
64.619699999999995
 20
98.929599999999994
 30
0.0
 11
64.619699999999995
 21
99.431600000000003
 31
0.0
  0
LINE
  5
93
  8
0
 62
     7
 10
64.769099999999995
 20
98.929599999999994
 30
0.0
 11
64.619699999999995
 21
98.929599999999994
 31
0.0
  0
LINE
  5
94
  8
0
 62
     7
 10
64.104299999999995
 20
99.431600000000003
 30
0.0
 11
64.104299999999995
 21
98.929599999999994
 31
0.0
  0
LINE
  5
95
  8
0
 62
     7
 10
64.619699999999995
 20
99.431600000000003
 30
0.0
 11
64.104299999999995
 21
99.431600000000003
 31
0.0
  0
LINE
  5
96
  8
0
 62
     7
 10
64.104299999999995
 20
99.553600000000003
 30
0.0
 11
64.619699999999995
 21
99.553600000000003
 31
0.0
  0
LINE
  5
97
  8
0
 62
     7
 10
64.104299999999995
 20
98.929599999999994
 30
0.0
 11
63.954999999999998
 21
98.929599999999994
 31
0.0
  0
LINE
  5
98
  8
0
 62
     7
 10
63.954999999999998
 20
98.929599999999994
 30
0.0
 11
63.954999999999998
 21
99.9876
 31
0.0
  0
LINE
  5
99
  8
0
 62
     7
 10
64.769099999999995
 20
99.9876
 30
0.0
 11
64.769099999999995
 21
98.929599999999994
 31
0.0
  0
LINE
  5
9A
  8
0
 62
     7
 10
64.619699999999995
 20
99.553600000000003
 30
0.0
 11
64.619699999999995
 21
99.9876
 31
0.0
  0
LINE
  5
9B
  8
0
 62
     7
 10
64.104299999999995
 20
99.9876
 30
0.0
 11
64.104299999999995
 21
99.553600000000003
 31
0.0
  0
ARC
  5
9C
  8
0
 62
     7
 10
73.383371999999994
 20
99.614547999999999
 30
0.0
 40
0.267779
 50
10.148527
 51
88.370031000000026
  0
ARC
  5
9D
  8
0
 62
     7
 10
73.399518999999984
 20
99.593120999999996
 30
0.0
 40
0.409103
 50
14.192587
 51
88.637268000000006
  0
ARC
  5
9E
  8
0
 62
     7
 10
73.407553000000007
 20
99.732963000000012
 30
0.0
 40
0.26915
 50
89.639271999999977
 51
94.116462999999996
  0
ARC
  5
9F
  8
0
 62
     7
 10
73.393414000000007
 20
99.510819999999995
 30
0.0
 40
0.497148
 50
92.146121999999991
 51
177.853848
  0
ARC
  5
A0
  8
0
 62
     7
 10
73.375353000000004
 20
99.529172000000017
 30
0.0
 40
0.4787390000000001
 50
179.96818500000001
 51
187.53527299999999
  0
LINE
  5
A1
  8
0
 62
     7
 10
73.861900000000006
 20
174.369
 30
0.0
 11
55.1143
 21
174.369
 31
0.0
  0
ARC
  5
A2
  8
0
 62
     7
 10
92.570472999999993
 20
186.807289
 30
0.0
 40
0.9729419999999999
 50
236.16448600000001
 51
303.835534
  0
ARC
  5
A3
  8
0
 62
     7
 10
91.486983999999978
 20
186.807289
 30
0.0
 40
0.9729419999999999
 50
236.16448600000001
 51
303.835534
  0
LINE
  5
A4
  8
0
 62
     7
 10
93.112200000000001
 20
185.999
 30
0.0
 11
93.112200000000001
 21
185.83099999999999
 31
0.0
  0
LINE
  5
A5
  8
0
 62
     7
 10
90.945200000000014
 20
185.999
 30
0.0
 11
90.945200000000014
 21
185.83099999999999
 31
0.0
  0
LINE
  5
A6
  8
0
 62
     7
 10
93.1952
 20
191.53999999999999
 30
0.0
 11
93.1952
 21
192.20699999999999
 31
0.0
  0
LINE
  5
A7
  8
0
 62
     7
 10
90.862200000000001
 20
192.20699999999999
 30
0.0
 11
90.862200000000001
 21
191.53999999999999
 31
0.0
  0
LINE
  5
A8
  8
0
 62
     7
 10
93.028800000000004
 20
187.03999999999999
 30
0.0
 11
93.028800000000004
 21
191.53999999999999
 31
0.0
  0
LINE
  5
A9
  8
0
 62
     7
 10
91.028599999999983
 20
191.53999999999999
 30
0.0
 11
91.028599999999983
 21
187.03999999999999
 31
0.0
  0
LINE
  5
AA
  8
0
 62
     7
 10
91.195400000000006
 20
186.78999999999999
 30
0.0
 11
92.862099999999998
 21
186.78999999999999
 31
0.0
  0
LINE
  5
AB
  8
0
 62
     7
 10
92.862099999999998
 20
186.95599999999999
 30
0.0
 11
91.195400000000006
 21
186.95599999999999
 31
0.0
  0
LINE
  5
AC
  8
0
 62
     7
 10
91.028599999999983
 20
187.03999999999999
 30
0.0
 11
93.028800000000004
 21
187.03999999999999
 31
0.0
  0
LINE
  5
AD
  8
0
 62
     7
 10
93.112200000000001
 20
186.70599999999999
 30
0.0
 11
92.028700000000001
 21
186.70599999999999
 31
0.0
  0
LINE
  5
AE
  8
0
 62
     7
 10
92.028700000000001
 20
186.70599999999999
 30
0.0
 11
90.945200000000014
 21
186.70599999999999
 31
0.0
  0
LINE
  5
AF
  8
0
 62
     7
 10
91.195400000000006
 20
186.95599999999999
 30
0.0
 11
91.195400000000006
 21
186.78999999999999
 31
0.0
  0
ARC
  5
B0
  8
0
 62
     7
 10
91.10877099999999
 20
186.79281900000001
 30
0.0
 40
0.086643
 50
272.12443999999999
 51
357.8755700000001
  0
ARC
  5
B1
  8
0
 62
     7
 10
91.108727999999999
 20
186.95309599999999
 30
0.0
 40
0.086688
 50
2.1517400000000002
 51
87.848249999999993
  0
LINE
  5
B2
  8
0
 62
     7
 10
92.862099999999998
 20
186.78999999999999
 30
0.0
 11
92.862099999999998
 21
186.95599999999999
 31
0.0
  0
ARC
  5
B3
  8
0
 62
     7
 10
92.948770999999994
 20
186.79290399999999
 30
0.0
 40
0.086731
 50
182.17850200000001
 51
267.821527
  0
ARC
  5
B4
  8
0
 62
     7
 10
92.948728999999986
 20
186.95309599999999
 30
0.0
 40
0.086688
 50
92.151730000000015
 51
177.84824
  0
LINE
  5
B5
  8
0
 62
     7
 10
92.247099999999989
 20
184.87299999999999
 30
0.0
 11
92.862099999999998
 21
184.87299999999999
 31
0.0
  0
LINE
  5
B6
  8
0
 62
     7
 10
90.986900000000006
 20
185.78999999999999
 30
0.0
 11
93.070499999999996
 21
185.78999999999999
 31
0.0
  0
LINE
  5
B7
  8
0
 62
     7
 10
92.778700000000001
 20
184.78999999999999
 30
0.0
 11
92.225399999999993
 21
184.78999999999999
 31
0.0
  0
LINE
  5
B8
  8
0
 62
     7
 10
90.945200000000014
 20
185.83099999999999
 30
0.0
 11
90.986900000000006
 21
185.78999999999999
 31
0.0
  0
LINE
  5
B9
  8
0
 62
     7
 10
91.195400000000006
 20
185.78999999999999
 30
0.0
 11
91.195400000000006
 21
184.87299999999999
 31
0.0
  0
LINE
  5
BA
  8
0
 62
     7
 10
91.195400000000006
 20
184.87299999999999
 30
0.0
 11
92.247099999999989
 21
184.87299999999999
 31
0.0
  0
LINE
  5
BB
  8
0
 62
     7
 10
92.225399999999993
 20
184.78999999999999
 30
0.0
 11
91.278699999999986
 21
184.78999999999999
 31
0.0
  0
ARC
  5
BC
  8
0
 62
     7
 10
91.281981000000002
 20
184.87651500000001
 30
0.0
 40
0.086688
 50
182.15176
 51
267.84827000000001
  0
LINE
  5
BD
  8
0
 62
     7
 10
92.862099999999998
 20
184.87299999999999
 30
0.0
 11
92.862099999999998
 21
185.78999999999999
 31
0.0
  0
ARC
  5
BE
  8
0
 62
     7
 10
92.775676000000004
 20
184.87631500000001
 30
0.0
 40
0.08648
 50
272.02390400000002
 51
357.97610600000007
  0
LINE
  5
BF
  8
0
 62
     7
 10
93.070499999999996
 20
185.78999999999999
 30
0.0
 11
93.112200000000001
 21
185.83099999999999
 31
0.0
  0
LINE
  5
C0
  8
0
 62
     7
 10
90.945200000000014
 20
185.999
 30
0.0
 11
90.945200000000014
 21
186.70599999999999
 31
0.0
  0
LINE
  5
C1
  8
0
 62
     7
 10
92.028700000000001
 20
185.999
 30
0.0
 11
92.028700000000001
 21
186.70599999999999
 31
0.0
  0
LINE
  5
C2
  8
0
 62
     7
 10
93.112200000000001
 20
185.999
 30
0.0
 11
93.112200000000001
 21
186.70599999999999
 31
0.0
  0
LINE
  5
C3
  8
0
 62
     7
 10
163.90199999999999
 20
102.26300000000001
 30
0.0
 11
163.65199999999999
 21
102.26300000000001
 31
0.0
  0
LINE
  5
C4
  8
0
 62
     7
 10
163.90199999999999
 20
101.26300000000001
 30
0.0
 11
163.65199999999999
 21
101.26300000000001
 31
0.0
  0
LINE
  5
C5
  8
0
 62
     7
 10
163.90199999999999
 20
102.26300000000001
 30
0.0
 11
163.98599999999999
 21
102.179
 31
0.0
  0
LINE
  5
C6
  8
0
 62
     7
 10
163.98599999999999
 20
101.346
 30
0.0
 11
163.90199999999999
 21
101.26300000000001
 31
0.0
  0
LINE
  5
C7
  8
0
 62
     7
 10
163.98599999999999
 20
101.346
 30
0.0
 11
163.98599999999999
 21
102.179
 31
0.0
  0
LINE
  5
C8
  8
0
 62
     7
 10
163.90199999999999
 20
101.26300000000001
 30
0.0
 11
163.90199999999999
 21
102.26300000000001
 31
0.0
  0
LINE
  5
C9
  8
0
 62
     7
 10
163.90199999999999
 20
114.929
 30
0.0
 11
163.65199999999999
 21
114.929
 31
0.0
  0
LINE
  5
CA
  8
0
 62
     7
 10
163.90199999999999
 20
113.93000000000001
 30
0.0
 11
163.65199999999999
 21
113.93000000000001
 31
0.0
  0
LINE
  5
CB
  8
0
 62
     7
 10
163.90199999999999
 20
114.929
 30
0.0
 11
163.98599999999999
 21
114.846
 31
0.0
  0
LINE
  5
CC
  8
0
 62
     7
 10
163.98599999999999
 20
114.01300000000001
 30
0.0
 11
163.90199999999999
 21
113.93000000000001
 31
0.0
  0
LINE
  5
CD
  8
0
 62
     7
 10
163.98599999999999
 20
114.01300000000001
 30
0.0
 11
163.98599999999999
 21
114.846
 31
0.0
  0
LINE
  5
CE
  8
0
 62
     7
 10
163.90199999999999
 20
113.93000000000001
 30
0.0
 11
163.90199999999999
 21
114.929
 31
0.0
  0
LINE
  5
CF
  8
0
 62
     7
 10
91.528800000000004
 20
193.28999999999999
 30
0.0
 11
91.528800000000004
 21
193.03999999999999
 31
0.0
  0
LINE
  5
D0
  8
0
 62
     7
 10
92.528599999999997
 20
193.28999999999999
 30
0.0
 11
92.528599999999997
 21
193.03999999999999
 31
0.0
  0
LINE
  5
D1
  8
0
 62
     7
 10
91.528800000000004
 20
193.28999999999999
 30
0.0
 11
91.611900000000006
 21
193.37299999999999
 31
0.0
  0
LINE
  5
D2
  8
0
 62
     7
 10
92.445599999999985
 20
193.37299999999999
 30
0.0
 11
92.528599999999997
 21
193.28999999999999
 31
0.0
  0
LINE
  5
D3
  8
0
 62
     7
 10
92.445599999999985
 20
193.37299999999999
 30
0.0
 11
91.611900000000006
 21
193.37299999999999
 31
0.0
  0
LINE
  5
D4
  8
0
 62
     7
 10
92.528599999999997
 20
193.28999999999999
 30
0.0
 11
91.528800000000004
 21
193.28999999999999
 31
0.0
  0
LINE
  5
D5
  8
0
 62
     7
 10
58.195300000000003
 20
193.28999999999999
 30
0.0
 11
58.195300000000003
 21
193.03999999999999
 31
0.0
  0
LINE
  5
D6
  8
0
 62
     7
 10
59.195399999999999
 20
193.28999999999999
 30
0.0
 11
59.195399999999999
 21
193.03999999999999
 31
0.0
  0
LINE
  5
D7
  8
0
 62
     7
 10
58.195300000000003
 20
193.28999999999999
 30
0.0
 11
58.278599999999997
 21
193.37299999999999
 31
0.0
  0
LINE
  5
D8
  8
0
 62
     7
 10
59.112400000000001
 20
193.37299999999999
 30
0.0
 11
59.195399999999999
 21
193.28999999999999
 31
0.0
  0
LINE
  5
D9
  8
0
 62
     7
 10
59.112400000000001
 20
193.37299999999999
 30
0.0
 11
58.278599999999997
 21
193.37299999999999
 31
0.0
  0
LINE
  5
DA
  8
0
 62
     7
 10
59.195399999999999
 20
193.28999999999999
 30
0.0
 11
58.195300000000003
 21
193.28999999999999
 31
0.0
  0
ARC
  5
DB
  8
0
 62
     7
 10
153.83797899999999
 20
113.327089
 30
0.0
 40
0.519583
 50
92.134191000000015
 51
177.90525299999999
  0
ARC
  5
DC
  8
0
 62
     7
 10
153.83828299999999
 20
113.365376
 30
0.0
 40
0.519898
 50
182.127003
 51
267.83355299999999
  0
ARC
  5
DD
  8
0
 62
     7
 10
153.81862899999999
 20
113.346081
 30
0.0
 40
0.5002310000000002
 50
270.00002000000001
 51
359.99999000000003
  0
ARC
  5
DE
  8
0
 62
     7
 10
153.81862899999999
 20
113.34608
 30
0.0
 40
0.5002310000000002
 50
0.00001
 51
89.999980000000008
  0
ARC
  5
DF
  8
0
 62
     7
 10
155.25493599999999
 20
102.826722
 30
0.0
 40
0.519921
 50
92.130700000000004
 51
177.86927
  0
ARC
  5
E0
  8
0
 62
     7
 10
155.25492600000001
 20
102.86537199999999
 30
0.0
 40
0.51991
 50
182.129638
 51
267.87039199999998
  0
ARC
  5
E1
  8
0
 62
     7
 10
155.21626699999999
 20
102.86503399999999
 30
0.0
 40
0.519573
 50
272.13313399999998
 51
357.90634899999998
  0
ARC
  5
E2
  8
0
 62
     7
 10
155.21595199999999
 20
102.826756
 30
0.0
 40
0.519898
 50
2.1269830000000001
 51
87.833532999999989
  0
LINE
  5
E3
  8
0
 62
     7
 10
158.56899999999999
 20
111.429
 30
0.0
 11
160.73500000000001
 21
111.429
 31
0.0
  0
LINE
  5
E4
  8
0
 62
     7
 10
161.23599999999999
 20
105.26300000000001
 30
0.0
 11
161.23599999999999
 21
110.93000000000001
 31
0.0
  0
ARC
  5
E5
  8
0
 62
     7
 10
160.716768
 20
110.910337
 30
0.0
 40
0.5192140000000001
 50
2.1344500000000002
 51
87.944513999999984
  0
LINE
  5
E6
  8
0
 62
     7
 10
158.56899999999999
 20
104.76300000000001
 30
0.0
 11
160.73500000000001
 21
104.76300000000001
 31
0.0
  0
ARC
  5
E7
  8
0
 62
     7
 10
160.716071
 20
105.282466
 30
0.0
 40
0.51991
 50
272.12962800000003
 51
357.87038200000001
  0
ARC
  5
E8
  8
0
 62
     7
 10
157.78363999999999
 20
108.16333400000001
 30
0.0
 40
2.5982579999999991
 50
287.56410599999998
 51
13.321424
  0
ARC
  5
E9
  8
0
 62
     7
 10
157.86243899999999
 20
108.05623900000001
 30
0.0
 40
2.5491950000000001
 50
16.072854
 51
73.938453999999993
  0
ARC
  5
EA
  8
0
 62
     7
 10
156.261177
 20
108.07024199999999
 30
0.0
 40
0.6929220000000002
 50
92.10513499999999
 51
177.83561499999999
  0
ARC
  5
EB
  8
0
 62
     7
 10
156.261225
 20
108.12191300000001
 30
0.0
 40
0.692946
 50
182.109103
 51
267.89092699999998
  0
ARC
  5
EC
  8
0
 62
     7
 10
156.210193
 20
108.12122599999999
 30
0.0
 40
0.6922610000000001
 50
272.11353000000003
 51
357.94569999999999
  0
ARC
  5
ED
  8
0
 62
     7
 10
156.23572300000001
 20
108.096411
 30
0.0
 40
0.666286
 50
0.00001
 51
89.999980000000008
  0
ARC
  5
EE
  8
0
 62
     7
 10
156.235724
 20
108.096411
 30
0.0
 40
1.249889
 50
90.0
 51
179.99996999999999
  0
ARC
  5
EF
  8
0
 62
     7
 10
156.23572300000001
 20
108.096411
 30
0.0
 40
1.249887999999999
 50
179.99996999999999
 51
270.00002000000001
  0
ARC
  5
F0
  8
0
 62
     7
 10
156.23572300000001
 20
108.096411
 30
0.0
 40
1.249889
 50
270.00002000000001
 51
359.99999000000003
  0
ARC
  5
F1
  8
0
 62
     7
 10
156.23572300000001
 20
108.096411
 30
0.0
 40
1.249889
 50
0.00001
 51
89.999980000000008
  0
LINE
  5
F2
  8
0
 62
     7
 10
157.73500000000001
 20
116.01300000000001
 30
0.0
 11
162.90199999999999
 21
116.01300000000001
 31
0.0
  0
LINE
  5
F3
  8
0
 62
     7
 10
151.90199999999999
 20
116.01300000000001
 30
0.0
 11
157.73500000000001
 21
116.01300000000001
 31
0.0
  0
LINE
  5
F4
  8
0
 62
     7
 10
158.56899999999999
 20
101.01300000000001
 30
0.0
 11
158.56899999999999
 21
115.18000000000001
 31
0.0
  0
ARC
  5
F5
  8
0
 62
     7
 10
157.70405299999999
 20
115.147884
 30
0.0
 40
0.865285
 50
2.0987230000000001
 51
87.92495799999999
  0
LINE
  5
F6
  8
0
 62
     7
 10
157.73500000000001
 20
100.18000000000001
 30
0.0
 11
162.90199999999999
 21
100.18000000000001
 31
0.0
  0
LINE
  5
F7
  8
0
 62
     7
 10
151.90199999999999
 20
100.18000000000001
 30
0.0
 11
157.73500000000001
 21
100.18000000000001
 31
0.0
  0
ARC
  5
F8
  8
0
 62
     7
 10
157.70373799999999
 20
101.044563
 30
0.0
 40
0.86561
 50
272.09507500000001
 51
357.88124399999998
  0
LINE
  5
F9
  8
0
 62
     7
 10
152.959
 20
82.187799999999996
 30
0.0
 11
151.48599999999999
 21
81.792299999999997
 31
0.0
  0
LINE
  5
FA
  8
0
 62
     7
 10
151.48599999999999
 20
81.792299999999997
 30
0.0
 11
152.959
 21
81.397400000000005
 31
0.0
  0
LINE
  5
FB
  8
0
 62
     7
 10
152.959
 20
81.397400000000005
 30
0.0
 11
152.959
 21
82.187799999999996
 31
0.0
  0
LINE
  5
FC
  8
0
 62
     7
 10
162.511
 20
81.375399999999985
 30
0.0
 11
163.98599999999999
 21
81.770200000000003
 31
0.0
  0
LINE
  5
FD
  8
0
 62
     7
 10
163.98599999999999
 20
81.770200000000003
 30
0.0
 11
162.511
 21
82.165000000000006
 31
0.0
  0
LINE
  5
FE
  8
0
 62
     7
 10
162.511
 20
82.165000000000006
 30
0.0
 11
162.511
 21
81.375399999999985
 31
0.0
  0
LINE
  5
FF
  8
0
 62
     7
 10
161.292
 20
88.876800000000003
 30
0.0
 11
159.81899999999999
 21
88.481300000000005
 31
0.0
  0
LINE
  5
100
  8
0
 62
     7
 10
159.81899999999999
 20
88.481300000000005
 30
0.0
 11
161.292
 21
88.086500000000001
 31
0.0
  0
LINE
  5
101
  8
0
 62
     7
 10
161.292
 20
88.086500000000001
 30
0.0
 11
161.292
 21
88.876800000000003
 31
0.0
  0
LINE
  5
102
  8
0
 62
     7
 10
162.511
 20
88.094099999999983
 30
0.0
 11
163.98599999999999
 21
88.488900000000001
 31
0.0
  0
LINE
  5
103
  8
0
 62
     7
 10
163.98599999999999
 20
88.488900000000001
 30
0.0
 11
162.511
 21
88.883700000000005
 31
0.0
  0
LINE
  5
104
  8
0
 62
     7
 10
162.511
 20
88.883700000000005
 30
0.0
 11
162.511
 21
88.094099999999983
 31
0.0
  0
LINE
  5
105
  8
0
 62
     7
 10
159.81899999999999
 20
88.481300000000005
 30
0.0
 11
174.12899999999999
 21
88.481300000000005
 31
0.0
  0
LINE
  5
106
  8
0
 62
     7
 10
151.48599999999999
 20
81.288600000000017
 30
0.0
 11
151.48599999999999
 21
95.656800000000004
 31
0.0
  0
LINE
  5
107
  8
0
 62
     7
 10
159.81899999999999
 20
88.025800000000004
 30
0.0
 11
159.81899999999999
 21
94.288399999999996
 31
0.0
  0
LINE
  5
108
  8
0
  6
AIGENLINE001
 62
     7
 10
159.81899999999999
 20
101.041
 30
0.0
 11
159.81899999999999
 21
94.988399999999984
 31
0.0
  0
LINE
  5
109
  8
0
 62
     7
 10
163.98599999999999
 20
101.001
 30
0.0
 11
163.98599999999999
 21
81.288600000000017
 31
0.0
  0
LINE
  5
10A
  8
0
 62
     7
 10
116.279
 20
182.34700000000001
 30
0.0
 11
115.884
 21
180.87299999999999
 31
0.0
  0
LINE
  5
10B
  8
0
 62
     7
 10
115.884
 20
180.87299999999999
 30
0.0
 11
115.489
 21
182.34700000000001
 31
0.0
  0
LINE
  5
10C
  8
0
 62
     7
 10
115.489
 20
182.34700000000001
 30
0.0
 11
116.279
 21
182.34700000000001
 31
0.0
  0
LINE
  5
10D
  8
0
 62
     7
 10
115.489
 20
177.732
 30
0.0
 11
115.884
 21
179.20599999999999
 31
0.0
  0
LINE
  5
10E
  8
0
 62
     7
 10
115.884
 20
179.20599999999999
 30
0.0
 11
116.279
 21
177.732
 31
0.0
  0
LINE
  5
10F
  8
0
 62
     7
 10
116.279
 20
177.732
 30
0.0
 11
115.489
 21
177.732
 31
0.0
  0
LINE
  5
110
  8
0
 62
     7
 10
115.496
 20
191.899
 30
0.0
 11
115.89100000000001
 21
193.37299999999999
 31
0.0
  0
LINE
  5
111
  8
0
 62
     7
 10
115.89100000000001
 20
193.37299999999999
 30
0.0
 11
116.286
 21
191.899
 31
0.0
  0
LINE
  5
112
  8
0
 62
     7
 10
116.286
 20
191.899
 30
0.0
 11
115.496
 21
191.899
 31
0.0
  0
LINE
  5
113
  8
0
 62
     7
 10
115.884
 20
175.66800000000001
 30
0.0
 11
115.884
 21
193.37299999999999
 31
0.0
  0
LINE
  5
114
  8
0
 62
     7
 10
123.19
 20
174.49199999999999
 30
0.0
 11
146.56200000000001
 21
174.49199999999999
 31
0.0
  0
LINE
  5
115
  8
0
 62
     7
 10
63.0777
 20
207.84200000000001
 30
0.0
 11
53.919400000000003
 21
207.84200000000001
 31
0.0
  0
LINE
  5
116
  8
0
 62
     7
 10
61.387500000000003
 20
166.58600000000001
 30
0.0
 11
52.791600000000003
 21
166.58600000000001
 31
0.0
  0
LINE
  5
117
  8
0
 62
     7
 10
85.336200000000005
 20
177.44900000000001
 30
0.0
 11
85.573300000000003
 21
178.9559999999999
 31
0.0
  0
LINE
  5
118
  8
0
 62
     7
 10
85.573300000000003
 20
178.9559999999999
 30
0.0
 11
86.121700000000004
 21
177.53200000000001
 31
0.0
  0
LINE
  5
119
  8
0
 62
     7
 10
86.121700000000004
 20
177.53200000000001
 30
0.0
 11
85.336200000000005
 21
177.44900000000001
 31
0.0
  0
LINE
  5
11A
  8
0
 62
     7
 10
87.468800000000002
 20
160.99100000000001
 30
0.0
 11
85.566399999999987
 21
178.9559999999999
 31
0.0
  0
LINE
  5
11B
  8
0
 62
     7
 10
67.887100000000004
 20
185.89599999999999
 30
0.0
 11
67.790599999999998
 21
184.37299999999999
 31
0.0
  0
LINE
  5
11C
  8
0
 62
     7
 10
67.790599999999998
 20
184.37299999999999
 30
0.0
 11
67.113
 21
185.7409999999999
 31
0.0
  0
LINE
  5
11D
  8
0
 62
     7
 10
67.113
 20
185.7409999999999
 30
0.0
 11
67.887100000000004
 21
185.89599999999999
 31
0.0
  0
LINE
  5
11E
  8
0
 62
     7
 10
63.0777
 20
207.84200000000001
 30
0.0
 11
67.797799999999995
 21
184.375
 31
0.0
  0
LINE
  5
11F
  8
0
 62
     7
 10
70.586299999999994
 20
177.44900000000001
 30
0.0
 11
70.823700000000002
 21
178.9559999999999
 31
0.0
  0
LINE
  5
120
  8
0
 62
     7
 10
70.823700000000002
 20
178.9559999999999
 30
0.0
 11
71.371799999999993
 21
177.53200000000001
 31
0.0
  0
LINE
  5
121
  8
0
 62
     7
 10
71.371799999999993
 20
177.53200000000001
 30
0.0
 11
70.586299999999994
 21
177.44900000000001
 31
0.0
  0
LINE
  5
122
  8
0
 62
     7
 10
72.719200000000001
 20
160.99100000000001
 30
0.0
 11
70.816500000000005
 21
178.9559999999999
 31
0.0
  0
LINE
  5
123
  8
0
 62
     7
 10
65.232299999999995
 20
171.529
 30
0.0
 11
66.503500000000003
 21
172.37299999999999
 31
0.0
  0
LINE
  5
124
  8
0
 62
     7
 10
66.503500000000003
 20
172.37299999999999
 30
0.0
 11
65.8245
 21
171.00599999999989
 31
0.0
  0
LINE
  5
125
  8
0
 62
     7
 10
65.8245
 20
171.00599999999989
 30
0.0
 11
65.232299999999995
 21
171.529
 31
0.0
  0
LINE
  5
126
  8
0
 62
     7
 10
61.387500000000003
 20
166.58600000000001
 30
0.0
 11
66.498000000000005
 21
172.37799999999999
 31
0.0
  0
LINE
  5
127
  8
0
 62
     7
 10
88.561199999999999
 20
151.648
 30
0.0
 11
97.302199999999999
 21
151.648
 31
0.0
  0
LINE
  5
128
  8
0
 62
     7
 10
111.761
 20
179.20599999999999
 30
0.0
 11
116.23399999999999
 21
179.20599999999999
 31
0.0
  0
LINE
  5
129
  8
0
 62
     7
 10
111.761
 20
180.87299999999999
 30
0.0
 11
116.23399999999999
 21
180.87299999999999
 31
0.0
  0
LINE
  5
12A
  8
0
 62
     7
 10
93.643499999999989
 20
193.37299999999999
 30
0.0
 11
116.23399999999999
 21
193.37299999999999
 31
0.0
  0
LINE
  5
12B
  8
0
 62
     7
 10
35.153599999999997
 20
183.18100000000001
 30
0.0
 11
35.5488
 21
181.70699999999999
 31
0.0
  0
LINE
  5
12C
  8
0
 62
     7
 10
35.5488
 20
181.70699999999999
 30
0.0
 11
35.943899999999999
 21
183.18100000000001
 31
0.0
  0
LINE
  5
12D
  8
0
 62
     7
 10
35.943899999999999
 20
183.18100000000001
 30
0.0
 11
35.153599999999997
 21
183.18100000000001
 31
0.0
  0
LINE
  5
12E
  8
0
 62
     7
 10
35.943899999999999
 20
179.815
 30
0.0
 11
35.5488
 21
181.28999999999999
 31
0.0
  0
LINE
  5
12F
  8
0
 62
     7
 10
35.5488
 20
181.28999999999999
 30
0.0
 11
35.153599999999997
 21
179.815
 31
0.0
  0
LINE
  5
130
  8
0
 62
     7
 10
35.153599999999997
 20
179.815
 30
0.0
 11
35.943899999999999
 21
179.815
 31
0.0
  0
LINE
  5
131
  8
0
 62
     7
 10
84.716499999999996
 20
156.59100000000001
 30
0.0
 11
83.445200000000014
 21
157.435
 31
0.0
  0
LINE
  5
132
  8
0
 62
     7
 10
83.445200000000014
 20
157.435
 30
0.0
 11
84.124300000000005
 21
156.06800000000001
 31
0.0
  0
LINE
  5
133
  8
0
 62
     7
 10
84.124300000000005
 20
156.06800000000001
 30
0.0
 11
84.716499999999996
 21
156.59100000000001
 31
0.0
  0
LINE
  5
134
  8
0
 62
     7
 10
88.561199999999999
 20
151.648
 30
0.0
 11
83.450699999999983
 21
157.43899999999999
 31
0.0
  0
LINE
  5
135
  8
0
 62
     7
 10
35.936399999999999
 20
191.899
 30
0.0
 11
35.541600000000003
 21
193.37299999999999
 31
0.0
  0
LINE
  5
136
  8
0
 62
     7
 10
35.541600000000003
 20
193.37299999999999
 30
0.0
 11
35.1464
 21
191.899
 31
0.0
  0
LINE
  5
137
  8
0
 62
     7
 10
35.1464
 20
191.899
 30
0.0
 11
35.936399999999999
 21
191.899
 31
0.0
  0
LINE
  5
138
  8
0
 62
     7
 10
35.5488
 20
174.209
 30
0.0
 11
35.5488
 21
193.37299999999999
 31
0.0
  0
LINE
  5
139
  8
0
 62
     7
 10
41.986699999999992
 20
181.28999999999999
 30
0.0
 11
35.198799999999999
 21
181.28999999999999
 31
0.0
  0
LINE
  5
13A
  8
0
  6
AIGENLINE002
 62
     7
 10
111.03700000000001
 20
180.87299999999999
 30
0.0
 11
55.497399999999992
 21
180.87299999999999
 31
0.0
  0
LINE
  5
13B
  8
0
 62
     7
 10
149.81899999999999
 20
113.096
 30
0.0
 11
149.56899999999999
 21
113.096
 31
0.0
  0
LINE
  5
13C
  8
0
 62
     7
 10
149.81899999999999
 20
113.096
 30
0.0
 11
149.81899999999999
 21
103.096
 31
0.0
  0
LINE
  5
13D
  8
0
 62
     7
 10
149.81899999999999
 20
103.096
 30
0.0
 11
149.56899999999999
 21
103.096
 31
0.0
  0
LINE
  5
13E
  8
0
 62
     7
 10
149.56899999999999
 20
113.096
 30
0.0
 11
149.56899999999999
 21
103.096
 31
0.0
  0
LINE
  5
13F
  8
0
  6
AIGENLINE002
 62
     7
 10
111.03700000000001
 20
179.20599999999999
 30
0.0
 11
55.497399999999992
 21
179.20599999999999
 31
0.0
  0
LINE
  5
140
  8
0
 62
     7
 10
42.095199999999998
 20
181.70699999999999
 30
0.0
 11
35.198799999999999
 21
181.70699999999999
 31
0.0
  0
LINE
  5
141
  8
0
 62
     7
 10
57.789099999999991
 20
193.37299999999999
 30
0.0
 11
35.198799999999999
 21
193.37299999999999
 31
0.0
  0
LINE
  5
142
  8
0
 62
     7
 10
98.920000000000016
 20
200.34800000000001
 30
0.0
 11
97.445499999999996
 21
199.953
 31
0.0
  0
LINE
  5
143
  8
0
 62
     7
 10
97.445499999999996
 20
199.953
 30
0.0
 11
98.920000000000016
 21
199.55799999999999
 31
0.0
  0
LINE
  5
144
  8
0
 62
     7
 10
98.920000000000016
 20
199.55799999999999
 30
0.0
 11
98.920000000000016
 21
200.34800000000001
 31
0.0
  0
LINE
  5
145
  8
0
 62
     7
 10
95.971699999999998
 20
199.55799999999999
 30
0.0
 11
97.445499999999996
 21
199.953
 31
0.0
  0
LINE
  5
146
  8
0
 62
     7
 10
97.445499999999996
 20
199.953
 30
0.0
 11
95.971699999999998
 21
200.34800000000001
 31
0.0
  0
LINE
  5
147
  8
0
 62
     7
 10
95.971699999999998
 20
200.34800000000001
 30
0.0
 11
95.971699999999998
 21
199.55799999999999
 31
0.0
  0
LINE
  5
148
  8
0
 62
     7
 10
116.643
 20
98.403899999999993
 30
0.0
 11
117.038
 21
96.929400000000001
 31
0.0
  0
LINE
  5
149
  8
0
 62
     7
 10
117.038
 20
96.929400000000001
 30
0.0
 11
117.43300000000001
 21
98.403899999999993
 31
0.0
  0
LINE
  5
14A
  8
0
 62
     7
 10
117.43300000000001
 20
98.403899999999993
 30
0.0
 11
116.643
 21
98.403899999999993
 31
0.0
  0
LINE
  5
14B
  8
0
 62
     7
 10
117.43300000000001
 20
106.622
 30
0.0
 11
117.038
 21
108.096
 31
0.0
  0
LINE
  5
14C
  8
0
 62
     7
 10
117.038
 20
108.096
 30
0.0
 11
116.643
 21
106.622
 31
0.0
  0
LINE
  5
14D
  8
0
 62
     7
 10
116.643
 20
106.622
 30
0.0
 11
117.43300000000001
 21
106.622
 31
0.0
  0
LINE
  5
14E
  8
0
 62
     7
 10
148.34399999999999
 20
81.397400000000005
 30
0.0
 11
149.81899999999999
 21
81.792299999999997
 31
0.0
  0
LINE
  5
14F
  8
0
 62
     7
 10
149.81899999999999
 20
81.792299999999997
 30
0.0
 11
148.34399999999999
 21
82.187099999999987
 31
0.0
  0
LINE
  5
150
  8
0
 62
     7
 10
148.34399999999999
 20
82.187099999999987
 30
0.0
 11
148.34399999999999
 21
81.397400000000005
 31
0.0
  0
LINE
  5
151
  8
0
 62
     7
 10
124.626
 20
82.187099999999987
 30
0.0
 11
123.152
 21
81.792299999999997
 31
0.0
  0
LINE
  5
152
  8
0
 62
     7
 10
123.152
 20
81.792299999999997
 30
0.0
 11
124.626
 21
81.397400000000005
 31
0.0
  0
LINE
  5
153
  8
0
 62
     7
 10
124.626
 20
81.397400000000005
 30
0.0
 11
124.626
 21
82.187099999999987
 31
0.0
  0
LINE
  5
154
  8
0
 62
     7
 10
139.53299999999999
 20
111.154
 30
0.0
 11
139.929
 21
109.68000000000001
 31
0.0
  0
LINE
  5
155
  8
0
 62
     7
 10
139.929
 20
109.68000000000001
 30
0.0
 11
140.32299999999989
 21
111.154
 31
0.0
  0
LINE
  5
156
  8
0
 62
     7
 10
140.32299999999989
 20
111.154
 30
0.0
 11
139.53299999999999
 21
111.154
 31
0.0
  0
LINE
  5
157
  8
0
 62
     7
 10
140.32299999999989
 20
105.039
 30
0.0
 11
139.929
 21
106.51300000000001
 31
0.0
  0
LINE
  5
158
  8
0
 62
     7
 10
139.929
 20
106.51300000000001
 30
0.0
 11
139.53299999999999
 21
105.039
 31
0.0
  0
LINE
  5
159
  8
0
 62
     7
 10
139.53299999999999
 20
105.039
 30
0.0
 11
140.32299999999989
 21
105.039
 31
0.0
  0
LINE
  5
15A
  8
0
 62
     7
 10
83.336699999999993
 20
123.983
 30
0.0
 11
81.862200000000001
 21
123.58799999999999
 31
0.0
  0
LINE
  5
15B
  8
0
 62
     7
 10
81.862200000000001
 20
123.58799999999999
 30
0.0
 11
83.336699999999993
 21
123.193
 31
0.0
  0
LINE
  5
15C
  8
0
 62
     7
 10
83.336699999999993
 20
123.193
 30
0.0
 11
83.336699999999993
 21
123.983
 31
0.0
  0
LINE
  5
15D
  8
0
 62
     7
 10
80.388000000000005
 20
123.193
 30
0.0
 11
81.862200000000001
 21
123.58799999999999
 31
0.0
  0
LINE
  5
15E
  8
0
 62
     7
 10
81.862200000000001
 20
123.58799999999999
 30
0.0
 11
80.388000000000005
 21
123.983
 31
0.0
  0
LINE
  5
15F
  8
0
 62
     7
 10
80.388000000000005
 20
123.983
 30
0.0
 11
80.388000000000005
 21
123.193
 31
0.0
  0
LINE
  5
160
  8
0
 62
     7
 10
70.336500000000001
 20
123.983
 30
0.0
 11
68.861999999999995
 21
123.58799999999999
 31
0.0
  0
LINE
  5
161
  8
0
 62
     7
 10
68.861999999999995
 20
123.58799999999999
 30
0.0
 11
70.336500000000001
 21
123.193
 31
0.0
  0
LINE
  5
162
  8
0
 62
     7
 10
70.336500000000001
 20
123.193
 30
0.0
 11
70.336500000000001
 21
123.983
 31
0.0
  0
LINE
  5
163
  8
0
 62
     7
 10
67.387900000000002
 20
123.193
 30
0.0
 11
68.861999999999995
 21
123.58799999999999
 31
0.0
  0
LINE
  5
164
  8
0
 62
     7
 10
68.861999999999995
 20
123.58799999999999
 30
0.0
 11
67.387900000000002
 21
123.983
 31
0.0
  0
LINE
  5
165
  8
0
 62
     7
 10
67.387900000000002
 20
123.983
 30
0.0
 11
67.387900000000002
 21
123.193
 31
0.0
  0
LINE
  5
166
  8
0
 62
     7
 10
65.335599999999999
 20
174.76400000000001
 30
0.0
 11
63.861800000000002
 21
174.369
 31
0.0
  0
LINE
  5
167
  8
0
 62
     7
 10
63.861800000000002
 20
174.369
 30
0.0
 11
65.335599999999999
 21
173.97399999999999
 31
0.0
  0
LINE
  5
168
  8
0
 62
     7
 10
65.335599999999999
 20
173.97399999999999
 30
0.0
 11
65.335599999999999
 21
174.76400000000001
 31
0.0
  0
LINE
  5
169
  8
0
 62
     7
 10
72.387399999999985
 20
173.97399999999999
 30
0.0
 11
73.861900000000006
 21
174.369
 31
0.0
  0
LINE
  5
16A
  8
0
 62
     7
 10
73.861900000000006
 20
174.369
 30
0.0
 11
72.387399999999985
 21
174.76400000000001
 31
0.0
  0
LINE
  5
16B
  8
0
 62
     7
 10
72.387399999999985
 20
174.76400000000001
 30
0.0
 11
72.387399999999985
 21
173.97399999999999
 31
0.0
  0
LINE
  5
16C
  8
0
 62
     7
 10
55.585900000000002
 20
200.34800000000001
 30
0.0
 11
54.112099999999998
 21
199.953
 31
0.0
  0
LINE
  5
16D
  8
0
 62
     7
 10
54.112099999999998
 20
199.953
 30
0.0
 11
55.585900000000002
 21
199.55799999999999
 31
0.0
  0
LINE
  5
16E
  8
0
 62
     7
 10
55.585900000000002
 20
199.55799999999999
 30
0.0
 11
55.585900000000002
 21
200.34800000000001
 31
0.0
  0
LINE
  5
16F
  8
0
 62
     7
 10
44.336199999999998
 20
200.34800000000001
 30
0.0
 11
42.861699999999999
 21
199.953
 31
0.0
  0
LINE
  5
170
  8
0
 62
     7
 10
42.861699999999999
 20
199.953
 30
0.0
 11
44.336199999999998
 21
199.55799999999999
 31
0.0
  0
LINE
  5
171
  8
0
 62
     7
 10
44.336199999999998
 20
199.55799999999999
 30
0.0
 11
44.336199999999998
 21
200.34800000000001
 31
0.0
  0
LINE
  5
172
  8
0
 62
     7
 10
52.637599999999999
 20
199.55799999999999
 30
0.0
 11
54.112099999999998
 21
199.953
 31
0.0
  0
LINE
  5
173
  8
0
 62
     7
 10
54.112099999999998
 20
199.953
 30
0.0
 11
52.637599999999999
 21
200.34800000000001
 31
0.0
  0
LINE
  5
174
  8
0
 62
     7
 10
52.637599999999999
 20
200.34800000000001
 30
0.0
 11
52.637599999999999
 21
199.55799999999999
 31
0.0
  0
LINE
  5
175
  8
0
 62
     7
 10
106.804
 20
199.565
 30
0.0
 11
108.279
 21
199.96000000000001
 31
0.0
  0
LINE
  5
176
  8
0
 62
     7
 10
108.279
 20
199.96000000000001
 30
0.0
 11
106.804
 21
200.35499999999999
 31
0.0
  0
LINE
  5
177
  8
0
 62
     7
 10
106.804
 20
200.35499999999999
 30
0.0
 11
106.804
 21
199.565
 31
0.0
  0
LINE
  5
178
  8
0
 62
     7
 10
150.691
 20
81.792299999999997
 30
0.0
 11
149.28399999999999
 21
77.747
 31
0.0
  0
LINE
  5
179
  8
0
 62
     7
 10
115.884
 20
180.13999999999999
 30
0.0
 11
123.19
 21
174.49199999999999
 31
0.0
  0
LINE
  5
17A
  8
0
 62
     7
 10
42.861699999999999
 20
199.953
 30
0.0
 11
108.279
 21
199.953
 31
0.0
  0
LINE
  5
17B
  8
0
 62
     7
 10
108.279
 20
182.232
 30
0.0
 11
108.279
 21
200.303
 31
0.0
  0
LINE
  5
17C
  8
0
 62
     7
 10
97.445499999999996
 20
186.732
 30
0.0
 11
97.445499999999996
 21
200.303
 31
0.0
  0
LINE
  5
17D
  8
0
 62
     7
 10
73.861900000000006
 20
173.66900000000001
 30
0.0
 11
73.861900000000006
 21
178.25599999999989
 31
0.0
  0
LINE
  5
17E
  8
0
 62
     7
 10
63.861800000000002
 20
173.66900000000001
 30
0.0
 11
63.861800000000002
 21
178.25599999999989
 31
0.0
  0
LINE
  5
17F
  8
0
 62
     7
 10
54.112099999999998
 20
193.05099999999999
 30
0.0
 11
54.112099999999998
 21
200.303
 31
0.0
  0
LINE
  5
180
  8
0
  6
AIGENLINE001
 62
     7
 10
81.861800000000002
 20
149.46299999999999
 30
0.0
 11
81.861800000000002
 21
194.483
 31
0.0
  0
LINE
  5
181
  8
0
  6
AIGENLINE001
 62
     7
 10
68.861999999999995
 20
170.27500000000001
 30
0.0
 11
68.861999999999995
 21
194.483
 31
0.0
  0
LINE
  5
182
  8
0
 62
     7
 10
42.861699999999999
 20
182.232
 30
0.0
 11
42.861699999999999
 21
200.303
 31
0.0
  0
LINE
  5
183
  8
0
 62
     7
 10
73.637699999999995
 20
89.260599999999997
 30
0.0
 11
75.112200000000001
 21
89.6554
 31
0.0
  0
LINE
  5
184
  8
0
 62
     7
 10
75.112200000000001
 20
89.6554
 30
0.0
 11
73.637699999999995
 21
90.050200000000004
 31
0.0
  0
LINE
  5
185
  8
0
 62
     7
 10
73.637699999999995
 20
90.050200000000004
 30
0.0
 11
73.637699999999995
 21
89.260599999999997
 31
0.0
  0
LINE
  5
186
  8
0
 62
     7
 10
73.086399999999998
 20
90.043300000000016
 30
0.0
 11
71.611900000000006
 21
89.647800000000004
 31
0.0
  0
LINE
  5
187
  8
0
 62
     7
 10
71.611900000000006
 20
89.647800000000004
 30
0.0
 11
73.086399999999998
 21
89.252999999999986
 31
0.0
  0
LINE
  5
188
  8
0
 62
     7
 10
73.086399999999998
 20
89.252999999999986
 30
0.0
 11
73.086399999999998
 21
90.043300000000016
 31
0.0
  0
LINE
  5
189
  8
0
 62
     7
 10
83.587000000000003
 20
89.647800000000004
 30
0.0
 11
71.611900000000006
 21
89.647800000000004
 31
0.0
  0
LINE
  5
18A
  8
0
 62
     7
 10
75.112200000000001
 20
89.297799999999995
 30
0.0
 11
75.112200000000001
 21
95.781499999999994
 31
0.0
  0
LINE
  5
18B
  8
0
 62
     7
 10
71.611900000000006
 20
89.297799999999995
 30
0.0
 11
71.611900000000006
 21
95.781499999999994
 31
0.0
  0
LINE
  5
18C
  8
0
 62
     7
 10
65.836500000000001
 20
85.088499999999996
 30
0.0
 11
64.361999999999995
 21
84.692999999999998
 31
0.0
  0
LINE
  5
18D
  8
0
 62
     7
 10
64.361999999999995
 20
84.692999999999998
 30
0.0
 11
65.836500000000001
 21
84.298199999999994
 31
0.0
  0
LINE
  5
18E
  8
0
 62
     7
 10
65.836500000000001
 20
84.298199999999994
 30
0.0
 11
65.836500000000001
 21
85.088499999999996
 31
0.0
  0
LINE
  5
18F
  8
0
 62
     7
 10
71.887900000000002
 20
84.305099999999996
 30
0.0
 11
73.361999999999995
 21
84.700599999999994
 31
0.0
  0
LINE
  5
190
  8
0
 62
     7
 10
73.361999999999995
 20
84.700599999999994
 30
0.0
 11
71.887900000000002
 21
85.095399999999984
 31
0.0
  0
LINE
  5
191
  8
0
 62
     7
 10
71.887900000000002
 20
85.095399999999984
 30
0.0
 11
71.887900000000002
 21
84.305099999999996
 31
0.0
  0
LINE
  5
192
  8
0
 62
     7
 10
64.361999999999995
 20
84.692999999999998
 30
0.0
 11
73.361999999999995
 21
84.692999999999998
 31
0.0
  0
LINE
  5
193
  8
0
 62
     7
 10
64.361999999999995
 20
84.342999999999975
 30
0.0
 11
64.361999999999995
 21
94.054100000000005
 31
0.0
  0
LINE
  5
194
  8
0
 62
     7
 10
73.361999999999995
 20
84.342999999999975
 30
0.0
 11
73.361999999999995
 21
94.054100000000005
 31
0.0
  0
LINE
  5
195
  8
0
  6
AIGENLINE001
 62
     7
 10
73.361999999999995
 20
98.183400000000006
 30
0.0
 11
73.361999999999995
 21
94.579099999999997
 31
0.0
  0
LINE
  5
196
  8
0
  6
AIGENLINE001
 62
     7
 10
64.361999999999995
 20
98.183400000000006
 30
0.0
 11
64.361999999999995
 21
94.579099999999997
 31
0.0
  0
LINE
  5
197
  8
0
 62
     7
 10
28.213799999999999
 20
114.538
 30
0.0
 11
27.818999999999999
 21
116.01300000000001
 31
0.0
  0
LINE
  5
198
  8
0
 62
     7
 10
27.818999999999999
 20
116.01300000000001
 30
0.0
 11
27.4238
 21
114.538
 31
0.0
  0
LINE
  5
199
  8
0
 62
     7
 10
27.4238
 20
114.538
 30
0.0
 11
28.213799999999999
 21
114.538
 31
0.0
  0
LINE
  5
19A
  8
0
 62
     7
 10
27.431100000000001
 20
97.487500000000011
 30
0.0
 11
27.825900000000001
 21
96.013000000000005
 31
0.0
  0
LINE
  5
19B
  8
0
 62
     7
 10
27.825900000000001
 20
96.013000000000005
 30
0.0
 11
28.221
 21
97.487500000000011
 31
0.0
  0
LINE
  5
19C
  8
0
 62
     7
 10
28.221
 20
97.487500000000011
 30
0.0
 11
27.431100000000001
 21
97.487500000000011
 31
0.0
  0
LINE
  5
19D
  8
0
 62
     7
 10
27.825900000000001
 20
116.01300000000001
 30
0.0
 11
27.825900000000001
 21
96.013000000000005
 31
0.0
  0
LINE
  5
19E
  8
0
 62
     7
 10
27.4758
 20
116.01300000000001
 30
0.0
 11
42.820399999999999
 21
116.01300000000001
 31
0.0
  0
LINE
  5
19F
  8
0
 62
     7
 10
39.2575
 20
106.622
 30
0.0
 11
38.862299999999998
 21
108.096
 31
0.0
  0
LINE
  5
1A0
  8
0
 62
     7
 10
38.862299999999998
 20
108.096
 30
0.0
 11
38.467100000000002
 21
106.622
 31
0.0
  0
LINE
  5
1A1
  8
0
 62
     7
 10
38.467100000000002
 20
106.622
 30
0.0
 11
39.2575
 21
106.622
 31
0.0
  0
LINE
  5
1A2
  8
0
 62
     7
 10
38.474400000000003
 20
97.487500000000011
 30
0.0
 11
38.869500000000002
 21
96.013000000000005
 31
0.0
  0
LINE
  5
1A3
  8
0
 62
     7
 10
38.869500000000002
 20
96.013000000000005
 30
0.0
 11
39.264299999999999
 21
97.487500000000011
 31
0.0
  0
LINE
  5
1A4
  8
0
 62
     7
 10
39.264299999999999
 20
97.487500000000011
 30
0.0
 11
38.474400000000003
 21
97.487500000000011
 31
0.0
  0
LINE
  5
1A5
  8
0
 62
     7
 10
38.869500000000002
 20
108.096
 30
0.0
 11
38.869500000000002
 21
96.013000000000005
 31
0.0
  0
LINE
  5
1A6
  8
0
 62
     7
 10
38.519500000000001
 20
108.096
 30
0.0
 11
40.878700000000002
 21
108.096
 31
0.0
  0
LINE
  5
1A7
  8
0
  6
AIGENLINE001
 62
     7
 10
81.862200000000001
 20
117.267
 30
0.0
 11
81.862200000000001
 21
95.659499999999994
 31
0.0
  0
LINE
  5
1A8
  8
0
  6
AIGENLINE001
 62
     7
 10
68.861999999999995
 20
117.39
 30
0.0
 11
68.861999999999995
 21
98.727800000000002
 31
0.0
  0
LINE
  5
1A9
  8
0
  6
AIGENLINE001
 62
     7
 10
109.774
 20
108.096
 30
0.0
 11
41.40379999999999
 21
108.096
 31
0.0
  0
LINE
  5
1AA
  8
0
 62
     7
 10
33.848300000000002
 20
114.538
 30
0.0
 11
33.453099999999999
 21
116.01300000000001
 31
0.0
  0
LINE
  5
1AB
  8
0
 62
     7
 10
33.453099999999999
 20
116.01300000000001
 30
0.0
 11
33.058
 21
114.538
 31
0.0
  0
LINE
  5
1AC
  8
0
 62
     7
 10
33.058
 20
114.538
 30
0.0
 11
33.848300000000002
 21
114.538
 31
0.0
  0
LINE
  5
1AD
  8
0
 62
     7
 10
33.065199999999997
 20
101.654
 30
0.0
 11
33.4604
 21
100.18000000000001
 31
0.0
  0
LINE
  5
1AE
  8
0
 62
     7
 10
33.4604
 20
100.18000000000001
 30
0.0
 11
33.855200000000004
 21
101.654
 31
0.0
  0
LINE
  5
1AF
  8
0
 62
     7
 10
33.855200000000004
 20
101.654
 30
0.0
 11
33.065199999999997
 21
101.654
 31
0.0
  0
LINE
  5
1B0
  8
0
 62
     7
 10
33.4604
 20
116.01300000000001
 30
0.0
 11
33.4604
 21
100.18000000000001
 31
0.0
  0
LINE
  5
1B1
  8
0
 62
     7
 10
33.110300000000009
 20
100.18000000000001
 30
0.0
 11
42.820399999999999
 21
100.18000000000001
 31
0.0
  0
LINE
  5
1B2
  8
0
 62
     7
 10
61.503999999999998
 20
96.013000000000005
 30
0.0
 11
27.4758
 21
96.013000000000005
 31
0.0
  0
LINE
  5
1B3
  8
0
 62
     7
 10
44.33659999999999
 20
130.10900000000001
 30
0.0
 11
42.862099999999991
 21
129.71299999999999
 31
0.0
  0
LINE
  5
1B4
  8
0
 62
     7
 10
42.862099999999991
 20
129.71299999999999
 30
0.0
 11
44.33659999999999
 21
129.3179999999999
 31
0.0
  0
LINE
  5
1B5
  8
0
 62
     7
 10
44.33659999999999
 20
129.3179999999999
 30
0.0
 11
44.33659999999999
 21
130.10900000000001
 31
0.0
  0
LINE
  5
1B6
  8
0
 62
     7
 10
106.804
 20
129.32499999999999
 30
0.0
 11
108.279
 21
129.721
 31
0.0
  0
LINE
  5
1B7
  8
0
 62
     7
 10
108.279
 20
129.721
 30
0.0
 11
106.804
 21
130.11600000000001
 31
0.0
  0
LINE
  5
1B8
  8
0
 62
     7
 10
106.804
 20
130.11600000000001
 30
0.0
 11
106.804
 21
129.32499999999999
 31
0.0
  0
LINE
  5
1B9
  8
0
 62
     7
 10
42.862099999999991
 20
129.71299999999999
 30
0.0
 11
108.279
 21
129.71299999999999
 31
0.0
  0
LINE
  5
1BA
  8
0
 62
     7
 10
44.33659999999999
 20
123.983
 30
0.0
 11
42.862099999999991
 21
123.58799999999999
 31
0.0
  0
LINE
  5
1BB
  8
0
 62
     7
 10
42.862099999999991
 20
123.58799999999999
 30
0.0
 11
44.33659999999999
 21
123.193
 31
0.0
  0
LINE
  5
1BC
  8
0
 62
     7
 10
44.33659999999999
 20
123.193
 30
0.0
 11
44.33659999999999
 21
123.983
 31
0.0
  0
LINE
  5
1BD
  8
0
 62
     7
 10
106.804
 20
123.2
 30
0.0
 11
108.279
 21
123.595
 31
0.0
  0
LINE
  5
1BE
  8
0
 62
     7
 10
108.279
 20
123.595
 30
0.0
 11
106.804
 21
123.98999999999999
 31
0.0
  0
LINE
  5
1BF
  8
0
 62
     7
 10
106.804
 20
123.98999999999999
 30
0.0
 11
106.804
 21
123.2
 31
0.0
  0
LINE
  5
1C0
  8
0
 62
     7
 10
42.862099999999991
 20
123.58799999999999
 30
0.0
 11
108.279
 21
123.58799999999999
 31
0.0
  0
LINE
  5
1C1
  8
0
 62
     7
 10
108.279
 20
115.92100000000001
 30
0.0
 11
108.279
 21
130.071
 31
0.0
  0
LINE
  5
1C2
  8
0
 62
     7
 10
81.862200000000001
 20
117.967
 30
0.0
 11
81.862200000000001
 21
123.938
 31
0.0
  0
LINE
  5
1C3
  8
0
 62
     7
 10
68.861999999999995
 20
118.09
 30
0.0
 11
68.861999999999995
 21
123.849
 31
0.0
  0
LINE
  5
1C4
  8
0
 62
     7
 10
42.861699999999999
 20
115.88
 30
0.0
 11
42.861699999999999
 21
130.06299999999999
 31
0.0
  0
ARC
  5
1C5
  8
0
 62
     7
 10
59.237068999999991
 20
186.80650399999999
 30
0.0
 40
0.972194
 50
236.147165
 51
303.85285499999998
  0
ARC
  5
1C6
  8
0
 62
     7
 10
58.153751999999997
 20
186.8067639999999
 30
0.0
 40
0.9725059999999999
 50
236.14724700000011
 51
303.85277300000001
  0
LINE
  5
1C7
  8
0
 62
     7
 10
59.77859999999999
 20
185.999
 30
0.0
 11
59.77859999999999
 21
185.83099999999999
 31
0.0
  0
LINE
  5
1C8
  8
0
 62
     7
 10
57.611999999999988
 20
185.999
 30
0.0
 11
57.611999999999988
 21
185.83099999999999
 31
0.0
  0
LINE
  5
1C9
  8
0
 62
     7
 10
92.028700000000001
 20
103.01300000000001
 30
0.0
 11
90.945599999999985
 21
102.389
 31
0.0
  0
LINE
  5
1CA
  8
0
 62
     7
 10
93.112200000000001
 20
102.389
 30
0.0
 11
92.028700000000001
 21
103.01300000000001
 31
0.0
  0
LINE
  5
1CB
  8
0
 62
     7
 10
93.112200000000001
 20
101.137
 30
0.0
 11
93.112200000000001
 21
102.389
 31
0.0
  0
LINE
  5
1CC
  8
0
 62
     7
 10
92.028700000000001
 20
100.512
 30
0.0
 11
93.112200000000001
 21
101.137
 31
0.0
  0
LINE
  5
1CD
  8
0
 62
     7
 10
90.945599999999985
 20
101.137
 30
0.0
 11
92.028700000000001
 21
100.512
 31
0.0
  0
LINE
  5
1CE
  8
0
 62
     7
 10
90.945599999999985
 20
102.389
 30
0.0
 11
90.945599999999985
 21
101.137
 31
0.0
  0
LINE
  5
1CF
  8
0
 62
     7
 10
57.612400000000001
 20
102.389
 30
0.0
 11
58.695500000000003
 21
103.01300000000001
 31
0.0
  0
LINE
  5
1D0
  8
0
 62
     7
 10
57.612400000000001
 20
101.137
 30
0.0
 11
57.612400000000001
 21
102.389
 31
0.0
  0
LINE
  5
1D1
  8
0
 62
     7
 10
58.695500000000003
 20
100.512
 30
0.0
 11
57.612400000000001
 21
101.137
 31
0.0
  0
LINE
  5
1D2
  8
0
 62
     7
 10
59.77859999999999
 20
101.137
 30
0.0
 11
58.695500000000003
 21
100.512
 31
0.0
  0
LINE
  5
1D3
  8
0
 62
     7
 10
59.77859999999999
 20
102.389
 30
0.0
 11
59.77859999999999
 21
101.137
 31
0.0
  0
LINE
  5
1D4
  8
0
 62
     7
 10
58.695500000000003
 20
103.01300000000001
 30
0.0
 11
59.77859999999999
 21
102.389
 31
0.0
  0
LINE
  5
1D5
  8
0
 62
     7
 10
90.945599999999985
 20
113.804
 30
0.0
 11
90.945599999999985
 21
115.05500000000001
 31
0.0
  0
LINE
  5
1D6
  8
0
 62
     7
 10
92.028700000000001
 20
113.179
 30
0.0
 11
90.945599999999985
 21
113.804
 31
0.0
  0
LINE
  5
1D7
  8
0
 62
     7
 10
93.112200000000001
 20
113.804
 30
0.0
 11
92.028700000000001
 21
113.179
 31
0.0
  0
LINE
  5
1D8
  8
0
 62
     7
 10
93.112200000000001
 20
115.05500000000001
 30
0.0
 11
93.112200000000001
 21
113.804
 31
0.0
  0
LINE
  5
1D9
  8
0
 62
     7
 10
92.028700000000001
 20
115.68000000000001
 30
0.0
 11
93.112200000000001
 21
115.05500000000001
 31
0.0
  0
LINE
  5
1DA
  8
0
 62
     7
 10
90.945599999999985
 20
115.05500000000001
 30
0.0
 11
92.028700000000001
 21
115.68000000000001
 31
0.0
  0
LINE
  5
1DB
  8
0
 62
     7
 10
58.695500000000003
 20
113.179
 30
0.0
 11
59.77859999999999
 21
113.804
 31
0.0
  0
LINE
  5
1DC
  8
0
 62
     7
 10
58.695500000000003
 20
115.68000000000001
 30
0.0
 11
59.77859999999999
 21
115.05500000000001
 31
0.0
  0
LINE
  5
1DD
  8
0
 62
     7
 10
57.612400000000001
 20
115.05500000000001
 30
0.0
 11
57.612400000000001
 21
113.804
 31
0.0
  0
LINE
  5
1DE
  8
0
 62
     7
 10
57.612400000000001
 20
113.804
 30
0.0
 11
58.695500000000003
 21
113.179
 31
0.0
  0
LINE
  5
1DF
  8
0
 62
     7
 10
59.77859999999999
 20
115.05500000000001
 30
0.0
 11
59.77859999999999
 21
113.804
 31
0.0
  0
LINE
  5
1E0
  8
0
 62
     7
 10
57.612400000000001
 20
115.05500000000001
 30
0.0
 11
58.695500000000003
 21
115.68000000000001
 31
0.0
  0
LINE
  5
1E1
  8
0
 62
     7
 10
73.408199999999994
 20
110.179
 30
0.0
 11
77.315700000000007
 21
110.179
 31
0.0
  0
LINE
  5
1E2
  8
0
 62
     7
 10
73.408199999999994
 20
106.01300000000001
 30
0.0
 11
77.315700000000007
 21
106.01300000000001
 31
0.0
  0
LINE
  5
1E3
  8
0
 62
     7
 10
67.953900000000004
 20
189.447
 30
0.0
 11
67.953900000000004
 21
191.53999999999999
 31
0.0
  0
ARC
  5
1E4
  8
0
 62
     7
 10
67.650475999999983
 20
189.40781000000001
 30
0.0
 40
0.305607
 50
314.771593
 51
7.3673019999999996
  0
ARC
  5
1E5
  8
0
 62
     7
 10
65.642103000000006
 20
191.485961
 30
0.0
 40
3.1956129999999998
 50
304.60887400000001
 51
314.0934870000001
  0
ARC
  5
1E6
  8
0
 62
     7
 10
66.103696999999997
 20
190.816937
 30
0.0
 40
2.3832270000000002
 50
280.85292399999997
 51
304.603545
  0
ARC
  5
1E7
  8
0
 62
     7
 10
66.246134999999995
 20
190.069694
 30
0.0
 40
1.6225309999999991
 50
270.49967299999997
 51
280.88139200000001
  0
ARC
  5
1E8
  8
0
 62
     7
 10
66.259687
 20
188.58839699999999
 30
0.0
 40
0.141173
 50
219.70386199999999
 51
270.24258800000001
  0
ARC
  5
1E9
  8
0
 62
     7
 10
66.85234100000001
 20
189.0683929999999
 30
0.0
 40
0.9038139999999998
 50
173.88502299999999
 51
219.11361199999999
  0
LINE
  5
1EA
  8
0
 62
     7
 10
65.953699999999984
 20
191.53999999999999
 30
0.0
 11
65.953699999999984
 21
189.16499999999999
 31
0.0
  0
LINE
  5
1EB
  8
0
 62
     7
 10
67.953900000000004
 20
191.53999999999999
 30
0.0
 11
65.953699999999984
 21
191.53999999999999
 31
0.0
  0
LINE
  5
1EC
  8
0
 62
     7
 10
69.787400000000005
 20
189.447
 30
0.0
 11
69.787400000000005
 21
191.53999999999999
 31
0.0
  0
ARC
  5
1ED
  8
0
 62
     7
 10
70.087769999999992
 20
189.406881
 30
0.0
 40
0.303042
 50
172.39272600000001
 51
225.468379
  0
ARC
  5
1EE
  8
0
 62
     7
 10
72.210461999999993
 20
191.62020799999999
 30
0.0
 40
3.3699559999999988
 50
226.12770499999999
 51
235.13073
  0
ARC
  5
1EF
  8
0
 62
     7
 10
71.627146999999994
 20
190.79015799999999
 30
0.0
 40
2.355027999999999
 50
235.22184799999999
 51
259.26604900000001
  0
ARC
  5
1F0
  8
0
 62
     7
 10
71.495956999999976
 20
190.08091200000001
 30
0.0
 40
1.6337609999999989
 50
259.15376800000001
 51
269.45185800000002
  0
ARC
  5
1F1
  8
0
 62
     7
 10
71.481571000000002
 20
188.58774199999999
 30
0.0
 40
0.140523
 50
269.492571
 51
320.42281000000003
  0
ARC
  5
1F2
  8
0
 62
     7
 10
70.884265999999997
 20
189.0692149999999
 30
0.0
 40
0.907709
 50
321.01934199999999
 51
6.0364889999999987
  0
LINE
  5
1F3
  8
0
 62
     7
 10
71.786900000000003
 20
191.53999999999999
 30
0.0
 11
71.786900000000003
 21
189.16499999999999
 31
0.0
  0
LINE
  5
1F4
  8
0
 62
     7
 10
69.787400000000005
 20
191.53999999999999
 30
0.0
 11
71.786900000000003
 21
191.53999999999999
 31
0.0
  0
ARC
  5
1F5
  8
0
 62
     7
 10
66.436432999999994
 20
187.26131699999999
 30
0.0
 40
1.0664029999999991
 50
159.76151400000001
 51
178.46739500000001
  0
ARC
  5
1F6
  8
0
 62
     7
 10
65.563614000000001
 20
187.58244999999999
 30
0.0
 40
0.13665
 50
50.519232000000002
 51
89.971586000000002
  0
ARC
  5
1F7
  8
0
 62
     7
 10
65.565942000000007
 20
187.579511
 30
0.0
 40
0.139607
 50
90.927506999999991
 51
158.70334199999999
  0
ARC
  5
1F8
  8
0
 62
     7
 10
64.830764000000002
 20
186.701098
 30
0.0
 40
1.2828820000000001
 50
22.656445000000001
 51
50.284269000000009
  0
ARC
  5
1F9
  8
0
 62
     7
 10
63.974143000000012
 20
186.34847600000001
 30
0.0
 40
2.2092350000000001
 50
353.69677300000001
 51
22.538060999999999
  0
ARC
  5
1FA
  8
0
 62
     7
 10
71.311361000000005
 20
187.26162600000001
 30
0.0
 40
1.059558999999999
 50
1.5257459999999989
 51
20.357132
  0
ARC
  5
1FB
  8
0
 62
     7
 10
72.175071000000003
 20
187.58009699999999
 30
0.0
 40
0.13902
 50
21.131826
 51
89.092243000000011
  0
ARC
  5
1FC
  8
0
 62
     7
 10
72.177216999999999
 20
187.58183600000001
 30
0.0
 40
0.137264
 50
89.976247000000015
 51
129.38875100000001
  0
ARC
  5
1FD
  8
0
 62
     7
 10
72.90798199999999
 20
186.7024759999999
 30
0.0
 40
1.280629999999999
 50
129.69093699999999
 51
157.36831000000001
  0
ARC
  5
1FE
  8
0
 62
     7
 10
73.77816
 20
186.34680900000001
 30
0.0
 40
2.2206749999999991
 50
157.537802
 51
186.22736399999999
  0
ARC
  5
1FF
  8
0
 62
     7
 10
71.181730000000002
 20
188.87687299999999
 30
0.0
 40
1.8858470000000001
 50
308.71561200000002
 51
34.454126000000002
  0
ARC
  5
200
  8
0
 62
     7
 10
71.268512999999999
 20
188.84631099999999
 30
0.0
 40
1.833084999999999
 50
36.777047000000003
 51
73.571527000000003
  0
ARC
  5
201
  8
0
 62
     7
 10
66.488365000000002
 20
188.85761199999999
 30
0.0
 40
1.826941999999999
 50
107.018012
 51
197.00870699999999
  0
ARC
  5
202
  8
0
 62
     7
 10
66.500861999999998
 20
188.86616900000001
 30
0.0
 40
1.841400999999999
 50
197.14956599999999
 51
232.493143
  0
LINE
  5
203
  8
0
 62
     7
 10
107.446
 20
116.05500000000001
 30
0.0
 11
97.362099999999984
 21
116.05500000000001
 31
0.0
  0
LINE
  5
204
  8
0
 62
     7
 10
107.446
 20
100.221
 30
0.0
 11
97.362099999999984
 21
100.221
 31
0.0
  0
LINE
  5
205
  8
0
 62
     7
 10
95.612300000000005
 20
193.03999999999999
 30
0.0
 11
95.862099999999984
 21
193.03999999999999
 31
0.0
  0
LINE
  5
206
  8
0
 62
     7
 10
95.862099999999984
 20
192.62299999999999
 30
0.0
 11
95.612300000000005
 21
192.62299999999999
 31
0.0
  0
ARC
  5
207
  8
0
 62
     7
 10
95.848962000000014
 20
192.27676
 30
0.0
 40
0.346886
 50
2.172350999999999
 51
87.827639000000005
  0
LINE
  5
208
  8
0
 62
     7
 10
96.612099999999998
 20
187.95699999999999
 30
0.0
 11
97.028999999999996
 21
187.95699999999999
 31
0.0
  0
LINE
  5
209
  8
0
 62
     7
 10
96.612099999999998
 20
192.28999999999999
 30
0.0
 11
96.612099999999998
 21
187.38399999999999
 31
0.0
  0
LINE
  5
20A
  8
0
 62
     7
 10
95.612300000000005
 20
192.62299999999999
 30
0.0
 11
95.612300000000005
 21
193.03999999999999
 31
0.0
  0
ARC
  5
20B
  8
0
 62
     7
 10
95.833304999999996
 20
192.26092499999999
 30
0.0
 40
0.7793470000000001
 50
2.131365999999999
 51
87.881784999999994
  0
LINE
  5
20C
  8
0
 62
     7
 10
96.612099999999998
 20
100.929
 30
0.0
 11
96.612099999999998
 21
115.26300000000001
 31
0.0
  0
LINE
  5
20D
  8
0
 62
     7
 10
96.195599999999985
 20
100.929
 30
0.0
 11
96.195599999999985
 21
115.26300000000001
 31
0.0
  0
ARC
  5
20E
  8
0
 62
     7
 10
95.282447000000005
 20
103.634131
 30
0.0
 40
0.087042
 50
92.140053000000009
 51
177.62364700000001
  0
LINE
  5
20F
  8
0
 62
     7
 10
96.195599999999985
 20
103.721
 30
0.0
 11
95.279199999999989
 21
103.721
 31
0.0
  0
ARC
  5
210
  8
0
 62
     7
 10
95.282118000000011
 20
102.141015
 30
0.0
 40
0.0867
 50
182.167563
 51
268.068738
  0
LINE
  5
211
  8
0
 62
     7
 10
95.279199999999989
 20
102.054
 30
0.0
 11
96.195599999999985
 21
102.054
 31
0.0
  0
LINE
  5
212
  8
0
 62
     7
 10
96.195599999999985
 20
100.929
 30
0.0
 11
96.612099999999998
 21
100.929
 31
0.0
  0
LINE
  5
213
  8
0
 62
     7
 10
96.612099999999998
 20
100.929
 30
0.0
 11
96.612099999999998
 21
100.37
 31
0.0
  0
LINE
  5
214
  8
0
 62
     7
 10
96.612099999999998
 20
100.18000000000001
 30
0.0
 11
96.195599999999985
 21
100.18000000000001
 31
0.0
  0
LINE
  5
215
  8
0
 62
     7
 10
96.612099999999998
 20
100.221
 30
0.0
 11
96.612099999999998
 21
100.18000000000001
 31
0.0
  0
LINE
  5
216
  8
0
 62
     7
 10
97.362099999999984
 20
100.221
 30
0.0
 11
96.612099999999998
 21
100.221
 31
0.0
  0
LINE
  5
217
  8
0
 62
     7
 10
96.612099999999998
 20
100.221
 30
0.0
 11
96.612099999999998
 21
100.37
 31
0.0
  0
LINE
  5
218
  8
0
 62
     7
 10
96.195599999999985
 20
100.18000000000001
 30
0.0
 11
96.195599999999985
 21
100.929
 31
0.0
  0
LINE
  5
219
  8
0
 62
     7
 10
95.862099999999984
 20
100.18000000000001
 30
0.0
 11
95.612700000000004
 21
100.18000000000001
 31
0.0
  0
LINE
  5
21A
  8
0
 62
     7
 10
96.195599999999985
 20
100.18000000000001
 30
0.0
 11
95.862099999999984
 21
100.18000000000001
 31
0.0
  0
LINE
  5
21B
  8
0
 62
     7
 10
95.195499999999996
 20
103.63800000000001
 30
0.0
 11
95.195499999999996
 21
102.13800000000001
 31
0.0
  0
LINE
  5
21C
  8
0
 62
     7
 10
95.279199999999989
 20
103.721
 30
0.0
 11
95.279199999999989
 21
102.054
 31
0.0
  0
LINE
  5
21D
  8
0
 62
     7
 10
96.612099999999998
 20
115.822
 30
0.0
 11
96.612099999999998
 21
116.05500000000001
 31
0.0
  0
LINE
  5
21E
  8
0
 62
     7
 10
96.195599999999985
 20
116.01300000000001
 30
0.0
 11
96.612099999999998
 21
116.01300000000001
 31
0.0
  0
LINE
  5
21F
  8
0
 62
     7
 10
96.612099999999998
 20
116.05500000000001
 30
0.0
 11
97.362099999999984
 21
116.05500000000001
 31
0.0
  0
LINE
  5
220
  8
0
 62
     7
 10
96.612099999999998
 20
115.26300000000001
 30
0.0
 11
96.195599999999985
 21
115.26300000000001
 31
0.0
  0
LINE
  5
221
  8
0
 62
     7
 10
96.612099999999998
 20
115.822
 30
0.0
 11
96.612099999999998
 21
115.26300000000001
 31
0.0
  0
LINE
  5
222
  8
0
 62
     7
 10
96.195599999999985
 20
115.26300000000001
 30
0.0
 11
96.195599999999985
 21
116.01300000000001
 31
0.0
  0
LINE
  5
223
  8
0
 62
     7
 10
95.862099999999984
 20
116.01300000000001
 30
0.0
 11
95.612700000000004
 21
116.01300000000001
 31
0.0
  0
LINE
  5
224
  8
0
 62
     7
 10
95.862099999999984
 20
116.01300000000001
 30
0.0
 11
96.195599999999985
 21
116.01300000000001
 31
0.0
  0
ARC
  5
225
  8
0
 62
     7
 10
95.282447000000005
 20
114.13415999999999
 30
0.0
 40
0.087042
 50
92.140053000000009
 51
177.62364700000001
  0
LINE
  5
226
  8
0
 62
     7
 10
96.195599999999985
 20
114.221
 30
0.0
 11
95.279199999999989
 21
114.221
 31
0.0
  0
ARC
  5
227
  8
0
 62
     7
 10
95.282118000000011
 20
112.64104399999999
 30
0.0
 40
0.0867
 50
182.167563
 51
268.068738
  0
LINE
  5
228
  8
0
 62
     7
 10
95.279199999999989
 20
112.554
 30
0.0
 11
96.195599999999985
 21
112.554
 31
0.0
  0
LINE
  5
229
  8
0
 62
     7
 10
95.195499999999996
 20
112.63800000000001
 30
0.0
 11
95.195499999999996
 21
114.13800000000001
 31
0.0
  0
LINE
  5
22A
  8
0
 62
     7
 10
95.279199999999989
 20
114.221
 30
0.0
 11
95.279199999999989
 21
112.554
 31
0.0
  0
LINE
  5
22B
  8
0
 62
     7
 10
163.65199999999999
 20
116.01300000000001
 30
0.0
 11
162.90199999999999
 21
116.01300000000001
 31
0.0
  0
LINE
  5
22C
  8
0
 62
     7
 10
162.90199999999999
 20
100.18000000000001
 30
0.0
 11
163.65199999999999
 21
100.18000000000001
 31
0.0
  0
LINE
  5
22D
  8
0
 62
     7
 10
163.65199999999999
 20
100.18000000000001
 30
0.0
 11
163.65199999999999
 21
116.01300000000001
 31
0.0
  0
LINE
  5
22E
  8
0
 62
     7
 10
151.90199999999999
 20
100.18000000000001
 30
0.0
 11
151.90199999999999
 21
116.01300000000001
 31
0.0
  0
LINE
  5
22F
  8
0
 62
     7
 10
152.31899999999999
 20
100.18000000000001
 30
0.0
 11
152.31899999999999
 21
116.01300000000001
 31
0.0
  0
LINE
  5
230
  8
0
 62
     7
 10
151.81899999999999
 20
111.596
 30
0.0
 11
151.81899999999999
 21
104.596
 31
0.0
  0
LINE
  5
231
  8
0
 62
     7
 10
149.81899999999999
 20
105.246
 30
0.0
 11
151.81899999999999
 21
105.246
 31
0.0
  0
LINE
  5
232
  8
0
 62
     7
 10
149.81899999999999
 20
105.121
 30
0.0
 11
151.81899999999999
 21
105.121
 31
0.0
  0
LINE
  5
233
  8
0
 62
     7
 10
151.81899999999999
 20
104.596
 30
0.0
 11
151.90199999999999
 21
104.596
 31
0.0
  0
LINE
  5
234
  8
0
 62
     7
 10
149.81899999999999
 20
110.946
 30
0.0
 11
151.81899999999999
 21
110.946
 31
0.0
  0
LINE
  5
235
  8
0
 62
     7
 10
149.81899999999999
 20
111.071
 30
0.0
 11
151.81899999999999
 21
111.071
 31
0.0
  0
LINE
  5
236
  8
0
 62
     7
 10
151.81899999999999
 20
111.596
 30
0.0
 11
151.90199999999999
 21
111.596
 31
0.0
  0
LINE
  5
237
  8
0
 62
     7
 10
157.65199999999999
 20
96.013000000000005
 30
0.0
 11
161.98500000000001
 21
96.013000000000005
 31
0.0
  0
LINE
  5
238
  8
0
 62
     7
 10
157.48599999999999
 20
96.179100000000005
 30
0.0
 11
157.48599999999999
 21
100.18000000000001
 31
0.0
  0
ARC
  5
239
  8
0
 62
     7
 10
157.65785299999999
 20
96.185271000000014
 30
0.0
 40
0.172353
 50
182.064941
 51
268.17233800000002
  0
LINE
  5
23A
  8
0
 62
     7
 10
162.15199999999999
 20
96.179100000000005
 30
0.0
 11
162.15199999999999
 21
100.18000000000001
 31
0.0
  0
ARC
  5
23B
  8
0
 62
     7
 10
161.97914599999999
 20
96.185911000000004
 30
0.0
 40
0.173013
 50
272.03160800000001
 51
357.73115200000001
  0
LINE
  5
23C
  8
0
 62
     7
 10
71.786900000000003
 20
190.70699999999999
 30
0.0
 11
79.121600000000001
 21
190.70699999999999
 31
0.0
  0
LINE
  5
23D
  8
0
 62
     7
 10
79.152299999999997
 20
187.21799999999999
 30
0.0
 11
72.370500000000007
 21
187.21799999999999
 31
0.0
  0
LINE
  5
23E
  8
0
 62
     7
 10
73.698599999999999
 20
106.01300000000001
 30
0.0
 11
75.142099999999999
 21
103.898
 31
0.0
  0
LINE
  5
23F
  8
0
 62
     7
 10
64.2042
 20
106.27500000000001
 30
0.0
 11
62.582299999999996
 21
103.898
 31
0.0
  0
ARC
  5
240
  8
0
 62
     7
 10
64.381540999999999
 20
187.91679500000001
 30
0.0
 40
3.3369349999999991
 50
61.892361000000001
 51
80.375800999999996
  0
LINE
  5
241
  8
0
 62
     7
 10
64.3703
 20
191.20699999999999
 30
0.0
 11
64.939400000000006
 21
191.20699999999999
 31
0.0
  0
ARC
  5
242
  8
0
 62
     7
 10
73.362483999999995
 20
188.850663
 30
0.0
 40
2.3561139999999989
 50
51.976265000000012
 51
89.809496999999993
  0
ARC
  5
243
  8
0
 62
     7
 10
70.539199999999994
 20
188.360376
 30
0.0
 40
1.8302240000000001
 50
338.70430499999998
 51
47.020014000000003
  0
ARC
  5
244
  8
0
 62
     7
 10
73.362302
 20
187.906778
 30
0.0
 40
3.3472940000000002
 50
99.64425
 51
118.075642
  0
ARC
  5
245
  8
0
 62
     7
 10
66.269186000000005
 20
187.70917800000001
 30
0.0
 40
2.633891999999999
 50
9.0479100000000017
 51
50.235715999999996
  0
ARC
  5
246
  8
0
 62
     7
 10
71.473928999999984
 20
187.707392
 30
0.0
 40
2.6366459999999989
 50
129.77551199999999
 51
170.92230699999999
  0
LINE
  5
247
  8
0
 62
     7
 10
73.3703
 20
191.20699999999999
 30
0.0
 11
72.801500000000004
 21
191.20699999999999
 31
0.0
  0
LINE
  5
248
  8
0
 62
     7
 10
66.695400000000006
 20
101.68000000000001
 30
0.0
 11
66.802499999999995
 21
101.90600000000001
 31
0.0
  0
LINE
  5
249
  8
0
 62
     7
 10
62.475499999999997
 20
103.672
 30
0.0
 11
62.582299999999996
 21
103.898
 31
0.0
  0
LINE
  5
24A
  8
0
 62
     7
 10
66.695400000000006
 20
101.68000000000001
 30
0.0
 11
66.695400000000006
 21
96.013000000000005
 31
0.0
  0
LINE
  5
24B
  8
0
 62
     7
 10
62.028999999999989
 20
101.68000000000001
 30
0.0
 11
62.028999999999989
 21
96.013000000000005
 31
0.0
  0
LINE
  5
24C
  8
0
 62
     7
 10
66.695400000000006
 20
96.013000000000005
 30
0.0
 11
62.028999999999989
 21
96.013000000000005
 31
0.0
  0
ARC
  5
24D
  8
0
 62
     7
 10
66.709712999999994
 20
101.67640299999999
 30
0.0
 40
4.6807220000000003
 50
154.77095700000001
 51
179.96163100000001
  0
LINE
  5
24E
  8
0
 62
     7
 10
75.248599999999996
 20
103.672
 30
0.0
 11
75.142099999999999
 21
103.898
 31
0.0
  0
LINE
  5
24F
  8
0
 62
     7
 10
75.695400000000006
 20
101.68000000000001
 30
0.0
 11
75.695400000000006
 21
96.013000000000005
 31
0.0
  0
LINE
  5
250
  8
0
 62
     7
 10
71.028700000000001
 20
101.68000000000001
 30
0.0
 11
71.028700000000001
 21
96.013000000000005
 31
0.0
  0
LINE
  5
251
  8
0
 62
     7
 10
71.028700000000001
 20
101.68000000000001
 30
0.0
 11
70.921899999999994
 21
101.90600000000001
 31
0.0
  0
LINE
  5
252
  8
0
 62
     7
 10
71.028700000000001
 20
96.013000000000005
 30
0.0
 11
75.695400000000006
 21
96.013000000000005
 31
0.0
  0
LINE
  5
253
  8
0
 62
     7
 10
67.228399999999993
 20
103.369
 30
0.0
 11
66.802499999999995
 21
101.90600000000001
 31
0.0
  0
ARC
  5
254
  8
0
 62
     7
 10
71.018332999999998
 20
101.675675
 30
0.0
 40
4.6774409999999991
 50
0.047291
 51
25.257819000000001
  0
LINE
  5
255
  8
0
 62
     7
 10
70.495699999999999
 20
103.37
 30
0.0
 11
70.921899999999994
 21
101.90600000000001
 31
0.0
  0
LINE
  5
256
  8
0
 62
     7
 10
84.6203
 20
187.70699999999999
 30
0.0
 11
86.620599999999996
 21
187.70699999999999
 31
0.0
  0
ARC
  5
257
  8
0
 62
     7
 10
81.851585999999983
 20
190.88684799999999
 30
0.0
 40
2.7724829999999998
 50
308.14643000000001
 51
338.56161600000001
  0
ARC
  5
258
  8
0
 62
     7
 10
81.851585999999983
 20
190.88684799999999
 30
0.0
 40
2.7724829999999998
 50
308.14643000000001
 51
338.56161600000001
  0
LINE
  5
259
  8
0
 62
     7
 10
83.564099999999996
 20
188.70599999999999
 30
0.0
 11
80.1768
 21
188.70599999999999
 31
0.0
  0
LINE
  5
25A
  8
0
 62
     7
 10
84.432199999999995
 20
191.53999999999999
 30
0.0
 11
84.432199999999995
 21
189.874
 31
0.0
  0
LINE
  5
25B
  8
0
 62
     7
 10
84.6203
 20
191.53999999999999
 30
0.0
 11
84.6203
 21
187.70699999999999
 31
0.0
  0
LINE
  5
25C
  8
0
 62
     7
 10
79.152299999999997
 20
187.21799999999999
 30
0.0
 11
79.152299999999997
 21
190.37299999999999
 31
0.0
  0
LINE
  5
25D
  8
0
 62
     7
 10
79.121600000000001
 20
190.70699999999999
 30
0.0
 11
79.120599999999996
 21
191.53999999999999
 31
0.0
  0
LINE
  5
25E
  8
0
 62
     7
 10
79.152299999999997
 20
190.37299999999999
 30
0.0
 11
79.121600000000001
 21
190.70699999999999
 31
0.0
  0
ARC
  5
25F
  8
0
 62
     7
 10
81.890929
 20
190.88804099999999
 30
0.0
 40
2.774413
 50
201.44923299999999
 51
231.84276
  0
ARC
  5
260
  8
0
 62
     7
 10
81.890929
 20
190.88804099999999
 30
0.0
 40
2.774413
 50
201.44923299999999
 51
231.84276
  0
LINE
  5
261
  8
0
 62
     7
 10
79.308700000000002
 20
189.874
 30
0.0
 11
79.308700000000002
 21
191.53999999999999
 31
0.0
  0
LINE
  5
262
  8
0
 62
     7
 10
79.120599999999996
 20
191.53999999999999
 30
0.0
 11
84.6203
 21
191.53999999999999
 31
0.0
  0
LINE
  5
263
  8
0
 62
     7
 10
84.432199999999995
 20
189.874
 30
0.0
 11
79.308700000000002
 21
189.874
 31
0.0
  0
LINE
  5
264
  8
0
 62
     7
 10
64.695499999999996
 20
192.20699999999999
 30
0.0
 11
74.362200000000001
 21
192.20699999999999
 31
0.0
  0
LINE
  5
265
  8
0
 62
     7
 10
64.695499999999996
 20
192.62299999999999
 30
0.0
 11
74.362200000000001
 21
192.62299999999999
 31
0.0
  0
LINE
  5
266
  8
0
 62
     7
 10
93.695499999999996
 20
191.53999999999999
 30
0.0
 11
57.028700000000001
 21
191.53999999999999
 31
0.0
  0
LINE
  5
267
  8
0
 62
     7
 10
55.028500000000001
 20
193.03999999999999
 30
0.0
 11
57.028700000000001
 21
193.03999999999999
 31
0.0
  0
LINE
  5
268
  8
0
 62
     7
 10
55.028500000000001
 20
192.62299999999999
 30
0.0
 11
57.028700000000001
 21
192.62299999999999
 31
0.0
  0
LINE
  5
269
  8
0
 62
     7
 10
54.862099999999991
 20
193.03999999999999
 30
0.0
 11
55.028500000000001
 21
193.03999999999999
 31
0.0
  0
LINE
  5
26A
  8
0
 62
     7
 10
55.028500000000001
 20
192.62299999999999
 30
0.0
 11
54.862099999999991
 21
192.62299999999999
 31
0.0
  0
ARC
  5
26B
  8
0
 62
     7
 10
54.874473999999999
 20
192.27754899999999
 30
0.0
 40
0.346068
 50
92.04671900000001
 51
177.95325099999999
  0
ARC
  5
26C
  8
0
 62
     7
 10
54.891071999999987
 20
192.260773
 30
0.0
 40
0.7795040000000001
 50
92.128945000000002
 51
177.857865
  0
LINE
  5
26D
  8
0
 62
     7
 10
55.028500000000001
 20
193.03999999999999
 30
0.0
 11
55.028500000000001
 21
192.62299999999999
 31
0.0
  0
LINE
  5
26E
  8
0
 62
     7
 10
59.528500000000001
 20
192.62299999999999
 30
0.0
 11
59.528500000000001
 21
193.03999999999999
 31
0.0
  0
LINE
  5
26F
  8
0
 62
     7
 10
59.862000000000002
 20
191.53999999999999
 30
0.0
 11
59.862000000000002
 21
192.20699999999999
 31
0.0
  0
LINE
  5
270
  8
0
 62
     7
 10
57.528599999999997
 20
192.20699999999999
 30
0.0
 11
57.528599999999997
 21
191.53999999999999
 31
0.0
  0
LINE
  5
271
  8
0
 62
     7
 10
59.695300000000003
 20
187.03999999999999
 30
0.0
 11
59.695300000000003
 21
191.53999999999999
 31
0.0
  0
LINE
  5
272
  8
0
 62
     7
 10
57.695399999999999
 20
191.53999999999999
 30
0.0
 11
57.695399999999999
 21
187.03999999999999
 31
0.0
  0
LINE
  5
273
  8
0
 62
     7
 10
57.862099999999998
 20
186.78999999999999
 30
0.0
 11
59.528500000000001
 21
186.78999999999999
 31
0.0
  0
LINE
  5
274
  8
0
 62
     7
 10
59.528500000000001
 20
186.95599999999999
 30
0.0
 11
57.862099999999998
 21
186.95599999999999
 31
0.0
  0
LINE
  5
275
  8
0
 62
     7
 10
57.695399999999999
 20
187.03999999999999
 30
0.0
 11
59.695300000000003
 21
187.03999999999999
 31
0.0
  0
LINE
  5
276
  8
0
 62
     7
 10
59.77859999999999
 20
186.70599999999999
 30
0.0
 11
58.695500000000003
 21
186.70599999999999
 31
0.0
  0
LINE
  5
277
  8
0
 62
     7
 10
58.695500000000003
 20
186.70599999999999
 30
0.0
 11
57.611999999999988
 21
186.70599999999999
 31
0.0
  0
LINE
  5
278
  8
0
 62
     7
 10
57.862099999999998
 20
186.95599999999999
 30
0.0
 11
57.862099999999998
 21
186.78999999999999
 31
0.0
  0
ARC
  5
279
  8
0
 62
     7
 10
57.775396999999998
 20
186.79296099999999
 30
0.0
 40
0.086791
 50
272.214742
 51
357.78526799999997
  0
ARC
  5
27A
  8
0
 62
     7
 10
57.775627999999998
 20
186.953228
 30
0.0
 40
0.086551
 50
2.0674399999999991
 51
87.932551000000004
  0
LINE
  5
27B
  8
0
 62
     7
 10
59.528500000000001
 20
186.78999999999999
 30
0.0
 11
59.528500000000001
 21
186.95599999999999
 31
0.0
  0
ARC
  5
27C
  8
0
 62
     7
 10
59.615059999999993
 20
186.79276999999999
 30
0.0
 40
0.086592
 50
182.093053
 51
267.90697699999998
  0
ARC
  5
27D
  8
0
 62
     7
 10
59.615172999999999
 20
186.95307500000001
 30
0.0
 40
0.086709
 50
92.165056000000007
 51
177.834914
  0
LINE
  5
27E
  8
0
 62
     7
 10
57.862099999999998
 20
192.62299999999999
 30
0.0
 11
57.862099999999998
 21
192.20699999999999
 31
0.0
  0
LINE
  5
27F
  8
0
 62
     7
 10
59.528500000000001
 20
193.03999999999999
 30
0.0
 11
60.361899999999999
 21
193.03999999999999
 31
0.0
  0
LINE
  5
280
  8
0
 62
     7
 10
57.028700000000001
 20
193.03999999999999
 30
0.0
 11
59.528500000000001
 21
193.03999999999999
 31
0.0
  0
LINE
  5
281
  8
0
 62
     7
 10
64.695499999999996
 20
192.20699999999999
 30
0.0
 11
64.695499999999996
 21
192.62299999999999
 31
0.0
  0
LINE
  5
282
  8
0
 62
     7
 10
62.695300000000003
 20
192.62299999999999
 30
0.0
 11
62.695300000000003
 21
192.20699999999999
 31
0.0
  0
LINE
  5
283
  8
0
 62
     7
 10
64.695499999999996
 20
192.20699999999999
 30
0.0
 11
62.695300000000003
 21
192.20699999999999
 31
0.0
  0
LINE
  5
284
  8
0
 62
     7
 10
64.695499999999996
 20
192.62299999999999
 30
0.0
 11
62.695300000000003
 21
192.62299999999999
 31
0.0
  0
LINE
  5
285
  8
0
 62
     7
 10
57.028700000000001
 20
192.20699999999999
 30
0.0
 11
57.028700000000001
 21
192.62299999999999
 31
0.0
  0
LINE
  5
286
  8
0
 62
     7
 10
57.028700000000001
 20
192.10900000000001
 30
0.0
 11
57.028700000000001
 21
192.20699999999999
 31
0.0
  0
LINE
  5
287
  8
0
 62
     7
 10
57.028700000000001
 20
191.53999999999999
 30
0.0
 11
57.028700000000001
 21
191.73500000000001
 31
0.0
  0
LINE
  5
288
  8
0
 62
     7
 10
57.028700000000001
 20
192.10900000000001
 30
0.0
 11
57.028700000000001
 21
191.73500000000001
 31
0.0
  0
LINE
  5
289
  8
0
 62
     7
 10
57.862099999999998
 20
192.20699999999999
 30
0.0
 11
57.028700000000001
 21
192.20699999999999
 31
0.0
  0
LINE
  5
28A
  8
0
 62
     7
 10
59.528500000000001
 20
192.62299999999999
 30
0.0
 11
57.028700000000001
 21
192.62299999999999
 31
0.0
  0
LINE
  5
28B
  8
0
 62
     7
 10
57.862099999999998
 20
192.20699999999999
 30
0.0
 11
62.695300000000003
 21
192.20699999999999
 31
0.0
  0
LINE
  5
28C
  8
0
 62
     7
 10
57.862099999999998
 20
192.62299999999999
 30
0.0
 11
62.695300000000003
 21
192.62299999999999
 31
0.0
  0
LINE
  5
28D
  8
0
 62
     7
 10
57.028700000000001
 20
192.62299999999999
 30
0.0
 11
57.028700000000001
 21
193.03999999999999
 31
0.0
  0
LINE
  5
28E
  8
0
 62
     7
 10
60.361899999999999
 20
193.03999999999999
 30
0.0
 11
60.361899999999999
 21
192.62299999999999
 31
0.0
  0
LINE
  5
28F
  8
0
 62
     7
 10
88.028899999999993
 20
192.20699999999999
 30
0.0
 11
86.028700000000015
 21
192.20699999999999
 31
0.0
  0
LINE
  5
290
  8
0
 62
     7
 10
88.028899999999993
 20
192.62299999999999
 30
0.0
 11
86.028700000000015
 21
192.62299999999999
 31
0.0
  0
LINE
  5
291
  8
0
 62
     7
 10
86.028700000000015
 20
192.62299999999999
 30
0.0
 11
86.028700000000015
 21
192.20699999999999
 31
0.0
  0
LINE
  5
292
  8
0
 62
     7
 10
76.362099999999998
 20
192.20699999999999
 30
0.0
 11
76.362099999999998
 21
192.62299999999999
 31
0.0
  0
LINE
  5
293
  8
0
 62
     7
 10
74.362200000000001
 20
192.62299999999999
 30
0.0
 11
74.362200000000001
 21
192.20699999999999
 31
0.0
  0
LINE
  5
294
  8
0
 62
     7
 10
76.362099999999998
 20
192.20699999999999
 30
0.0
 11
74.362200000000001
 21
192.20699999999999
 31
0.0
  0
LINE
  5
295
  8
0
 62
     7
 10
76.362099999999998
 20
192.62299999999999
 30
0.0
 11
74.362200000000001
 21
192.62299999999999
 31
0.0
  0
LINE
  5
296
  8
0
 62
     7
 10
76.362099999999998
 20
192.20699999999999
 30
0.0
 11
86.028700000000015
 21
192.20699999999999
 31
0.0
  0
LINE
  5
297
  8
0
 62
     7
 10
76.362099999999998
 20
192.62299999999999
 30
0.0
 11
86.028700000000015
 21
192.62299999999999
 31
0.0
  0
LINE
  5
298
  8
0
 62
     7
 10
91.112300000000005
 20
193.03999999999999
 30
0.0
 11
91.112300000000005
 21
192.62299999999999
 31
0.0
  0
LINE
  5
299
  8
0
 62
     7
 10
92.862099999999998
 20
192.20699999999999
 30
0.0
 11
92.862099999999998
 21
192.62299999999999
 31
0.0
  0
LINE
  5
29A
  8
0
 62
     7
 10
95.028699999999986
 20
189.78999999999999
 30
0.0
 11
94.945700000000016
 21
189.70699999999999
 31
0.0
  0
LINE
  5
29B
  8
0
 62
     7
 10
90.362300000000005
 20
193.03999999999999
 30
0.0
 11
91.112300000000005
 21
193.03999999999999
 31
0.0
  0
LINE
  5
29C
  8
0
 62
     7
 10
91.112300000000005
 20
193.03999999999999
 30
0.0
 11
93.612099999999984
 21
193.03999999999999
 31
0.0
  0
LINE
  5
29D
  8
0
 62
     7
 10
93.695499999999996
 20
192.62299999999999
 30
0.0
 11
93.695499999999996
 21
192.20699999999999
 31
0.0
  0
LINE
  5
29E
  8
0
 62
     7
 10
93.695499999999996
 20
192.20699999999999
 30
0.0
 11
93.695499999999996
 21
192.10900000000001
 31
0.0
  0
LINE
  5
29F
  8
0
 62
     7
 10
93.695499999999996
 20
191.73500000000001
 30
0.0
 11
93.695499999999996
 21
191.53999999999999
 31
0.0
  0
LINE
  5
2A0
  8
0
 62
     7
 10
93.695499999999996
 20
191.73500000000001
 30
0.0
 11
93.695499999999996
 21
192.10900000000001
 31
0.0
  0
LINE
  5
2A1
  8
0
 62
     7
 10
93.695499999999996
 20
192.20699999999999
 30
0.0
 11
92.862099999999998
 21
192.20699999999999
 31
0.0
  0
LINE
  5
2A2
  8
0
 62
     7
 10
93.612099999999984
 20
192.62299999999999
 30
0.0
 11
91.112300000000005
 21
192.62299999999999
 31
0.0
  0
LINE
  5
2A3
  8
0
 62
     7
 10
88.028899999999993
 20
192.20699999999999
 30
0.0
 11
88.028899999999993
 21
192.62299999999999
 31
0.0
  0
LINE
  5
2A4
  8
0
 62
     7
 10
88.028899999999993
 20
192.20699999999999
 30
0.0
 11
92.862099999999998
 21
192.20699999999999
 31
0.0
  0
LINE
  5
2A5
  8
0
 62
     7
 10
88.028899999999993
 20
192.62299999999999
 30
0.0
 11
92.862099999999998
 21
192.62299999999999
 31
0.0
  0
LINE
  5
2A6
  8
0
 62
     7
 10
93.612099999999984
 20
193.03999999999999
 30
0.0
 11
93.612099999999984
 21
192.62299999999999
 31
0.0
  0
LINE
  5
2A7
  8
0
 62
     7
 10
90.362300000000005
 20
192.62299999999999
 30
0.0
 11
90.362300000000005
 21
193.03999999999999
 31
0.0
  0
LINE
  5
2A8
  8
0
 62
     7
 10
57.028700000000001
 20
104.456
 30
0.0
 11
62.962600000000002
 21
104.456
 31
0.0
  0
LINE
  5
2A9
  8
0
 62
     7
 10
93.695800000000006
 20
111.73699999999999
 30
0.0
 11
85.289400000000001
 21
111.73699999999999
 31
0.0
  0
LINE
  5
2AA
  8
0
 62
     7
 10
78.434600000000003
 20
111.73699999999999
 30
0.0
 11
72.289199999999994
 21
111.73699999999999
 31
0.0
  0
LINE
  5
2AB
  8
0
 62
     7
 10
65.434499999999986
 20
111.73699999999999
 30
0.0
 11
57.028700000000001
 21
111.73699999999999
 31
0.0
  0
LINE
  5
2AC
  8
0
 62
     7
 10
93.695800000000006
 20
103.375
 30
0.0
 11
83.510999999999996
 21
103.375
 31
0.0
  0
LINE
  5
2AD
  8
0
 62
     7
 10
80.213000000000008
 20
103.375
 30
0.0
 11
75.376800000000003
 21
103.375
 31
0.0
  0
LINE
  5
2AE
  8
0
 62
     7
 10
57.028700000000001
 20
112.818
 30
0.0
 11
67.213200000000001
 21
112.818
 31
0.0
  0
LINE
  5
2AF
  8
0
 62
     7
 10
70.510900000000007
 20
112.818
 30
0.0
 11
80.213700000000003
 21
112.818
 31
0.0
  0
LINE
  5
2B0
  8
0
 62
     7
 10
83.510699999999986
 20
112.818
 30
0.0
 11
93.695800000000006
 21
112.818
 31
0.0
  0
LINE
  5
2B1
  8
0
 62
     7
 10
66.695400000000006
 20
100.18000000000001
 30
0.0
 11
71.028700000000001
 21
100.18000000000001
 31
0.0
  0
LINE
  5
2B2
  8
0
 62
     7
 10
64.695499999999996
 20
116.01300000000001
 30
0.0
 11
74.362200000000001
 21
116.01300000000001
 31
0.0
  0
LINE
  5
2B3
  8
0
 62
     7
 10
57.028700000000001
 20
111.73699999999999
 30
0.0
 11
57.028700000000001
 21
104.456
 31
0.0
  0
LINE
  5
2B4
  8
0
 62
     7
 10
54.528599999999997
 20
116.01300000000001
 30
0.0
 11
54.528599999999997
 21
100.18000000000001
 31
0.0
  0
ARC
  5
2B5
  8
0
 62
     7
 10
55.990748000000004
 20
100.14130400000001
 30
0.0
 40
1.0387040000000001
 50
2.109141999999999
 51
87.890847999999991
  0
ARC
  5
2B6
  8
0
 62
     7
 10
56.067577
 20
100.140214
 30
0.0
 40
1.039806999999999
 50
92.127519000000007
 51
177.832978
  0
LINE
  5
2B7
  8
0
 62
     7
 10
54.862099999999991
 20
100.18000000000001
 30
0.0
 11
54.528599999999997
 21
100.18000000000001
 31
0.0
  0
LINE
  5
2B8
  8
0
 62
     7
 10
55.028500000000001
 20
100.18000000000001
 30
0.0
 11
54.862099999999991
 21
100.18000000000001
 31
0.0
  0
LINE
  5
2B9
  8
0
 62
     7
 10
54.528599999999997
 20
100.18000000000001
 30
0.0
 11
53.778599999999997
 21
100.18000000000001
 31
0.0
  0
LINE
  5
2BA
  8
0
 62
     7
 10
53.778599999999997
 20
100.18000000000001
 30
0.0
 11
43.695500000000003
 21
100.18000000000001
 31
0.0
  0
LINE
  5
2BB
  8
0
 62
     7
 10
60.361899999999999
 20
107.413
 30
0.0
 11
60.361899999999999
 21
108.779
 31
0.0
  0
ARC
  5
2BC
  8
0
 62
     7
 10
60.387906000000008
 20
108.070047
 30
0.0
 40
0.7096630000000002
 50
92.100109000000018
 51
177.87096
  0
ARC
  5
2BD
  8
0
 62
     7
 10
60.388269000000001
 20
108.122422
 30
0.0
 40
0.710012
 50
182.09952100000001
 51
267.871623
  0
ARC
  5
2BE
  8
0
 62
     7
 10
60.335864000000001
 20
108.12244699999999
 30
0.0
 40
0.710025
 50
272.10145899999998
 51
357.898551
  0
ARC
  5
2BF
  8
0
 62
     7
 10
60.336540999999997
 20
108.07033699999999
 30
0.0
 40
0.7093500000000002
 50
2.1065200000000002
 51
87.951257999999996
  0
ARC
  5
2C0
  8
0
 62
     7
 10
58.721531999999989
 20
109.40363600000001
 30
0.0
 40
0.710024
 50
92.101421999999985
 51
177.898549
  0
ARC
  5
2C1
  8
0
 62
     7
 10
58.721531999999989
 20
109.455707
 30
0.0
 40
0.710024
 50
182.101451
 51
267.89857799999999
  0
ARC
  5
2C2
  8
0
 62
     7
 10
58.669460000000001
 20
109.455707
 30
0.0
 40
0.710025
 50
272.10145899999998
 51
357.898551
  0
ARC
  5
2C3
  8
0
 62
     7
 10
58.669441000000013
 20
109.403616
 30
0.0
 40
0.7100450000000002
 50
2.102978999999999
 51
87.897011000000006
  0
LINE
  5
2C4
  8
0
 62
     7
 10
57.028700000000001
 20
103.61
 30
0.0
 11
57.028700000000001
 21
103.98399999999999
 31
0.0
  0
LINE
  5
2C5
  8
0
 62
     7
 10
57.028700000000001
 20
103.375
 30
0.0
 11
57.028700000000001
 21
103.61
 31
0.0
  0
LINE
  5
2C6
  8
0
 62
     7
 10
57.028700000000001
 20
103.98399999999999
 30
0.0
 11
57.028700000000001
 21
104.456
 31
0.0
  0
ARC
  5
2C7
  8
0
 62
     7
 10
58.721531999999989
 20
106.73642599999999
 30
0.0
 40
0.710024
 50
92.101421999999985
 51
177.898549
  0
ARC
  5
2C8
  8
0
 62
     7
 10
58.720855
 20
106.788535
 30
0.0
 40
0.709349
 50
182.10652200000001
 51
267.95129500000002
  0
ARC
  5
2C9
  8
0
 62
     7
 10
58.669508999999991
 20
106.789164
 30
0.0
 40
0.7100010000000001
 50
272.09759700000001
 51
357.84462600000001
  0
ARC
  5
2CA
  8
0
 62
     7
 10
58.669460000000001
 20
106.73642599999999
 30
0.0
 40
0.710025
 50
2.1014490000000001
 51
87.898541000000009
  0
ARC
  5
2CB
  8
0
 62
     7
 10
61.221328
 20
102.403496
 30
0.0
 40
0.709687
 50
92.103955000000013
 51
177.92490100000001
  0
ARC
  5
2CC
  8
0
 62
     7
 10
61.220965
 20
102.455242
 30
0.0
 40
0.7093370000000001
 50
182.10458899999989
 51
267.92434100000003
  0
ARC
  5
2CD
  8
0
 62
     7
 10
61.169286
 20
102.455896
 30
0.0
 40
0.7100010000000001
 50
272.09759700000001
 51
357.84462600000001
  0
ARC
  5
2CE
  8
0
 62
     7
 10
61.169238
 20
102.40315699999999
 30
0.0
 40
0.710025
 50
2.1014490000000001
 51
87.898541000000009
  0
ARC
  5
2CF
  8
0
 62
     7
 10
59.536104000000002
 20
101.011106
 30
0.0
 40
0.8257959999999998
 50
333.76042699999999
 51
0.10094
  0
ARC
  5
2D0
  8
0
 62
     7
 10
60.379148999999998
 20
101.07975500000001
 30
0.0
 40
0.47538
 50
92.079393999999979
 51
178.04976600000001
  0
ARC
  5
2D1
  8
0
 62
     7
 10
60.379806000000002
 20
101.11348099999999
 30
0.0
 40
0.476086
 50
182.11245199999999
 51
267.84448200000003
  0
ARC
  5
2D2
  8
0
 62
     7
 10
60.344731999999993
 20
101.11345799999999
 30
0.0
 40
0.4760350000000001
 50
272.06674800000002
 51
357.89019900000011
  0
ARC
  5
2D3
  8
0
 62
     7
 10
60.343971999999987
 20
101.078363
 30
0.0
 40
0.4767960000000001
 50
2.1117750000000002
 51
87.845184000000003
  0
LINE
  5
2D4
  8
0
 62
     7
 10
60.361899999999999
 20
101.01300000000001
 30
0.0
 11
60.361899999999999
 21
101.55500000000001
 31
0.0
  0
LINE
  5
2D5
  8
0
 62
     7
 10
58.818100000000001
 20
101.298
 30
0.0
 11
59.1599
 21
101.637
 31
0.0
  0
LINE
  5
2D6
  8
0
 62
     7
 10
59.1599
 20
101.637
 30
0.0
 11
59.0366
 21
102.102
 31
0.0
  0
LINE
  5
2D7
  8
0
 62
     7
 10
58.231099999999991
 20
101.889
 30
0.0
 11
58.354100000000003
 21
101.42400000000001
 31
0.0
  0
LINE
  5
2D8
  8
0
 62
     7
 10
58.354100000000003
 20
101.42400000000001
 30
0.0
 11
58.818100000000001
 21
101.298
 31
0.0
  0
LINE
  5
2D9
  8
0
 62
     7
 10
59.0366
 20
102.102
 30
0.0
 11
58.57289999999999
 21
102.22799999999999
 31
0.0
  0
LINE
  5
2DA
  8
0
 62
     7
 10
58.57289999999999
 20
102.22799999999999
 30
0.0
 11
58.231099999999991
 21
101.889
 31
0.0
  0
ARC
  5
2DB
  8
0
 62
     7
 10
57.893844999999999
 20
101.044641
 30
0.0
 40
0.8656909999999999
 50
182.12371899999991
 51
267.90000199999997
  0
LINE
  5
2DC
  8
0
 62
     7
 10
57.862099999999998
 20
100.18000000000001
 30
0.0
 11
57.028700000000001
 21
100.18000000000001
 31
0.0
  0
ARC
  5
2DD
  8
0
 62
     7
 10
58.724432999999998
 20
101.733255
 30
0.0
 40
0.7798470000000001
 50
92.126459000000011
 51
177.820874
  0
ARC
  5
2DE
  8
0
 62
     7
 10
58.724099000000002
 20
101.79151
 30
0.0
 40
0.779474
 50
182.102958
 51
267.89707200000009
  0
ARC
  5
2DF
  8
0
 62
     7
 10
58.666482999999992
 20
101.79120500000001
 30
0.0
 40
0.7791850000000001
 50
272.13394
 51
357.91870699999998
  0
ARC
  5
2E0
  8
0
 62
     7
 10
58.666924000000002
 20
101.734335
 30
0.0
 40
0.778754
 50
2.1026590000000001
 51
87.897331000000008
  0
ARC
  5
2E1
  8
0
 62
     7
 10
58.727145999999998
 20
101.73090000000001
 30
0.0
 40
0.8656149999999998
 50
92.095348999999985
 51
177.88093000000001
  0
ARC
  5
2E2
  8
0
 62
     7
 10
58.727905999999997
 20
101.79495900000001
 30
0.0
 40
0.8663770000000001
 50
182.12017399999999
 51
267.85617500000001
  0
ARC
  5
2E3
  8
0
 62
     7
 10
58.663789000000001
 20
101.79389999999999
 30
0.0
 40
0.865292
 50
272.10000600000001
 51
357.94737500000008
  0
ARC
  5
2E4
  8
0
 62
     7
 10
58.663440999999999
 20
101.730852
 30
0.0
 40
0.865679
 50
2.1221160000000001
 51
87.877874000000006
  0
ARC
  5
2E5
  8
0
 62
     7
 10
58.695497000000003
 20
101.762907
 30
0.0
 40
1.041804
 50
90.0
 51
179.99996999999999
  0
ARC
  5
2E6
  8
0
 62
     7
 10
58.695495999999999
 20
101.762907
 30
0.0
 40
1.041803
 50
179.99996999999999
 51
270.00002000000001
  0
ARC
  5
2E7
  8
0
 62
     7
 10
58.655501999999998
 20
101.802902
 30
0.0
 40
1.0825370000000001
 50
272.11729000000003
 51
357.88272000000001
  0
ARC
  5
2E8
  8
0
 62
     7
 10
58.655512000000002
 20
101.72292299999999
 30
0.0
 40
1.082527
 50
2.116766999999999
 51
87.883223999999998
  0
LINE
  5
2E9
  8
0
 62
     7
 10
57.862099999999998
 20
100.18000000000001
 30
0.0
 11
62.028999999999989
 21
100.18000000000001
 31
0.0
  0
LINE
  5
2EA
  8
0
 62
     7
 10
57.028700000000001
 20
101.01300000000001
 30
0.0
 11
57.028700000000001
 21
103.375
 31
0.0
  0
ARC
  5
2EB
  8
0
 62
     7
 10
56.066545999999988
 20
116.050887
 30
0.0
 40
1.038738999999999
 50
182.112313
 51
267.92719
  0
ARC
  5
2EC
  8
0
 62
     7
 10
55.990341000000001
 20
116.051236
 30
0.0
 40
1.0391259999999991
 50
272.13077099999998
 51
357.86923899999999
  0
LINE
  5
2ED
  8
0
 62
     7
 10
54.528599999999997
 20
116.01300000000001
 30
0.0
 11
54.862099999999991
 21
116.01300000000001
 31
0.0
  0
LINE
  5
2EE
  8
0
 62
     7
 10
55.028500000000001
 20
116.01300000000001
 30
0.0
 11
54.862099999999991
 21
116.01300000000001
 31
0.0
  0
LINE
  5
2EF
  8
0
 62
     7
 10
53.778599999999997
 20
116.01300000000001
 30
0.0
 11
54.528599999999997
 21
116.01300000000001
 31
0.0
  0
LINE
  5
2F0
  8
0
 62
     7
 10
53.778599999999997
 20
116.01300000000001
 30
0.0
 11
43.695500000000003
 21
116.01300000000001
 31
0.0
  0
ARC
  5
2F1
  8
0
 62
     7
 10
63.733299000000002
 20
116.05086300000001
 30
0.0
 40
1.038726
 50
182.11099300000001
 51
267.90877699999999
  0
ARC
  5
2F2
  8
0
 62
     7
 10
63.656779
 20
116.051575
 30
0.0
 40
1.0394639999999991
 50
272.12901799999997
 51
357.85125199999999
  0
ARC
  5
2F3
  8
0
 62
     7
 10
59.523263
 20
115.178737
 30
0.0
 40
0.8386370000000001
 50
0.05704
 51
26.034230999999998
  0
LINE
  5
2F4
  8
0
 62
     7
 10
59.0366
 20
114.768
 30
0.0
 11
58.57289999999999
 21
114.895
 31
0.0
  0
ARC
  5
2F5
  8
0
 62
     7
 10
57.893771999999998
 20
115.147565
 30
0.0
 40
0.8656149999999998
 50
92.095348999999985
 51
177.88093000000001
  0
LINE
  5
2F6
  8
0
 62
     7
 10
57.862099999999998
 20
116.01300000000001
 30
0.0
 11
57.028700000000001
 21
116.01300000000001
 31
0.0
  0
ARC
  5
2F7
  8
0
 62
     7
 10
61.221328
 20
113.73724300000001
 30
0.0
 40
0.709687
 50
92.103955000000013
 51
177.92490100000001
  0
ARC
  5
2F8
  8
0
 62
     7
 10
61.221642000000003
 20
113.788951
 30
0.0
 40
0.710012
 50
182.09952100000001
 51
267.871623
  0
ARC
  5
2F9
  8
0
 62
     7
 10
61.169238
 20
113.78897600000001
 30
0.0
 40
0.710025
 50
272.10145899999998
 51
357.898551
  0
ARC
  5
2FA
  8
0
 62
     7
 10
61.169238
 20
113.736904
 30
0.0
 40
0.710025
 50
2.1014490000000001
 51
87.898541000000009
  0
LINE
  5
2FB
  8
0
 62
     7
 10
58.818100000000001
 20
113.964
 30
0.0
 11
59.1599
 21
114.303
 31
0.0
  0
LINE
  5
2FC
  8
0
 62
     7
 10
58.231099999999991
 20
114.556
 30
0.0
 11
58.354100000000003
 21
114.09
 31
0.0
  0
LINE
  5
2FD
  8
0
 62
     7
 10
58.354100000000003
 20
114.09
 30
0.0
 11
58.818100000000001
 21
113.964
 31
0.0
  0
LINE
  5
2FE
  8
0
 62
     7
 10
57.028700000000001
 20
112.58199999999999
 30
0.0
 11
57.028700000000001
 21
112.208
 31
0.0
  0
LINE
  5
2FF
  8
0
 62
     7
 10
57.028700000000001
 20
112.58199999999999
 30
0.0
 11
57.028700000000001
 21
112.818
 31
0.0
  0
LINE
  5
300
  8
0
 62
     7
 10
57.028700000000001
 20
111.73699999999999
 30
0.0
 11
57.028700000000001
 21
112.208
 31
0.0
  0
ARC
  5
301
  8
0
 62
     7
 10
58.724482000000002
 20
114.40024
 30
0.0
 40
0.779871
 50
92.129972000000009
 51
177.86999800000001
  0
ARC
  5
302
  8
0
 62
     7
 10
58.723402
 20
114.457846
 30
0.0
 40
0.7787790000000001
 50
182.10618299999999
 51
267.946485
  0
ARC
  5
303
  8
0
 62
     7
 10
58.666531999999997
 20
114.45819
 30
0.0
 40
0.7791610000000001
 50
272.13042300000012
 51
357.86958700000002
  0
ARC
  5
304
  8
0
 62
     7
 10
58.666245999999987
 20
114.40069099999999
 30
0.0
 40
0.7794300000000001
 50
2.0980439999999989
 51
87.849308999999991
  0
LINE
  5
305
  8
0
 62
     7
 10
59.1599
 20
114.303
 30
0.0
 11
59.0366
 21
114.768
 31
0.0
  0
LINE
  5
306
  8
0
 62
     7
 10
58.57289999999999
 20
114.895
 30
0.0
 11
58.231099999999991
 21
114.556
 31
0.0
  0
ARC
  5
307
  8
0
 62
     7
 10
58.727193999999997
 20
114.397885
 30
0.0
 40
0.8656390000000001
 50
92.098517000000015
 51
177.92513400000001
  0
ARC
  5
308
  8
0
 62
     7
 10
58.727218999999991
 20
114.461305
 30
0.0
 40
0.8656909999999999
 50
182.12371899999991
 51
267.90000199999997
  0
ARC
  5
309
  8
0
 62
     7
 10
58.663837999999998
 20
114.46088399999999
 30
0.0
 40
0.865267
 50
272.09683699999999
 51
357.90317299999998
  0
ARC
  5
30A
  8
0
 62
     7
 10
58.662753000000002
 20
114.397198
 30
0.0
 40
0.8663649999999998
 50
2.118573
 51
87.834046000000001
  0
ARC
  5
30B
  8
0
 62
     7
 10
58.695497000000003
 20
114.429225
 30
0.0
 40
1.041804
 50
90.0
 51
179.99996999999999
  0
ARC
  5
30C
  8
0
 62
     7
 10
58.734782999999993
 20
114.469228
 30
0.0
 40
1.081829999999999
 50
182.119089
 51
267.91884700000003
  0
ARC
  5
30D
  8
0
 62
     7
 10
58.655551000000003
 20
114.469887
 30
0.0
 40
1.0825129999999989
 50
272.11475899999999
 51
357.84734500000002
  0
ARC
  5
30E
  8
0
 62
     7
 10
58.655512000000002
 20
114.389241
 30
0.0
 40
1.082527
 50
2.116766999999999
 51
87.883223999999998
  0
ARC
  5
30F
  8
0
 62
     7
 10
60.379100000000001
 20
115.079357
 30
0.0
 40
0.4753550000000001
 50
92.073618999999979
 51
177.969447
  0
ARC
  5
310
  8
0
 62
     7
 10
60.379806000000002
 20
115.113749
 30
0.0
 40
0.476086
 50
182.11245199999999
 51
267.84448200000003
  0
ARC
  5
311
  8
0
 62
     7
 10
60.344731999999993
 20
115.113725
 30
0.0
 40
0.4760350000000001
 50
272.06674800000002
 51
357.89019900000011
  0
ARC
  5
312
  8
0
 62
     7
 10
60.344659999999998
 20
115.078602
 30
0.0
 40
0.4761100000000001
 50
2.1182069999999991
 51
87.924847000000014
  0
LINE
  5
313
  8
0
 62
     7
 10
57.028700000000001
 20
115.18000000000001
 30
0.0
 11
57.028700000000001
 21
112.818
 31
0.0
  0
LINE
  5
314
  8
0
 62
     7
 10
60.361899999999999
 20
114.63800000000001
 30
0.0
 11
60.361899999999999
 21
115.18000000000001
 31
0.0
  0
LINE
  5
315
  8
0
 62
     7
 10
57.862099999999998
 20
116.01300000000001
 30
0.0
 11
62.695300000000003
 21
116.01300000000001
 31
0.0
  0
LINE
  5
316
  8
0
 62
     7
 10
93.695800000000006
 20
104.456
 30
0.0
 11
93.695800000000006
 21
111.73699999999999
 31
0.0
  0
ARC
  5
317
  8
0
 62
     7
 10
86.991268999999988
 20
100.141255
 30
0.0
 40
1.038729
 50
2.1117819999999989
 51
87.92768199999999
  0
ARC
  5
318
  8
0
 62
     7
 10
87.067445999999975
 20
100.140558
 30
0.0
 40
1.0394639999999991
 50
92.128997999999996
 51
177.85123200000001
  0
ARC
  5
319
  8
0
 62
     7
 10
75.352003999999994
 20
109.99810600000001
 30
0.0
 40
0.5313470000000001
 50
19.941708999999999
 51
88.891372000000004
  0
ARC
  5
31A
  8
0
 62
     7
 10
75.371883999999994
 20
109.99905800000001
 30
0.0
 40
0.5303810000000001
 50
91.036985000000001
 51
160.12989400000001
  0
ARC
  5
31B
  8
0
 62
     7
 10
75.374926000000002
 20
106.205262
 30
0.0
 40
0.537486
 50
200.98176000000001
 51
286.66111300000011
  0
ARC
  5
31C
  8
0
 62
     7
 10
75.355008999999995
 20
106.186824
 30
0.0
 40
0.5260970000000002
 50
289.31582100000003
 51
340.684189
  0
ARC
  5
31D
  8
0
 62
     7
 10
75.335600999999997
 20
100.16074
 30
0.0
 40
1.0266280000000001
 50
1.048802
 51
69.461981999999992
  0
LINE
  5
31E
  8
0
 62
     7
 10
76.362099999999998
 20
100.18000000000001
 30
0.0
 11
80.278800000000004
 21
100.18000000000001
 31
0.0
  0
LINE
  5
31F
  8
0
 62
     7
 10
83.445599999999985
 20
100.18000000000001
 30
0.0
 11
86.028700000000015
 21
100.18000000000001
 31
0.0
  0
LINE
  5
320
  8
0
 62
     7
 10
95.028699999999986
 20
110.63800000000001
 30
0.0
 11
94.945700000000016
 21
110.55500000000001
 31
0.0
  0
LINE
  5
321
  8
0
 62
     7
 10
94.945700000000016
 20
105.721
 30
0.0
 11
95.028699999999986
 21
105.63800000000001
 31
0.0
  0
LINE
  5
322
  8
0
 62
     7
 10
95.028699999999986
 20
110.63800000000001
 30
0.0
 11
95.028699999999986
 21
105.63800000000001
 31
0.0
  0
LINE
  5
323
  8
0
 62
     7
 10
94.945700000000016
 20
105.721
 30
0.0
 11
94.945700000000016
 21
110.55500000000001
 31
0.0
  0
LINE
  5
324
  8
0
 62
     7
 10
90.362300000000005
 20
107.413
 30
0.0
 11
90.362300000000005
 21
108.779
 31
0.0
  0
ARC
  5
325
  8
0
 62
     7
 10
90.388311999999999
 20
108.06970800000001
 30
0.0
 40
0.7100010000000001
 50
92.097577000000001
 51
177.844606
  0
ARC
  5
326
  8
0
 62
     7
 10
90.388361000000003
 20
108.12244699999999
 30
0.0
 40
0.710024
 50
182.101451
 51
267.89857799999999
  0
ARC
  5
327
  8
0
 62
     7
 10
90.336289000000008
 20
108.12244699999999
 30
0.0
 40
0.710025
 50
272.10145899999998
 51
357.898551
  0
ARC
  5
328
  8
0
 62
     7
 10
90.336966000000004
 20
108.07033699999999
 30
0.0
 40
0.7093500000000002
 50
2.1065200000000002
 51
87.951257999999996
  0
ARC
  5
329
  8
0
 62
     7
 10
92.054783000000015
 20
109.40397400000001
 30
0.0
 40
0.709687
 50
92.103955000000013
 51
177.92490100000001
  0
ARC
  5
32A
  8
0
 62
     7
 10
92.055097000000004
 20
109.45568299999999
 30
0.0
 40
0.710012
 50
182.09952100000001
 51
267.871623
  0
ARC
  5
32B
  8
0
 62
     7
 10
92.002692999999994
 20
109.455707
 30
0.0
 40
0.710025
 50
272.10145899999998
 51
357.898551
  0
ARC
  5
32C
  8
0
 62
     7
 10
92.002673000000001
 20
109.403616
 30
0.0
 40
0.7100450000000002
 50
2.102978999999999
 51
87.897011000000006
  0
LINE
  5
32D
  8
0
 62
     7
 10
93.695800000000006
 20
103.98399999999999
 30
0.0
 11
93.695800000000006
 21
103.61
 31
0.0
  0
LINE
  5
32E
  8
0
 62
     7
 10
93.695800000000006
 20
103.61
 30
0.0
 11
93.695800000000006
 21
103.375
 31
0.0
  0
LINE
  5
32F
  8
0
 62
     7
 10
93.695800000000006
 20
104.456
 30
0.0
 11
93.695800000000006
 21
103.98399999999999
 31
0.0
  0
ARC
  5
330
  8
0
 62
     7
 10
92.054783000000015
 20
106.73676399999999
 30
0.0
 40
0.709687
 50
92.103955000000013
 51
177.92490100000001
  0
ARC
  5
331
  8
0
 62
     7
 10
92.054419999999993
 20
106.788511
 30
0.0
 40
0.7093370000000001
 50
182.10458899999989
 51
267.92434100000003
  0
ARC
  5
332
  8
0
 62
     7
 10
92.002740999999986
 20
106.789164
 30
0.0
 40
0.7100010000000001
 50
272.09759700000001
 51
357.84462600000001
  0
ARC
  5
333
  8
0
 62
     7
 10
92.002692999999994
 20
106.73642599999999
 30
0.0
 40
0.710025
 50
2.1014490000000001
 51
87.898541000000009
  0
LINE
  5
334
  8
0
 62
     7
 10
92.151700000000005
 20
101.298
 30
0.0
 11
92.493099999999984
 21
101.637
 31
0.0
  0
LINE
  5
335
  8
0
 62
     7
 10
92.493099999999984
 20
101.637
 30
0.0
 11
92.370099999999994
 21
102.102
 31
0.0
  0
ARC
  5
336
  8
0
 62
     7
 10
92.830466999999985
 20
101.044912
 30
0.0
 40
0.865958
 50
272.09362599999997
 51
357.85901200000001
  0
LINE
  5
337
  8
0
 62
     7
 10
93.612099999999984
 20
100.18000000000001
 30
0.0
 11
92.862099999999998
 21
100.18000000000001
 31
0.0
  0
LINE
  5
338
  8
0
 62
     7
 10
91.564700000000002
 20
101.889
 30
0.0
 11
91.687999999999988
 21
101.42400000000001
 31
0.0
  0
LINE
  5
339
  8
0
 62
     7
 10
91.906099999999995
 20
102.22799999999999
 30
0.0
 11
91.564700000000002
 21
101.889
 31
0.0
  0
ARC
  5
33A
  8
0
 62
     7
 10
91.104555999999988
 20
100.928524
 30
0.0
 40
0.7422310000000002
 50
179.94865200000001
 51
202.77663000000001
  0
ARC
  5
33B
  8
0
 62
     7
 10
90.379545999999991
 20
101.079069
 30
0.0
 40
0.476065
 50
92.073016999999993
 51
177.96998400000001
  0
ARC
  5
33C
  8
0
 62
     7
 10
90.379564999999985
 20
101.11353
 30
0.0
 40
0.4761100000000001
 50
182.11820899999989
 51
267.92488400000002
  0
ARC
  5
33D
  8
0
 62
     7
 10
90.345143999999991
 20
101.113114
 30
0.0
 40
0.4756930000000001
 50
272.069928
 51
357.93008099999997
  0
ARC
  5
33E
  8
0
 62
     7
 10
90.344456000000008
 20
101.078779
 30
0.0
 40
0.476378
 50
2.0635629999999998
 51
87.850333000000006
  0
LINE
  5
33F
  8
0
 62
     7
 10
90.362300000000005
 20
100.929
 30
0.0
 11
90.362300000000005
 21
101.55500000000001
 31
0.0
  0
ARC
  5
340
  8
0
 62
     7
 10
92.060400999999999
 20
101.73159200000001
 30
0.0
 40
0.864924
 50
92.098562999999999
 51
177.92510799999999
  0
ARC
  5
341
  8
0
 62
     7
 10
92.061413000000002
 20
101.794518
 30
0.0
 40
0.8659459999999999
 50
182.09203600000001
 51
267.83692200000002
  0
ARC
  5
342
  8
0
 62
     7
 10
91.997034999999997
 20
101.79424299999999
 30
0.0
 40
0.8656349999999999
 50
272.09824300000002
 51
357.92544700000002
  0
ARC
  5
343
  8
0
 62
     7
 10
91.997398000000004
 20
101.731219
 30
0.0
 40
0.865285
 50
2.0987230000000001
 51
87.92495799999999
  0
ARC
  5
344
  8
0
 62
     7
 10
92.057693999999984
 20
101.733583
 30
0.0
 40
0.77952
 50
92.129522999999992
 51
177.844122
  0
ARC
  5
345
  8
0
 62
     7
 10
92.058056999999991
 20
101.791878
 30
0.0
 40
0.7798689999999999
 50
182.128973
 51
267.84474399999999
  0
ARC
  5
346
  8
0
 62
     7
 10
91.999734000000004
 20
101.791544
 30
0.0
 40
0.7795220000000001
 50
272.13160099999999
 51
357.894722
  0
ARC
  5
347
  8
0
 62
     7
 10
92.000096999999997
 20
101.733918
 30
0.0
 40
0.7791730000000001
 50
2.1321720000000002
 51
87.894143
  0
LINE
  5
348
  8
0
 62
     7
 10
92.370099999999994
 20
102.102
 30
0.0
 11
91.906099999999995
 21
102.22799999999999
 31
0.0
  0
LINE
  5
349
  8
0
 62
     7
 10
91.687999999999988
 20
101.42400000000001
 30
0.0
 11
92.151700000000005
 21
101.298
 31
0.0
  0
ARC
  5
34A
  8
0
 62
     7
 10
92.068731999999997
 20
101.72326200000001
 30
0.0
 40
1.082188999999999
 50
92.118413000000004
 51
177.900508
  0
ARC
  5
34B
  8
0
 62
     7
 10
92.069045999999986
 20
101.80286700000001
 30
0.0
 40
1.0825139999999991
 50
182.11550299999999
 51
267.86557599999998
  0
ARC
  5
34C
  8
0
 62
     7
 10
91.988743999999997
 20
101.802892
 30
0.0
 40
1.082527
 50
272.11677600000002
 51
357.88323300000002
  0
ARC
  5
34D
  8
0
 62
     7
 10
91.988743999999997
 20
101.72292299999999
 30
0.0
 40
1.082527
 50
2.116766999999999
 51
87.883223999999998
  0
ARC
  5
34E
  8
0
 62
     7
 10
89.554986999999997
 20
102.40315699999999
 30
0.0
 40
0.710024
 50
92.101421999999985
 51
177.898549
  0
ARC
  5
34F
  8
0
 62
     7
 10
89.554310000000001
 20
102.45526700000001
 30
0.0
 40
0.709349
 50
182.10652200000001
 51
267.95129500000002
  0
ARC
  5
350
  8
0
 62
     7
 10
89.502944999999997
 20
102.455557
 30
0.0
 40
0.7096630000000002
 50
272.10012899999998
 51
357.87097999999997
  0
ARC
  5
351
  8
0
 62
     7
 10
89.502581999999975
 20
102.403181
 30
0.0
 40
0.710013
 50
2.0995180000000002
 51
87.871585999999994
  0
LINE
  5
352
  8
0
 62
     7
 10
88.029300000000006
 20
100.18000000000001
 30
0.0
 11
92.862099999999998
 21
100.18000000000001
 31
0.0
  0
LINE
  5
353
  8
0
 62
     7
 10
93.695800000000006
 20
103.375
 30
0.0
 11
93.695800000000006
 21
101.01300000000001
 31
0.0
  0
ARC
  5
354
  8
0
 62
     7
 10
87.066733999999997
 20
116.05086300000001
 30
0.0
 40
1.038726
 50
182.11099300000001
 51
267.90877699999999
  0
ARC
  5
355
  8
0
 62
     7
 10
86.990227999999988
 20
116.051919
 30
0.0
 40
1.039806999999999
 50
272.12753900000001
 51
357.83299799999998
  0
ARC
  5
356
  8
0
 62
     7
 10
75.400188999999983
 20
116.05086300000001
 30
0.0
 40
1.038726
 50
182.11099300000001
 51
267.90877699999999
  0
ARC
  5
357
  8
0
 62
     7
 10
75.323660000000004
 20
116.051226
 30
0.0
 40
1.039115999999999
 50
272.130224
 51
357.86978599999998
  0
LINE
  5
358
  8
0
 62
     7
 10
76.362099999999998
 20
116.01300000000001
 30
0.0
 11
86.028700000000015
 21
116.01300000000001
 31
0.0
  0
ARC
  5
359
  8
0
 62
     7
 10
92.831105000000008
 20
115.14785999999999
 30
0.0
 40
0.8652969999999999
 50
2.1003080000000001
 51
87.947054000000009
  0
LINE
  5
35A
  8
0
 62
     7
 10
93.612099999999984
 20
116.01300000000001
 30
0.0
 11
92.862099999999998
 21
116.01300000000001
 31
0.0
  0
ARC
  5
35B
  8
0
 62
     7
 10
91.088037999999997
 20
115.26692799999999
 30
0.0
 40
0.725723
 50
156.96012400000001
 51
180.314593
  0
LINE
  5
35C
  8
0
 62
     7
 10
92.370099999999994
 20
114.768
 30
0.0
 11
91.906099999999995
 21
114.895
 31
0.0
  0
LINE
  5
35D
  8
0
 62
     7
 10
92.151700000000005
 20
113.964
 30
0.0
 11
92.493099999999984
 21
114.303
 31
0.0
  0
LINE
  5
35E
  8
0
 62
     7
 10
93.695800000000006
 20
112.208
 30
0.0
 11
93.695800000000006
 21
112.58199999999999
 31
0.0
  0
LINE
  5
35F
  8
0
 62
     7
 10
93.695800000000006
 20
112.818
 30
0.0
 11
93.695800000000006
 21
112.58199999999999
 31
0.0
  0
LINE
  5
360
  8
0
 62
     7
 10
93.695800000000006
 20
112.208
 30
0.0
 11
93.695800000000006
 21
111.73699999999999
 31
0.0
  0
LINE
  5
361
  8
0
 62
     7
 10
91.564700000000002
 20
114.556
 30
0.0
 11
91.687999999999988
 21
114.09
 31
0.0
  0
LINE
  5
362
  8
0
 62
     7
 10
91.687999999999988
 20
114.09
 30
0.0
 11
92.151700000000005
 21
113.964
 31
0.0
  0
ARC
  5
363
  8
0
 62
     7
 10
92.057742999999988
 20
114.400569
 30
0.0
 40
0.779543
 50
92.133020999999985
 51
177.89326199999999
  0
ARC
  5
364
  8
0
 62
     7
 10
92.057359999999989
 20
114.458214
 30
0.0
 40
0.7791730000000001
 50
182.13219100000001
 51
267.89416299999999
  0
ARC
  5
365
  8
0
 62
     7
 10
91.999782999999994
 20
114.458529
 30
0.0
 40
0.7794979999999999
 50
272.128086
 51
357.84559900000011
  0
ARC
  5
366
  8
0
 62
     7
 10
91.999420000000001
 20
114.40027499999999
 30
0.0
 40
0.779848
 50
2.1274980000000001
 51
87.846180000000004
  0
LINE
  5
367
  8
0
 62
     7
 10
92.493099999999984
 20
114.303
 30
0.0
 11
92.370099999999994
 21
114.768
 31
0.0
  0
LINE
  5
368
  8
0
 62
     7
 10
91.906099999999995
 20
114.895
 30
0.0
 11
91.564700000000002
 21
114.556
 31
0.0
  0
ARC
  5
369
  8
0
 62
     7
 10
92.060450000000003
 20
114.39857600000001
 30
0.0
 40
0.864949
 50
92.101733999999993
 51
177.96930800000001
  0
ARC
  5
36A
  8
0
 62
     7
 10
92.060725000000005
 20
114.460864
 30
0.0
 40
0.8652599999999999
 50
182.09555599999999
 51
267.88077299999998
  0
ARC
  5
36B
  8
0
 62
     7
 10
91.997084000000001
 20
114.46122800000001
 30
0.0
 40
0.86561
 50
272.09507500000001
 51
357.88124399999998
  0
ARC
  5
36C
  8
0
 62
     7
 10
91.996711000000005
 20
114.397566
 30
0.0
 40
0.86597
 50
2.0952000000000002
 51
87.881109999999978
  0
ARC
  5
36D
  8
0
 62
     7
 10
92.068731999999997
 20
114.38958
 30
0.0
 40
1.082188999999999
 50
92.118413000000004
 51
177.900508
  0
ARC
  5
36E
  8
0
 62
     7
 10
92.068348999999998
 20
114.46920299999999
 30
0.0
 40
1.0818179999999991
 50
182.11782199999999
 51
267.90116399999999
  0
ARC
  5
36F
  8
0
 62
     7
 10
91.988792999999987
 20
114.469877
 30
0.0
 40
1.0825029999999991
 50
272.11424499999998
 51
357.84785900000003
  0
ARC
  5
370
  8
0
 62
     7
 10
91.988743999999997
 20
114.389241
 30
0.0
 40
1.082527
 50
2.116766999999999
 51
87.883223999999998
  0
ARC
  5
371
  8
0
 62
     7
 10
90.379497000000001
 20
115.078671
 30
0.0
 40
0.47604
 50
92.067251999999996
 51
177.889655
  0
ARC
  5
372
  8
0
 62
     7
 10
90.379564999999985
 20
115.113798
 30
0.0
 40
0.4761100000000001
 50
182.11820899999989
 51
267.92488400000002
  0
ARC
  5
373
  8
0
 62
     7
 10
90.345143999999991
 20
115.113382
 30
0.0
 40
0.4756930000000001
 50
272.069928
 51
357.93008099999997
  0
ARC
  5
374
  8
0
 62
     7
 10
90.345143999999991
 20
115.079019
 30
0.0
 40
0.4756930000000001
 50
2.0699190000000001
 51
87.930071999999996
  0
LINE
  5
375
  8
0
 62
     7
 10
93.695800000000006
 20
112.818
 30
0.0
 11
93.695800000000006
 21
115.18000000000001
 31
0.0
  0
LINE
  5
376
  8
0
 62
     7
 10
90.362300000000005
 20
114.63800000000001
 30
0.0
 11
90.362300000000005
 21
115.26300000000001
 31
0.0
  0
LINE
  5
377
  8
0
 62
     7
 10
88.029300000000006
 20
116.01300000000001
 30
0.0
 11
92.862099999999998
 21
116.01300000000001
 31
0.0
  0
ARC
  5
378
  8
0
 62
     7
 10
89.554986999999997
 20
113.736904
 30
0.0
 40
0.710024
 50
92.101421999999985
 51
177.898549
  0
ARC
  5
379
  8
0
 62
     7
 10
89.554986999999997
 20
113.78897499999999
 30
0.0
 40
0.710024
 50
182.101451
 51
267.89857799999999
  0
ARC
  5
37A
  8
0
 62
     7
 10
89.50289699999999
 20
113.78863699999999
 30
0.0
 40
0.709687
 50
272.103993
 51
357.92490400000003
  0
ARC
  5
37B
  8
0
 62
     7
 10
89.502581999999975
 20
113.73692800000001
 30
0.0
 40
0.710013
 50
2.0995180000000002
 51
87.871585999999994
  0
LINE
  5
37C
  8
0
 62
     7
 10
62.34770000000001
 20
103.375
 30
0.0
 11
57.028700000000001
 21
103.375
 31
0.0
  0
LINE
  5
37D
  8
0
 62
     7
 10
74.761499999999998
 20
104.456
 30
0.0
 11
78.435299999999998
 21
104.456
 31
0.0
  0
LINE
  5
37E
  8
0
 62
     7
 10
85.284199999999998
 20
104.456
 30
0.0
 11
93.695800000000006
 21
104.456
 31
0.0
  0
LINE
  5
37F
  8
0
 62
     7
 10
96.195599999999985
 20
189.78999999999999
 30
0.0
 11
95.028699999999986
 21
189.78999999999999
 31
0.0
  0
LINE
  5
380
  8
0
 62
     7
 10
93.612099999999984
 20
192.62299999999999
 30
0.0
 11
95.612300000000005
 21
192.62299999999999
 31
0.0
  0
LINE
  5
381
  8
0
  6
AIGENLINE002
 62
     7
 10
151.48599999999999
 20
119.465
 30
0.0
 11
151.48599999999999
 21
96.336200000000005
 31
0.0
  0
LINE
  5
382
  8
0
  6
AIGENLINE002
 62
     7
 10
149.81899999999999
 20
119.465
 30
0.0
 11
149.81899999999999
 21
96.336200000000005
 31
0.0
  0
LINE
  5
383
  8
0
 62
     7
 10
93.612099999999984
 20
193.03999999999999
 30
0.0
 11
95.612300000000005
 21
193.03999999999999
 31
0.0
  0
LINE
  5
384
  8
0
 62
     7
 10
96.195599999999985
 20
110.63800000000001
 30
0.0
 11
95.028699999999986
 21
110.63800000000001
 31
0.0
  0
LINE
  5
385
  8
0
 62
     7
 10
95.028699999999986
 20
105.63800000000001
 30
0.0
 11
96.195599999999985
 21
105.63800000000001
 31
0.0
  0
ARC
  5
386
  8
0
 62
     7
 10
94.574268999999987
 20
100.140863
 30
0.0
 40
1.0391349999999999
 50
2.1325780000000001
 51
87.906886000000014
  0
ARC
  5
387
  8
0
 62
     7
 10
94.650842999999995
 20
100.140553
 30
0.0
 40
1.0394699999999999
 50
92.129270999999989
 51
177.85095899999999
  0
ARC
  5
388
  8
0
 62
     7
 10
94.650518000000005
 20
116.051255
 30
0.0
 40
1.0391330000000001
 50
182.1318259999999
 51
267.887944
  0
ARC
  5
389
  8
0
 62
     7
 10
94.573619999999991
 20
116.051919
 30
0.0
 40
1.039806999999999
 50
272.12753900000001
 51
357.83299799999998
  0
LINE
  5
38A
  8
0
 62
     7
 10
97.362099999999984
 20
181.70699999999999
 30
0.0
 11
107.446
 21
181.70699999999999
 31
0.0
  0
LINE
  5
38B
  8
0
 62
     7
 10
107.446
 20
181.28999999999999
 30
0.0
 11
97.362099999999984
 21
181.28999999999999
 31
0.0
  0
LINE
  5
38C
  8
0
 62
     7
 10
97.228800000000007
 20
186.91499999999999
 30
0.0
 11
97.112300000000005
 21
186.91499999999999
 31
0.0
  0
ARC
  5
38D
  8
0
 62
     7
 10
97.115585999999993
 20
186.828216
 30
0.0
 40
0.086682
 50
92.143837000000005
 51
177.73763099999999
  0
LINE
  5
38E
  8
0
 62
     7
 10
97.362099999999984
 20
186.28999999999999
 30
0.0
 11
97.228800000000007
 21
186.28999999999999
 31
0.0
  0
LINE
  5
38F
  8
0
 62
     7
 10
97.028999999999996
 20
187.12299999999999
 30
0.0
 11
96.612099999999998
 21
187.12299999999999
 31
0.0
  0
LINE
  5
390
  8
0
 62
     7
 10
97.445499999999996
 20
186.20699999999999
 30
0.0
 11
97.445499999999996
 21
185.62299999999999
 31
0.0
  0
LINE
  5
391
  8
0
 62
     7
 10
97.445499999999996
 20
186.20699999999999
 30
0.0
 11
97.362099999999984
 21
186.28999999999999
 31
0.0
  0
LINE
  5
392
  8
0
 62
     7
 10
97.362099999999984
 20
185.62299999999999
 30
0.0
 11
97.362099999999984
 21
186.28999999999999
 31
0.0
  0
LINE
  5
393
  8
0
 62
     7
 10
97.112300000000005
 20
184.33199999999999
 30
0.0
 11
97.228800000000007
 21
184.33199999999999
 31
0.0
  0
ARC
  5
394
  8
0
 62
     7
 10
97.115597999999991
 20
184.41831500000001
 30
0.0
 40
0.086688
 50
182.15176
 51
267.84827000000001
  0
LINE
  5
395
  8
0
 62
     7
 10
97.228800000000007
 20
184.95699999999999
 30
0.0
 11
97.362099999999984
 21
184.95699999999999
 31
0.0
  0
LINE
  5
396
  8
0
 62
     7
 10
97.362099999999984
 20
184.95699999999999
 30
0.0
 11
97.445499999999996
 21
185.03999999999999
 31
0.0
  0
LINE
  5
397
  8
0
 62
     7
 10
97.028999999999996
 20
184.12299999999999
 30
0.0
 11
97.112300000000005
 21
184.12299999999999
 31
0.0
  0
LINE
  5
398
  8
0
 62
     7
 10
97.112300000000005
 20
184.12299999999999
 30
0.0
 11
97.195700000000002
 21
184.20599999999999
 31
0.0
  0
LINE
  5
399
  8
0
 62
     7
 10
97.112300000000005
 20
183.78999999999999
 30
0.0
 11
97.028999999999996
 21
183.78999999999999
 31
0.0
  0
LINE
  5
39A
  8
0
 62
     7
 10
97.195700000000002
 20
183.70699999999999
 30
0.0
 11
97.112300000000005
 21
183.78999999999999
 31
0.0
  0
LINE
  5
39B
  8
0
 62
     7
 10
97.112300000000005
 20
184.12299999999999
 30
0.0
 11
97.112300000000005
 21
184.33199999999999
 31
0.0
  0
LINE
  5
39C
  8
0
 62
     7
 10
97.195700000000002
 20
184.33199999999999
 30
0.0
 11
97.195700000000002
 21
184.20599999999999
 31
0.0
  0
LINE
  5
39D
  8
0
 62
     7
 10
95.195499999999996
 20
184.62299999999999
 30
0.0
 11
95.195499999999996
 21
184.78999999999999
 31
0.0
  0
LINE
  5
39E
  8
0
 62
     7
 10
95.278899999999993
 20
184.78999999999999
 30
0.0
 11
95.278899999999993
 21
184.62299999999999
 31
0.0
  0
ARC
  5
39F
  8
0
 62
     7
 10
95.282128
 20
184.036439
 30
0.0
 40
0.086709
 50
92.165056000000007
 51
177.834914
  0
LINE
  5
3A0
  8
0
 62
     7
 10
95.195499999999996
 20
183.422
 30
0.0
 11
95.195499999999996
 21
184.03999999999999
 31
0.0
  0
LINE
  5
3A1
  8
0
 62
     7
 10
95.278899999999993
 20
184.12299999999999
 30
0.0
 11
95.278899999999993
 21
183.43700000000001
 31
0.0
  0
LINE
  5
3A2
  8
0
 62
     7
 10
95.195499999999996
 20
184.03999999999999
 30
0.0
 11
95.195499999999996
 21
184.62299999999999
 31
0.0
  0
LINE
  5
3A3
  8
0
 62
     7
 10
95.278899999999993
 20
184.62299999999999
 30
0.0
 11
95.278899999999993
 21
184.12299999999999
 31
0.0
  0
LINE
  5
3A4
  8
0
 62
     7
 10
96.195599999999985
 20
184.12299999999999
 30
0.0
 11
95.278899999999993
 21
184.12299999999999
 31
0.0
  0
LINE
  5
3A5
  8
0
 62
     7
 10
97.028999999999996
 20
182.78999999999991
 30
0.0
 11
97.112300000000005
 21
182.78999999999991
 31
0.0
  0
LINE
  5
3A6
  8
0
 62
     7
 10
97.112300000000005
 20
182.78999999999991
 30
0.0
 11
97.195700000000002
 21
182.87299999999999
 31
0.0
  0
LINE
  5
3A7
  8
0
 62
     7
 10
96.195599999999985
 20
182.53999999999999
 30
0.0
 11
96.612099999999998
 21
182.53999999999999
 31
0.0
  0
ARC
  5
3A8
  8
0
 62
     7
 10
97.375596999999999
 20
182.053121
 30
0.0
 40
0.3468739999999999
 50
182.16842600000001
 51
267.77238299999999
  0
LINE
  5
3A9
  8
0
 62
     7
 10
96.612099999999998
 20
181.78999999999999
 30
0.0
 11
96.195599999999985
 21
181.78999999999999
 31
0.0
  0
LINE
  5
3AA
  8
0
 62
     7
 10
96.612099999999998
 20
182.03999999999999
 30
0.0
 11
96.612099999999998
 21
181.78999999999999
 31
0.0
  0
LINE
  5
3AB
  8
0
 62
     7
 10
96.195599999999985
 20
181.78999999999999
 30
0.0
 11
96.195599999999985
 21
182.53999999999999
 31
0.0
  0
ARC
  5
3AC
  8
0
 62
     7
 10
95.282149000000004
 20
182.54300699999999
 30
0.0
 40
0.086731
 50
182.17850200000001
 51
267.821527
  0
LINE
  5
3AD
  8
0
 62
     7
 10
95.278899999999993
 20
182.45599999999999
 30
0.0
 11
96.195599999999985
 21
182.45599999999999
 31
0.0
  0
LINE
  5
3AE
  8
0
 62
     7
 10
95.195499999999996
 20
182.53999999999999
 30
0.0
 11
95.195499999999996
 21
183.422
 31
0.0
  0
LINE
  5
3AF
  8
0
 62
     7
 10
97.112300000000005
 20
182.78999999999991
 30
0.0
 11
97.112300000000005
 21
183.78999999999999
 31
0.0
  0
LINE
  5
3B0
  8
0
 62
     7
 10
97.195700000000002
 20
183.70699999999999
 30
0.0
 11
97.195700000000002
 21
182.87299999999999
 31
0.0
  0
LINE
  5
3B1
  8
0
 62
     7
 10
95.278899999999993
 20
183.43700000000001
 30
0.0
 11
95.278899999999993
 21
182.45599999999999
 31
0.0
  0
ARC
  5
3B2
  8
0
 62
     7
 10
97.391268999999994
 20
182.068972
 30
0.0
 40
0.7796950000000001
 50
182.12977699999999
 51
267.85709500000002
  0
LINE
  5
3B3
  8
0
 62
     7
 10
97.228800000000007
 20
184.33199999999999
 30
0.0
 11
97.228800000000007
 21
186.91499999999999
 31
0.0
  0
LINE
  5
3B4
  8
0
 62
     7
 10
97.362099999999984
 20
184.95699999999999
 30
0.0
 11
97.362099999999984
 21
185.62299999999999
 31
0.0
  0
LINE
  5
3B5
  8
0
 62
     7
 10
97.445499999999996
 20
185.62299999999999
 30
0.0
 11
97.445499999999996
 21
185.03999999999999
 31
0.0
  0
LINE
  5
3B6
  8
0
 62
     7
 10
96.612099999999998
 20
182.03999999999999
 30
0.0
 11
96.612099999999998
 21
187.12299999999999
 31
0.0
  0
LINE
  5
3B7
  8
0
 62
     7
 10
97.028999999999996
 20
187.12299999999999
 30
0.0
 11
97.028999999999996
 21
182.03999999999999
 31
0.0
  0
LINE
  5
3B8
  8
0
 62
     7
 10
97.112300000000005
 20
186.91499999999999
 30
0.0
 11
97.112300000000005
 21
184.33199999999999
 31
0.0
  0
LINE
  5
3B9
  8
0
 62
     7
 10
107.446
 20
181.70699999999999
 30
0.0
 11
108.279
 21
181.70699999999999
 31
0.0
  0
LINE
  5
3BA
  8
0
 62
     7
 10
108.279
 20
181.28999999999999
 30
0.0
 11
107.446
 21
181.28999999999999
 31
0.0
  0
LINE
  5
3BB
  8
0
 62
     7
 10
107.446
 20
181.28999999999999
 30
0.0
 11
107.446
 21
181.70699999999999
 31
0.0
  0
LINE
  5
3BC
  8
0
 62
     7
 10
108.279
 20
181.70699999999999
 30
0.0
 11
108.279
 21
181.28999999999999
 31
0.0
  0
LINE
  5
3BD
  8
0
 62
     7
 10
66.020499999999998
 20
179.20599999999999
 30
0.0
 11
66.020499999999998
 21
180.95599999999999
 31
0.0
  0
LINE
  5
3BE
  8
0
 62
     7
 10
65.895399999999995
 20
179.20599999999999
 30
0.0
 11
65.895399999999995
 21
180.95599999999999
 31
0.0
  0
LINE
  5
3BF
  8
0
 62
     7
 10
71.720500000000001
 20
179.20599999999999
 30
0.0
 11
71.720500000000001
 21
180.95599999999999
 31
0.0
  0
LINE
  5
3C0
  8
0
 62
     7
 10
71.845500000000001
 20
179.20599999999999
 30
0.0
 11
71.845500000000001
 21
180.95599999999999
 31
0.0
  0
LINE
  5
3C1
  8
0
 62
     7
 10
71.576400000000007
 20
184.37299999999999
 30
0.0
 11
80.075500000000005
 21
184.37299999999999
 31
0.0
  0
LINE
  5
3C2
  8
0
 62
     7
 10
80.075500000000005
 20
184.78999999999999
 30
0.0
 11
71.573700000000002
 21
184.78999999999999
 31
0.0
  0
LINE
  5
3C3
  8
0
 62
     7
 10
65.370400000000004
 20
180.95599999999999
 30
0.0
 11
72.370500000000007
 21
180.95599999999999
 31
0.0
  0
LINE
  5
3C4
  8
0
 62
     7
 10
72.370500000000007
 20
181.78999999999999
 30
0.0
 11
65.370400000000004
 21
181.78999999999999
 31
0.0
  0
LINE
  5
3C5
  8
0
 62
     7
 10
65.370400000000004
 20
184.37299999999999
 30
0.0
 11
72.370500000000007
 21
184.37299999999999
 31
0.0
  0
LINE
  5
3C6
  8
0
 62
     7
 10
65.370400000000004
 20
181.78999999999999
 30
0.0
 11
72.370500000000007
 21
181.78999999999999
 31
0.0
  0
LINE
  5
3C7
  8
0
 62
     7
 10
65.953699999999984
 20
181.78999999999999
 30
0.0
 11
65.537199999999999
 21
181.78999999999999
 31
0.0
  0
LINE
  5
3C8
  8
0
 62
     7
 10
65.370400000000004
 20
181.78999999999999
 30
0.0
 11
65.370400000000004
 21
180.95599999999999
 31
0.0
  0
LINE
  5
3C9
  8
0
 62
     7
 10
66.166200000000003
 20
184.37299999999999
 30
0.0
 11
66.170000000000002
 21
186.12299999999999
 31
0.0
  0
LINE
  5
3CA
  8
0
 62
     7
 10
64.3703
 20
186.53999999999999
 30
0.0
 11
64.939400000000006
 21
186.53999999999999
 31
0.0
  0
ARC
  5
3CB
  8
0
 62
     7
 10
64.373688999999999
 20
189.87093300000001
 30
0.0
 40
3.3786269999999989
 50
279.63936999999999
 51
287.15802500000001
  0
LINE
  5
3CC
  8
0
 62
     7
 10
67.620400000000004
 20
181.78999999999999
 30
0.0
 11
66.786999999999992
 21
181.78999999999999
 31
0.0
  0
LINE
  5
3CD
  8
0
 62
     7
 10
72.370500000000007
 20
181.78999999999999
 30
0.0
 11
72.370500000000007
 21
184.37299999999999
 31
0.0
  0
LINE
  5
3CE
  8
0
 62
     7
 10
72.370500000000007
 20
181.78999999999999
 30
0.0
 11
72.370500000000007
 21
180.95599999999999
 31
0.0
  0
LINE
  5
3CF
  8
0
 62
     7
 10
71.574399999999997
 20
184.37299999999999
 30
0.0
 11
71.570599999999999
 21
186.12299999999999
 31
0.0
  0
LINE
  5
3D0
  8
0
 62
     7
 10
69.203800000000001
 20
181.78999999999999
 30
0.0
 11
67.620400000000004
 21
181.78999999999999
 31
0.0
  0
LINE
  5
3D1
  8
0
 62
     7
 10
70.203900000000004
 20
181.78999999999999
 30
0.0
 11
69.203800000000001
 21
181.78999999999999
 31
0.0
  0
LINE
  5
3D2
  8
0
 62
     7
 10
86.620599999999996
 20
185.03999999999999
 30
0.0
 11
84.6203
 21
185.03999999999999
 31
0.0
  0
LINE
  5
3D3
  8
0
 62
     7
 10
84.6203
 20
185.03999999999999
 30
0.0
 11
84.6203
 21
181.28999999999999
 31
0.0
  0
LINE
  5
3D4
  8
0
 62
     7
 10
79.120599999999996
 20
181.28999999999999
 30
0.0
 11
79.120599999999996
 21
184.37299999999999
 31
0.0
  0
LINE
  5
3D5
  8
0
 62
     7
 10
79.421000000000006
 20
184.78999999999999
 30
0.0
 11
79.421000000000006
 21
186.03999999999999
 31
0.0
  0
LINE
  5
3D6
  8
0
 62
     7
 10
80.075500000000005
 20
184.37299999999999
 30
0.0
 11
80.075500000000005
 21
184.78999999999999
 31
0.0
  0
LINE
  5
3D7
  8
0
 62
     7
 10
84.6203
 20
181.28999999999999
 30
0.0
 11
79.120599999999996
 21
181.28999999999999
 31
0.0
  0
ARC
  5
3D8
  8
0
 62
     7
 10
53.766261
 20
182.05236099999999
 30
0.0
 40
0.346073
 50
272.04747200000003
 51
357.95253800000012
  0
ARC
  5
3D9
  8
0
 62
     7
 10
53.749633000000003
 20
182.06881000000001
 30
0.0
 40
0.7795270000000001
 50
272.13144999999997
 51
357.88171800000009
  0
LINE
  5
3DA
  8
0
 62
     7
 10
53.778599999999997
 20
181.28999999999999
 30
0.0
 11
43.695500000000003
 21
181.28999999999999
 31
0.0
  0
LINE
  5
3DB
  8
0
 62
     7
 10
43.695500000000003
 20
181.70699999999999
 30
0.0
 11
53.778599999999997
 21
181.70699999999999
 31
0.0
  0
LINE
  5
3DC
  8
0
 62
     7
 10
58.913899999999998
 20
184.87299999999999
 30
0.0
 11
59.528500000000001
 21
184.87299999999999
 31
0.0
  0
LINE
  5
3DD
  8
0
 62
     7
 10
57.653700000000001
 20
185.78999999999999
 30
0.0
 11
59.737299999999991
 21
185.78999999999999
 31
0.0
  0
LINE
  5
3DE
  8
0
 62
     7
 10
59.4452
 20
184.78999999999999
 30
0.0
 11
58.8919
 21
184.78999999999999
 31
0.0
  0
LINE
  5
3DF
  8
0
 62
     7
 10
57.611999999999988
 20
185.83099999999999
 30
0.0
 11
57.653700000000001
 21
185.78999999999999
 31
0.0
  0
LINE
  5
3E0
  8
0
 62
     7
 10
57.862099999999998
 20
185.78999999999999
 30
0.0
 11
57.862099999999998
 21
184.87299999999999
 31
0.0
  0
LINE
  5
3E1
  8
0
 62
     7
 10
57.862099999999998
 20
184.87299999999999
 30
0.0
 11
58.913899999999998
 21
184.87299999999999
 31
0.0
  0
LINE
  5
3E2
  8
0
 62
     7
 10
58.8919
 20
184.78999999999999
 30
0.0
 11
57.945099999999989
 21
184.78999999999999
 31
0.0
  0
ARC
  5
3E3
  8
0
 62
     7
 10
57.948605999999998
 20
184.87635900000001
 30
0.0
 40
0.086539
 50
182.0515959999999
 51
267.711185
  0
LINE
  5
3E4
  8
0
 62
     7
 10
59.528500000000001
 20
184.87299999999999
 30
0.0
 11
59.528500000000001
 21
185.78999999999999
 31
0.0
  0
ARC
  5
3E5
  8
0
 62
     7
 10
59.442093999999997
 20
184.87632099999999
 30
0.0
 40
0.086486
 50
272.02763700000003
 51
357.972373
  0
LINE
  5
3E6
  8
0
 62
     7
 10
59.737299999999991
 20
185.78999999999999
 30
0.0
 11
59.77859999999999
 21
185.83099999999999
 31
0.0
  0
LINE
  5
3E7
  8
0
 62
     7
 10
94.945700000000016
 20
184.87299999999999
 30
0.0
 11
95.028699999999986
 21
184.78999999999999
 31
0.0
  0
LINE
  5
3E8
  8
0
 62
     7
 10
95.028699999999986
 20
184.78999999999999
 30
0.0
 11
96.195599999999985
 21
184.78999999999999
 31
0.0
  0
LINE
  5
3E9
  8
0
 62
     7
 10
65.370400000000004
 20
187.28999999999999
 30
0.0
 11
65.370400000000004
 21
181.78999999999999
 31
0.0
  0
ARC
  5
3EA
  8
0
 62
     7
 10
64.370552000000004
 20
188.87347199999999
 30
0.0
 40
2.3332919999999988
 50
90.006345000000024
 51
180.00635500000001
  0
ARC
  5
3EB
  8
0
 62
     7
 10
64.370378999999986
 20
188.87312800000001
 30
0.0
 40
2.3331189999999991
 50
179.99785499999999
 51
269.997905
  0
LINE
  5
3EC
  8
0
 62
     7
 10
72.370500000000007
 20
187.21799999999999
 30
0.0
 11
72.370500000000007
 21
184.78999999999999
 31
0.0
  0
LINE
  5
3ED
  8
0
 62
     7
 10
68.8703
 20
184.37299999999999
 30
0.0
 11
68.8703
 21
188.12299999999999
 31
0.0
  0
ARC
  5
3EE
  8
0
 62
     7
 10
87.018613000000002
 20
186.37335100000001
 30
0.0
 40
2.743990999999999
 50
150.92753999999999
 51
209.07246000000009
  0
ARC
  5
3EF
  8
0
 62
     7
 10
76.672916000000001
 20
186.03295700000001
 30
0.0
 40
2.7480699999999998
 50
0.145788
 51
25.549619
  0
LINE
  5
3F0
  8
0
 62
     7
 10
86.620599999999996
 20
187.70699999999999
 30
0.0
 11
86.620599999999996
 21
185.03999999999999
 31
0.0
  0
LINE
  5
3F1
  8
0
 62
     7
 10
54.528599999999997
 20
192.28999999999999
 30
0.0
 11
54.528599999999997
 21
182.03999999999999
 31
0.0
  0
LINE
  5
3F2
  8
0
 62
     7
 10
54.112099999999998
 20
182.03999999999999
 30
0.0
 11
54.112099999999998
 21
192.28999999999999
 31
0.0
  0
LINE
  5
3F3
  8
0
 62
     7
 10
57.611999999999988
 20
185.999
 30
0.0
 11
57.611999999999988
 21
186.70599999999999
 31
0.0
  0
LINE
  5
3F4
  8
0
 62
     7
 10
58.695500000000003
 20
185.999
 30
0.0
 11
58.695500000000003
 21
186.70599999999999
 31
0.0
  0
LINE
  5
3F5
  8
0
 62
     7
 10
59.77859999999999
 20
185.999
 30
0.0
 11
59.77859999999999
 21
186.70599999999999
 31
0.0
  0
LINE
  5
3F6
  8
0
 62
     7
 10
97.028999999999996
 20
187.95699999999999
 30
0.0
 11
97.028999999999996
 21
187.12299999999999
 31
0.0
  0
LINE
  5
3F7
  8
0
 62
     7
 10
96.612099999999998
 20
187.12299999999999
 30
0.0
 11
96.612099999999998
 21
187.38399999999999
 31
0.0
  0
LINE
  5
3F8
  8
0
 62
     7
 10
95.028699999999986
 20
189.78999999999999
 30
0.0
 11
95.028699999999986
 21
184.78999999999999
 31
0.0
  0
LINE
  5
3F9
  8
0
 62
     7
 10
94.945700000000016
 20
184.87299999999999
 30
0.0
 11
94.945700000000016
 21
189.70699999999999
 31
0.0
  0
LINE
  5
3FA
  8
0
 62
     7
 10
96.195599999999985
 20
182.53999999999999
 30
0.0
 11
96.195599999999985
 21
192.28999999999999
 31
0.0
  0
LINE
  5
3FB
  8
0
 62
     7
 10
42.861699999999999
 20
181.28999999999999
 30
0.0
 11
42.861699999999999
 21
181.70699999999999
 31
0.0
  0
LINE
  5
3FC
  8
0
 62
     7
 10
42.861699999999999
 20
181.70699999999999
 30
0.0
 11
43.695500000000003
 21
181.70699999999999
 31
0.0
  0
LINE
  5
3FD
  8
0
 62
     7
 10
43.695500000000003
 20
181.28999999999999
 30
0.0
 11
42.861699999999999
 21
181.28999999999999
 31
0.0
  0
ARC
  5
3FE
  8
0
 62
     7
 10
81.801193999999995
 20
152.60010600000001
 30
0.0
 40
1.645143
 50
272.11271399999998
 51
357.88729599999999
  0
ARC
  5
3FF
  8
0
 62
     7
 10
81.922505000000001
 20
152.599762
 30
0.0
 40
1.6447989999999999
 50
182.10116999999991
 51
267.886392
  0
ARC
  5
400
  8
0
 62
     7
 10
81.862188000000003
 20
108.096411
 30
0.0
 40
1.5833759999999999
 50
90.0
 51
179.99996999999999
  0
ARC
  5
401
  8
0
 62
     7
 10
81.801543999999993
 20
108.03576700000001
 30
0.0
 40
1.645138
 50
2.1125359999999991
 51
87.887454000000005
  0
ARC
  5
402
  8
0
 62
     7
 10
81.923050000000003
 20
108.129451
 30
0.0
 40
3.0610490000000001
 50
180.61846
 51
237.50261699999999
  0
ARC
  5
403
  8
0
 62
     7
 10
81.977311999999984
 20
107.981286
 30
0.0
 40
3.1172589999999998
 50
92.116477999999987
 51
177.88349199999999
  0
ARC
  5
404
  8
0
 62
     7
 10
81.747066999999987
 20
107.981291
 30
0.0
 40
3.1172550000000001
 50
2.1164160000000001
 51
87.883573999999996
  0
ARC
  5
405
  8
0
 62
     7
 10
81.803838999999996
 20
108.12805299999999
 30
0.0
 40
3.0585200000000001
 50
302.47173800000002
 51
359.40722399999999
  0
LINE
  5
406
  8
0
 62
     7
 10
80.278800000000004
 20
96.929400000000001
 30
0.0
 11
80.278800000000004
 21
108.096
 31
0.0
  0
LINE
  5
407
  8
0
 62
     7
 10
83.445599999999985
 20
96.929400000000001
 30
0.0
 11
83.445599999999985
 21
108.096
 31
0.0
  0
LINE
  5
408
  8
0
 62
     7
 10
80.278800000000004
 20
99.929400000000001
 30
0.0
 11
83.445599999999985
 21
99.929400000000001
 31
0.0
  0
LINE
  5
409
  8
0
 62
     7
 10
80.278800000000004
 20
96.929400000000001
 30
0.0
 11
83.445599999999985
 21
96.929400000000001
 31
0.0
  0
ARC
  5
40A
  8
0
 62
     7
 10
81.996841000000003
 20
108.191335
 30
0.0
 40
5.1354430000000004
 50
181.066834
 51
250.45522099999999
  0
ARC
  5
40B
  8
0
 62
     7
 10
81.862188000000003
 20
108.096065
 30
0.0
 40
4.9999000000000002
 50
90.003947999999994
 51
180.00395800000001
  0
ARC
  5
40C
  8
0
 62
     7
 10
81.86184200000001
 20
108.095721
 30
0.0
 40
5.0002440000000004
 50
0.00001
 51
89.999980000000008
  0
ARC
  5
40D
  8
0
 62
     7
 10
81.724027000000007
 20
108.19386
 30
0.0
 40
5.1389959999999988
 50
289.57221699999991
 51
358.90576800000002
  0
LINE
  5
40E
  8
0
 62
     7
 10
79.862300000000005
 20
179.20599999999999
 30
0.0
 11
79.862300000000005
 21
181.28999999999999
 31
0.0
  0
LINE
  5
40F
  8
0
 62
     7
 10
83.862099999999998
 20
179.20599999999999
 30
0.0
 11
83.862099999999998
 21
181.28999999999999
 31
0.0
  0
LINE
  5
410
  8
0
 62
     7
 10
84.028800000000004
 20
179.20599999999999
 30
0.0
 11
84.028800000000004
 21
181.28999999999999
 31
0.0
  0
LINE
  5
411
  8
0
 62
     7
 10
79.695599999999999
 20
179.20599999999999
 30
0.0
 11
79.695599999999999
 21
181.28999999999999
 31
0.0
  0
LINE
  5
412
  8
0
 62
     7
 10
78.861800000000002
 20
178.12299999999999
 30
0.0
 11
79.028599999999997
 21
177.95599999999999
 31
0.0
  0
LINE
  5
413
  8
0
 62
     7
 10
84.862200000000016
 20
178.12299999999999
 30
0.0
 11
84.695800000000006
 21
177.95599999999999
 31
0.0
  0
LINE
  5
414
  8
0
 62
     7
 10
84.862200000000016
 20
178.12299999999999
 30
0.0
 11
84.862200000000016
 21
178.9559999999999
 31
0.0
  0
LINE
  5
415
  8
0
 62
     7
 10
78.861800000000002
 20
178.12299999999999
 30
0.0
 11
78.861800000000002
 21
178.9559999999999
 31
0.0
  0
LINE
  5
416
  8
0
 62
     7
 10
78.861800000000002
 20
178.12299999999999
 30
0.0
 11
84.862200000000016
 21
178.12299999999999
 31
0.0
  0
LINE
  5
417
  8
0
 62
     7
 10
79.028599999999997
 20
177.95599999999999
 30
0.0
 11
84.695800000000006
 21
177.95599999999999
 31
0.0
  0
LINE
  5
418
  8
0
 62
     7
 10
83.445200000000014
 20
152.5389999999999
 30
0.0
 11
83.445200000000014
 21
177.95599999999999
 31
0.0
  0
LINE
  5
419
  8
0
 62
     7
 10
80.278800000000004
 20
152.5389999999999
 30
0.0
 11
80.278800000000004
 21
177.95599999999999
 31
0.0
  0
LINE
  5
41A
  8
0
 62
     7
 10
149.81899999999999
 20
110.096
 30
0.0
 11
151.81899999999999
 21
110.096
 31
0.0
  0
LINE
  5
41B
  8
0
 62
     7
 10
149.81899999999999
 20
106.096
 30
0.0
 11
151.81899999999999
 21
106.096
 31
0.0
  0
LINE
  5
41C
  8
0
 62
     7
 10
149.81899999999999
 20
105.929
 30
0.0
 11
151.81899999999999
 21
105.929
 31
0.0
  0
LINE
  5
41D
  8
0
 62
     7
 10
149.81899999999999
 20
110.26300000000001
 30
0.0
 11
151.81899999999999
 21
110.26300000000001
 31
0.0
  0
LINE
  5
41E
  8
0
 62
     7
 10
148.73500000000001
 20
111.096
 30
0.0
 11
148.56899999999999
 21
110.93000000000001
 31
0.0
  0
LINE
  5
41F
  8
0
 62
     7
 10
148.73500000000001
 20
105.096
 30
0.0
 11
148.56899999999999
 21
105.26300000000001
 31
0.0
  0
ARC
  5
420
  8
0
 62
     7
 10
130.65228400000001
 20
100.596389
 30
0.0
 40
9.0833979999999972
 50
90.0
 51
179.99996999999999
  0
ARC
  5
421
  8
0
 62
     7
 10
130.65228400000001
 20
100.59639
 30
0.0
 40
5.916644999999999
 50
90.0
 51
179.99996999999999
  0
ARC
  5
422
  8
0
  6
AIGENLINE001
 62
     7
 10
130.65228400000001
 20
100.596389
 30
0.0
 40
7.5000220000000004
 50
90.0
 51
179.99996999999999
  0
LINE
  5
423
  8
0
 62
     7
 10
148.73500000000001
 20
105.096
 30
0.0
 11
149.56899999999999
 21
105.096
 31
0.0
  0
LINE
  5
424
  8
0
 62
     7
 10
148.73500000000001
 20
111.096
 30
0.0
 11
149.56899999999999
 21
111.096
 31
0.0
  0
LINE
  5
425
  8
0
 62
     7
 10
148.73500000000001
 20
111.096
 30
0.0
 11
148.73500000000001
 21
105.096
 31
0.0
  0
LINE
  5
426
  8
0
 62
     7
 10
149.56899999999999
 20
111.096
 30
0.0
 11
149.56899999999999
 21
105.096
 31
0.0
  0
LINE
  5
427
  8
0
 62
     7
 10
148.56899999999999
 20
110.93000000000001
 30
0.0
 11
148.56899999999999
 21
105.26300000000001
 31
0.0
  0
LINE
  5
428
  8
0
 62
     7
 10
124.736
 20
96.929400000000001
 30
0.0
 11
124.736
 21
100.596
 31
0.0
  0
LINE
  5
429
  8
0
 62
     7
 10
121.569
 20
96.929400000000001
 30
0.0
 11
121.569
 21
100.596
 31
0.0
  0
LINE
  5
42A
  8
0
  6
AIGENLINE001
 62
     7
 10
123.152
 20
95.585800000000006
 30
0.0
 11
123.152
 21
100.596
 31
0.0
  0
LINE
  5
42B
  8
0
 62
     7
 10
130.65199999999999
 20
106.51300000000001
 30
0.0
 11
148.56899999999999
 21
106.51300000000001
 31
0.0
  0
LINE
  5
42C
  8
0
 62
     7
 10
130.65199999999999
 20
109.68000000000001
 30
0.0
 11
148.56899999999999
 21
109.68000000000001
 31
0.0
  0
LINE
  5
42D
  8
0
 62
     7
 10
121.569
 20
99.929400000000001
 30
0.0
 11
124.736
 21
99.929400000000001
 31
0.0
  0
LINE
  5
42E
  8
0
 62
     7
 10
121.569
 20
96.929400000000001
 30
0.0
 11
124.736
 21
96.929400000000001
 31
0.0
  0
LINE
  5
42F
  8
0
  6
AIGENLINE001
 62
     7
 10
130.65199999999999
 20
108.096
 30
0.0
 11
155.005
 21
108.096
 31
0.0
  0
LINE
  5
430
  8
0
 62
     7
 10
139.929
 20
103.982
 30
0.0
 11
139.929
 21
117.065
 31
0.0
  0
LINE
  5
431
  8
0
 62
     7
 10
117.038
 20
96.929400000000001
 30
0.0
 11
117.038
 21
108.096
 31
0.0
  0
LINE
  5
432
  8
0
 62
     7
 10
128.024
 20
108.096
 30
0.0
 11
116.33799999999999
 21
108.096
 31
0.0
  0
LINE
  5
433
  8
0
 62
     7
 10
120.93899999999999
 20
96.929400000000001
 30
0.0
 11
116.41
 21
96.929400000000001
 31
0.0
  0
LINE
  5
434
  8
0
 62
     7
 10
123.152
 20
81.792299999999997
 30
0.0
 11
163.98599999999999
 21
81.792299999999997
 31
0.0
  0
LINE
  5
435
  8
0
 62
     7
 10
149.81899999999999
 20
95.857999999999976
 30
0.0
 11
149.81899999999999
 21
81.288600000000017
 31
0.0
  0
LINE
  5
436
  8
0
 62
     7
 10
123.152
 20
95.022900000000007
 30
0.0
 11
123.152
 21
81.288600000000017
 31
0.0
  0
ARC
  5
437
  8
0
 62
     7
 10
72.022606999999994
 20
172.54592299999999
 30
0.0
 40
0.173036
 50
272.04747200000003
 51
357.95253800000012
  0
ARC
  5
438
  8
0
 62
     7
 10
65.701468000000006
 20
172.54592299999999
 30
0.0
 40
0.173036
 50
182.04746499999999
 51
267.95256499999999
  0
ARC
  5
439
  8
0
 62
     7
 10
143.15838400000001
 20
104.935841
 30
0.0
 40
0.173036
 50
182.04746499999999
 51
267.95256499999999
  0
ARC
  5
43A
  8
0
 62
     7
 10
144.2295
 20
115.423496
 30
0.0
 40
0.173046
 50
2.0503309999999999
 51
87.949658999999997
  0
ARC
  5
43B
  8
0
 62
     7
 10
143.40850800000001
 20
115.423496
 30
0.0
 40
0.173046
 50
92.050303999999997
 51
177.94966599999989
  0
ARC
  5
43C
  8
0
 62
     7
 10
143.15769900000001
 20
111.256952
 30
0.0
 40
0.172353
 50
91.827661999999989
 51
177.935059
  0
LINE
  5
43D
  8
0
 62
     7
 10
149.23599999999999
 20
111.429
 30
0.0
 11
149.23599999999999
 21
111.096
 31
0.0
  0
LINE
  5
43E
  8
0
 62
     7
 10
149.23599999999999
 20
105.096
 30
0.0
 11
149.23599999999999
 21
104.76300000000001
 31
0.0
  0
LINE
  5
43F
  8
0
 62
     7
 10
144.65199999999999
 20
111.429
 30
0.0
 11
144.65199999999999
 21
111.26300000000001
 31
0.0
  0
LINE
  5
440
  8
0
 62
     7
 10
142.98500000000001
 20
111.26300000000001
 30
0.0
 11
142.98500000000001
 21
109.68000000000001
 31
0.0
  0
LINE
  5
441
  8
0
 62
     7
 10
142.98500000000001
 20
106.51300000000001
 30
0.0
 11
142.98500000000001
 21
104.93000000000001
 31
0.0
  0
LINE
  5
442
  8
0
 62
     7
 10
143.23599999999999
 20
115.43000000000001
 30
0.0
 11
143.23599999999999
 21
111.429
 31
0.0
  0
LINE
  5
443
  8
0
 62
     7
 10
144.40199999999999
 20
115.43000000000001
 30
0.0
 11
144.40199999999999
 21
111.429
 31
0.0
  0
LINE
  5
444
  8
0
  6
AIGENLINE001
 62
     7
 10
143.81899999999999
 20
116.111
 30
0.0
 11
143.81899999999999
 21
110.333
 31
0.0
  0
LINE
  5
445
  8
0
 62
     7
 10
143.40199999999999
 20
115.596
 30
0.0
 11
144.23599999999999
 21
115.596
 31
0.0
  0
LINE
  5
446
  8
0
 62
     7
 10
143.15199999999999
 20
104.76300000000001
 30
0.0
 11
149.23599999999999
 21
104.76300000000001
 31
0.0
  0
LINE
  5
447
  8
0
 62
     7
 10
142.98500000000001
 20
111.26300000000001
 30
0.0
 11
144.65199999999999
 21
111.26300000000001
 31
0.0
  0
LINE
  5
448
  8
0
 62
     7
 10
143.15199999999999
 20
111.429
 30
0.0
 11
149.23599999999999
 21
111.429
 31
0.0
  0
ARC
  5
449
  8
0
 62
     7
 10
69.272311000000002
 20
115.423102
 30
0.0
 40
0.173454
 50
2.1758459999999991
 51
87.824143999999976
  0
ARC
  5
44A
  8
0
 62
     7
 10
68.452107999999996
 20
115.423102
 30
0.0
 40
0.173454
 50
92.175836000000004
 51
177.82413399999999
  0
LINE
  5
44B
  8
0
 62
     7
 10
65.528499999999994
 20
178.62299999999999
 30
0.0
 11
72.195499999999996
 21
178.62299999999999
 31
0.0
  0
LINE
  5
44C
  8
0
 62
     7
 10
67.8202
 20
174.03999999999999
 30
0.0
 11
69.903800000000004
 21
174.03999999999999
 31
0.0
  0
LINE
  5
44D
  8
0
 62
     7
 10
65.695300000000003
 20
172.37299999999999
 30
0.0
 11
72.028800000000004
 21
172.37299999999999
 31
0.0
  0
LINE
  5
44E
  8
0
  6
AIGENLINE001
 62
     7
 10
67.296599999999984
 20
173.20599999999999
 30
0.0
 11
70.332800000000006
 21
173.20599999999999
 31
0.0
  0
LINE
  5
44F
  8
0
 62
     7
 10
72.195499999999996
 20
172.53999999999999
 30
0.0
 11
72.195499999999996
 21
178.62299999999999
 31
0.0
  0
LINE
  5
450
  8
0
 62
     7
 10
65.528499999999994
 20
172.53999999999999
 30
0.0
 11
65.528499999999994
 21
178.62299999999999
 31
0.0
  0
ARC
  5
451
  8
0
 62
     7
 10
68.840139000000008
 20
173.228634
 30
0.0
 40
0.605917
 50
272.07117499999998
 51
357.87807900000001
  0
ARC
  5
452
  8
0
 62
     7
 10
68.884039000000001
 20
173.22837899999999
 30
0.0
 40
0.6056660000000002
 50
182.098737
 51
267.91821599999997
  0
ARC
  5
453
  8
0
 62
     7
 10
68.884606999999988
 20
173.183808
 30
0.0
 40
0.6062420000000001
 50
92.133562000000012
 51
177.88332800000001
  0
ARC
  5
454
  8
0
 62
     7
 10
68.840020999999993
 20
173.18400299999999
 30
0.0
 40
0.6060260000000001
 50
2.098916
 51
87.917987999999994
  0
ARC
  5
455
  8
0
 62
     7
 10
68.862037000000001
 20
108.096411
 30
0.0
 40
3.3334959999999989
 50
270.00002000000001
 51
359.99999000000003
  0
ARC
  5
456
  8
0
 62
     7
 10
68.862208999999993
 20
108.096238
 30
0.0
 40
3.333323
 50
179.99700899999999
 51
269.99705899999998
  0
ARC
  5
457
  8
0
 62
     7
 10
68.989543999999995
 20
107.968547
 30
0.0
 40
3.4630190000000001
 50
92.110064000000023
 51
177.883984
  0
ARC
  5
458
  8
0
 62
     7
 10
68.734606999999997
 20
107.968265
 30
0.0
 40
3.463298
 50
2.120495
 51
87.891339000000016
  0
LINE
  5
459
  8
0
 62
     7
 10
67.8202
 20
174.03999999999999
 30
0.0
 11
67.8202
 21
172.37299999999999
 31
0.0
  0
LINE
  5
45A
  8
0
 62
     7
 10
69.903800000000004
 20
174.03999999999999
 30
0.0
 11
69.903800000000004
 21
172.37299999999999
 31
0.0
  0
LINE
  5
45B
  8
0
 62
     7
 10
67.820599999999999
 20
111.26300000000001
 30
0.0
 11
67.820599999999999
 21
104.929
 31
0.0
  0
LINE
  5
45C
  8
0
 62
     7
 10
69.903800000000004
 20
111.26300000000001
 30
0.0
 11
69.903800000000004
 21
104.929
 31
0.0
  0
LINE
  5
45D
  8
0
 62
     7
 10
68.278800000000004
 20
115.43000000000001
 30
0.0
 11
68.278800000000004
 21
111.378
 31
0.0
  0
LINE
  5
45E
  8
0
 62
     7
 10
69.445599999999999
 20
115.43000000000001
 30
0.0
 11
69.445599999999999
 21
111.378
 31
0.0
  0
LINE
  5
45F
  8
0
 62
     7
 10
68.445499999999996
 20
115.596
 30
0.0
 11
69.278899999999993
 21
115.596
 31
0.0
  0
LINE
  5
460
  8
0
 62
     7
 10
76.862300000000005
 20
179.20599999999999
 30
0.0
 11
76.862300000000005
 21
178.9559999999999
 31
0.0
  0
LINE
  5
461
  8
0
 62
     7
 10
76.862300000000005
 20
179.20599999999999
 30
0.0
 11
86.862099999999998
 21
179.20599999999999
 31
0.0
  0
LINE
  5
462
  8
0
 62
     7
 10
86.862099999999998
 20
179.20599999999999
 30
0.0
 11
86.862099999999998
 21
178.9559999999999
 31
0.0
  0
LINE
  5
463
  8
0
 62
     7
 10
76.862300000000005
 20
178.9559999999999
 30
0.0
 11
86.862099999999998
 21
178.9559999999999
 31
0.0
  0
LINE
  5
464
  8
0
 62
     7
 10
63.861800000000002
 20
179.20599999999999
 30
0.0
 11
63.861800000000002
 21
178.9559999999999
 31
0.0
  0
LINE
  5
465
  8
0
 62
     7
 10
63.861800000000002
 20
179.20599999999999
 30
0.0
 11
73.861900000000006
 21
179.20599999999999
 31
0.0
  0
LINE
  5
466
  8
0
 62
     7
 10
73.861900000000006
 20
179.20599999999999
 30
0.0
 11
73.861900000000006
 21
178.9559999999999
 31
0.0
  0
LINE
  5
467
  8
0
 62
     7
 10
63.861800000000002
 20
178.9559999999999
 30
0.0
 11
73.861900000000006
 21
178.9559999999999
 31
0.0
  0
ARC
  5
468
  8
0
 62
     7
 10
68.697304000000003
 20
107.949997
 30
0.0
 40
5.1666879999999988
 50
1.6162289999999999
 51
81.672052000000008
  0
ARC
  5
469
  8
0
 62
     7
 10
68.862208999999993
 20
108.095895
 30
0.0
 40
4.999727
 50
269.99804599999999
 51
359.99801600000001
  0
ARC
  5
46A
  8
0
 62
     7
 10
68.861692000000005
 20
108.096065
 30
0.0
 40
4.9998979999999991
 50
180.00395800000001
 51
270.0039680000001
  0
ARC
  5
46B
  8
0
 62
     7
 10
69.035542000000007
 20
107.94249600000001
 30
0.0
 40
5.1760159999999997
 50
98.40709200000002
 51
178.30360400000001
  0
LINE
  5
46C
  8
0
 62
     7
 10
71.658799999999999
 20
178.9559999999999
 30
0.0
 11
71.658799999999999
 21
178.62299999999999
 31
0.0
  0
LINE
  5
46D
  8
0
 62
     7
 10
65.997100000000003
 20
178.9559999999999
 30
0.0
 11
65.997100000000003
 21
178.62299999999999
 31
0.0
  0
LINE
  5
46E
  8
0
 62
     7
 10
95.941999999999993
 20
160.99100000000001
 30
0.0
 11
87.468800000000002
 21
160.99100000000001
 31
0.0
  0
LINE
  5
46F
  8
0
 62
     7
 10
72.719200000000001
 20
160.99100000000001
 30
0.0
 11
61.569099999999992
 21
160.99100000000001
 31
0.0
  0
TEXT
  5
470
  8
_________2
 62
     7
 10
149.08785933333331
 20
254.06200000000001
 30
0.0
 40
3.3734599999999988
  1
数
 41
0.5
 72
     1
 11
149.875
 21
254.06200000000001
 31
0.0
  0
LINE
  5
471
  8
_________2
 62
     7
 10
127.322
 20
258.911
 30
0.0
 11
127.322
 21
216.911
 31
0.0
  0
LINE
  5
472
  8
_________2
 62
     7
 10
146.51400000000001
 20
258.911
 30
0.0
 11
146.51400000000001
 21
216.911
 31
0.0
  0
LINE
  5
473
  8
_________2
 62
     7
 10
153.166
 20
258.911
 30
0.0
 11
153.166
 21
216.911
 31
0.0
  0
TEXT
  5
474
  8
_________2
 62
     7
 10
164.53496966666671
 20
219.06200000000001
 30
0.0
 40
3.3734599999999988
  1
スパウト
 41
0.5
 72
     1
 11
168.30199999999999
 21
219.06200000000001
 31
0.0
  0
TEXT
  5
475
  8
_________2
 62
     7
 10
128.62799999999999
 20
211.50299999999999
 30
0.0
 40
3.3734599999999988
  1
注：色番号はカタログを参照ください
 41
0.5
  0
TEXT
  5
476
  8
_________2
 62
     7
 10
133.0904183333333
 20
219.06200000000001
 30
0.0
 40
3.3734599999999988
  1
VL010
 41
0.5
 72
     1
 11
136.745
 21
219.06200000000001
 31
0.0
  0
LINE
  5
477
  8
_________2
 62
     7
 10
127.322
 20
216.911
 30
0.0
 11
183.55099999999999
 21
216.911
 31
0.0
  0
TEXT
  5
478
  8
_________2
 62
     7
 10
166.50282133333329
 20
226.06200000000001
 30
0.0
 40
3.3734599999999988
  1
台座
 41
0.5
 72
     1
 11
168.30199999999999
 21
226.06200000000001
 31
0.0
  0
TEXT
  5
479
  8
_________2
 62
     7
 10
133.0904183333333
 20
226.06200000000001
 30
0.0
 40
3.3734599999999988
  1
VL001
 41
0.5
 72
     1
 11
136.745
 21
226.06200000000001
 31
0.0
  0
TEXT
  5
47A
  8
_________2
 62
     7
 10
166.50182133333331
 20
233.06100000000001
 30
0.0
 40
3.3734599999999988
  1
台座
 41
0.5
 72
     1
 11
168.30099999999999
 21
233.06100000000001
 31
0.0
  0
TEXT
  5
47B
  8
_________2
 62
     7
 10
132.2470533333333
 20
233.06200000000001
 30
0.0
 40
3.3734599999999988
  1
VL3001
 41
0.5
 72
     1
 11
136.745
 21
233.06200000000001
 31
0.0
  0
TEXT
  5
47C
  8
_________2
 62
     7
 10
149.59387833333329
 20
233.06200000000001
 30
0.0
 40
3.3734599999999988
  1
1
 41
0.5
 72
     1
 11
149.875
 21
233.06200000000001
 31
0.0
  0
LINE
  5
47D
  8
_________2
 62
     7
 10
127.322
 20
230.911
 30
0.0
 11
183.55099999999999
 21
230.911
 31
0.0
  0
TEXT
  5
47E
  8
_________2
 62
     7
 10
157.39347933333329
 20
240.06100000000001
 30
0.0
 40
3.3734599999999988
  1
シングルレバーハンドル
 41
0.5
 72
     1
 11
168.30099999999999
 21
240.06100000000001
 31
0.0
  0
TEXT
  5
47F
  8
_________2
 62
     7
 10
160.43059333333329
 20
247.06100000000001
 30
0.0
 40
3.3734599999999988
  1
埋込型混合栓本体
 41
0.5
 72
     1
 11
168.30199999999999
 21
247.06100000000001
 31
0.0
  0
TEXT
  5
480
  8
_________2
 62
     7
 10
166.50282133333329
 20
254.06200000000001
 30
0.0
 40
3.3734599999999988
  1
名称
 41
0.5
 72
     1
 11
168.30199999999999
 21
254.06200000000001
 31
0.0
  0
TEXT
  5
481
  8
_________2
 62
     7
 10
132.6687358333333
 20
240.06200000000001
 30
0.0
 40
3.3734599999999988
  1
VL028
 41
0.5
 72
     1
 11
136.745
 21
240.06200000000001
 31
0.0
  0
TEXT
  5
482
  8
_________2
 62
     7
 10
132.2470533333333
 20
247.06200000000001
 30
0.0
 40
3.3734599999999988
  1
VL100T
 41
0.5
 72
     1
 11
136.745
 21
247.06200000000001
 31
0.0
  0
TEXT
  5
483
  8
_________2
 62
     7
 10
149.59387833333329
 20
219.06200000000001
 30
0.0
 40
3.3734599999999988
  1
1
 41
0.5
 72
     1
 11
149.875
 21
219.06200000000001
 31
0.0
  0
TEXT
  5
484
  8
_________2
 62
     7
 10
149.59387833333329
 20
226.06200000000001
 30
0.0
 40
3.3734599999999988
  1
1
 41
0.5
 72
     1
 11
149.875
 21
226.06200000000001
 31
0.0
  0
TEXT
  5
485
  8
_________2
 62
     7
 10
149.59387833333329
 20
240.06200000000001
 30
0.0
 40
3.3734599999999988
  1
1
 41
0.5
 72
     1
 11
149.875
 21
240.06200000000001
 31
0.0
  0
TEXT
  5
486
  8
_________2
 62
     7
 10
149.59387833333329
 20
247.06200000000001
 30
0.0
 40
3.3734599999999988
  1
1
 41
0.5
 72
     1
 11
149.875
 21
247.06200000000001
 31
0.0
  0
TEXT
  5
487
  8
_________2
 62
     7
 10
134.9458213333333
 20
254.06200000000001
 30
0.0
 40
3.3734599999999988
  1
品番
 41
0.5
 72
     1
 11
136.745
 21
254.06200000000001
 31
0.0
  0
LINE
  5
488
  8
_________2
 62
     7
 10
127.322
 20
223.911
 30
0.0
 11
183.55099999999999
 21
223.911
 31
0.0
  0
LINE
  5
489
  8
_________2
 62
     7
 10
127.322
 20
237.911
 30
0.0
 11
183.55099999999999
 21
237.911
 31
0.0
  0
LINE
  5
48A
  8
_________2
 62
     7
 10
127.322
 20
244.911
 30
0.0
 11
183.55099999999999
 21
244.911
 31
0.0
  0
LINE
  5
48B
  8
_________2
 62
     7
 10
127.322
 20
251.911
 30
0.0
 11
183.55099999999999
 21
251.911
 31
0.0
  0
LINE
  5
48C
  8
_________2
 62
     7
 10
205.30099999999999
 20
127.411
 30
0.0
 11
183.55000000000001
 21
127.411
 31
0.0
  0
LINE
  5
48D
  8
_________2
 62
     7
 10
100.3
 20
-4.0910799999999998
 30
0.0
 11
100.3
 21
-21.071400000000001
 31
0.0
  0
LINE
  5
48E
  8
_________2
 62
     7
 10
100.3
 20
275.93099999999998
 30
0.0
 11
100.3
 21
258.911
 31
0.0
  0
LINE
  5
48F
  8
_________2
 62
     7
 10
17.049499999999998
 20
127.411
 30
0.0
 11
-4.70052
 21
127.411
 31
0.0
  0
LINE
  5
490
  8
_________2
 62
     7
 10
76.741
 20
29.8047
 30
0.0
 11
74.554699999999997
 21
29.8047
 31
0.0
  0
LINE
  5
491
  8
_________2
 62
     7
 10
77.233699999999999
 20
29.8047
 30
0.0
 11
76.981499999999997
 21
29.8047
 31
0.0
  0
LINE
  5
492
  8
_________2
 62
     7
 10
77.726299999999995
 20
29.8047
 30
0.0
 11
80.651200000000003
 21
29.8047
 31
0.0
  0
LINE
  5
493
  8
_________2
 62
     7
 10
77.233699999999999
 20
29.8047
 30
0.0
 11
77.485500000000002
 21
29.8047
 31
0.0
  0
LINE
  5
494
  8
_________2
 62
     7
 10
70.837100000000007
 20
29.8047
 30
0.0
 11
68.650499999999994
 21
29.8047
 31
0.0
  0
LINE
  5
495
  8
_________2
 62
     7
 10
71.329400000000007
 20
29.8047
 30
0.0
 11
71.077600000000004
 21
29.8047
 31
0.0
  0
LINE
  5
496
  8
_________2
 62
     7
 10
71.329400000000007
 20
30.2974
 30
0.0
 11
71.329400000000007
 21
32.484400000000001
 31
0.0
  0
LINE
  5
497
  8
_________2
 62
     7
 10
71.329400000000007
 20
29.8047
 30
0.0
 11
71.329400000000007
 21
30.056899999999999
 31
0.0
  0
LINE
  5
498
  8
_________2
 62
     7
 10
71.822100000000006
 20
29.8047
 30
0.0
 11
74.009
 21
29.8047
 31
0.0
  0
LINE
  5
499
  8
_________2
 62
     7
 10
71.329400000000007
 20
29.8047
 30
0.0
 11
71.581599999999995
 21
29.8047
 31
0.0
  0
LINE
  5
49A
  8
_________2
 62
     7
 10
71.329400000000007
 20
29.312799999999999
 30
0.0
 11
71.329400000000007
 21
27.125800000000002
 31
0.0
  0
LINE
  5
49B
  8
_________2
 62
     7
 10
71.329400000000007
 20
29.8047
 30
0.0
 11
71.329400000000007
 21
29.5532
 31
0.0
  0
LINE
  5
49C
  8
_________2
 62
     7
 10
75.040499999999994
 20
28.5852
 30
0.0
 11
80.218500000000006
 21
27.720400000000001
 31
0.0
  0
LINE
  5
49D
  8
_________2
 62
     7
 10
75.040499999999994
 20
31.0243
 30
0.0
 11
80.218500000000006
 21
31.889700000000001
 31
0.0
  0
LINE
  5
49E
  8
_________2
 62
     7
 10
80.218500000000006
 20
27.720400000000001
 30
0.0
 11
80.218500000000006
 21
31.889700000000001
 31
0.0
  0
LINE
  5
49F
  8
_________2
 62
     7
 10
75.040499999999994
 20
28.5852
 30
0.0
 11
75.040499999999994
 21
31.0243
 31
0.0
  0
ARC
  5
4A0
  8
_________2
 62
     7
 10
71.28285600000001
 20
29.757811
 30
0.0
 40
1.2673589999999999
 50
2.122214
 51
87.893958999999995
  0
ARC
  5
4A1
  8
_________2
 62
     7
 10
71.375959999999992
 20
29.758213000000001
 30
0.0
 40
1.2669559999999991
 50
92.104701000000006
 51
177.89526900000001
  0
ARC
  5
4A2
  8
_________2
 62
     7
 10
71.376357999999996
 20
29.851671
 30
0.0
 40
1.2673680000000001
 50
182.12203600000001
 51
267.877993
  0
ARC
  5
4A3
  8
_________2
 62
     7
 10
71.282531999999989
 20
29.851998999999999
 30
0.0
 40
1.267695999999999
 50
272.12015300000002
 51
357.863674
  0
ARC
  5
4A4
  8
_________2
 62
     7
 10
71.329430000000002
 20
29.804742999999998
 30
0.0
 40
2.0849849999999992
 50
0.00001
 51
89.999980000000008
  0
ARC
  5
4A5
  8
_________2
 62
     7
 10
71.329603000000006
 20
29.804915000000001
 30
0.0
 40
2.084813
 50
90.004733999999999
 51
180.00474399999999
  0
ARC
  5
4A6
  8
_________2
 62
     7
 10
71.409106000000008
 20
29.884775999999999
 30
0.0
 40
2.1657950000000001
 50
182.11776599999999
 51
267.89173399999999
  0
ARC
  5
4A7
  8
_________2
 62
     7
 10
71.249459000000002
 20
29.885429999999999
 30
0.0
 40
2.1664590000000001
 50
272.11546800000002
 51
357.86560400000002
  0
TEXT
  5
4A8
  8
_________2
 62
     7
 10
104.605
 20
1.6794899999999999
 30
0.0
 40
3.0923400000000001
  1
図番
 41
0.5
  0
LINE
  5
4A9
  8
_________2
 62
     7
 10
103.55
 20
5.9087199999999989
 30
0.0
 11
183.55099999999999
 21
5.9087199999999989
 31
0.0
  0
TEXT
  5
4AA
  8
_________2
 62
     7
 10
104.605
 20
11.6793
 30
0.0
 40
3.0923400000000001
  1
品番
 41
0.5
  0
TEXT
  5
4AB
  8
_________2
 62
     7
 10
104.605
 20
31.818100000000001
 30
0.0
 40
3.0923400000000001
  1
名称
 41
0.5
  0
TEXT
  5
4AC
  8
_________2
 62
     7
 10
91.845058333333341
 20
26.821999999999999
 30
0.0
 40
3.6545800000000002
  1
mm
 41
0.5
 72
     1
 11
93.367800000000003
 21
26.821999999999999
 31
0.0
  0
TEXT
  5
4AD
  8
_________2
 62
     7
 10
85.643199999999993
 20
31.818100000000001
 30
0.0
 40
3.0923400000000001
  1
単位
 41
0.5
  0
TEXT
  5
4AE
  8
_________2
 62
     7
 10
85.643199999999993
 20
19.410799999999998
 30
0.0
 40
3.0923400000000001
  1
尺度
 41
0.5
  0
TEXT
  5
4AF
  8
_________2
 62
     7
 10
90.548758666666686
 20
13.2179
 30
0.0
 40
3.6545800000000002
  1
1 ： 6
 41
0.5
 72
     1
 11
93.959699999999998
 21
13.2179
 31
0.0
  0
TEXT
  5
4B0
  8
_________2
 62
     7
 10
136.66252499999999
 20
9.1078600000000005
 30
0.0
 40
3.9357000000000002
  1
図中の表参照
 41
0.5
 72
     1
 11
143.55000000000001
 21
9.1078600000000005
 31
0.0
  0
TEXT
  5
4B1
  8
_________2
 62
     7
 10
136.9905
 20
-0.8926299999999999
 30
0.0
 40
3.9357000000000002
  1
VL100T11
 41
0.5
 72
     1
 11
143.55000000000001
 21
-0.8926299999999999
 31
0.0
  0
TEXT
  5
4B2
  8
_________2
 62
     7
 10
24.5868
 20
0.707283
 30
0.0
 40
3.9357000000000002
  1
（社）日本水道協会認証品
 41
0.5
  0
TEXT
  5
4B3
  8
_________2
 62
     7
 10
109.179
 20
24.2257
 30
0.0
 40
3.9357000000000002
  1
ボラ　湯水混合栓（左ハンドル）
 41
0.5
  0
TEXT
  5
4B4
  8
_________2
 62
     7
 10
39.425300333333333
 20
13.603
 30
0.0
 40
3.6545800000000002
  1
早川
 41
0.5
 72
     1
 11
41.313499999999998
 21
13.603
 31
0.0
  0
TEXT
  5
4B5
  8
_________2
 62
     7
 10
20.790090666666661
 20
13.603
 30
0.0
 40
3.6545800000000002
  1
石原
 41
0.5
 72
     1
 11
22.7392
 21
13.603
 31
0.0
  0
TEXT
  5
4B6
  8
_________2
 62
     7
 10
67.785399999999996
 20
13.2179
 30
0.0
 40
3.6545800000000002
  1
16.01.22
 41
0.5
  0
TEXT
  5
4B7
  8
_________2
 62
     7
 10
66.593100000000007
 20
19.410799999999998
 30
0.0
 40
3.0923400000000001
  1
日付
 41
0.5
  0
TEXT
  5
4B8
  8
_________2
 62
     7
 10
29.639399999999998
 20
19.410799999999998
 30
0.0
 40
3.0923400000000001
  1
検図
 41
0.5
  0
TEXT
  5
4B9
  8
_________2
 62
     7
 10
18.021100000000001
 20
5.21143
 30
0.0
 40
3.0923400000000001
  1
備考
 41
0.5
  0
TEXT
  5
4BA
  8
_________2
 62
     7
 10
18.021100000000001
 20
19.410799999999998
 30
0.0
 40
3.0923400000000001
  1
製図
 41
0.5
  0
TEXT
  5
4BB
  8
_________2
 62
     7
 10
23.788465333333338
 20
27.936800000000002
 30
0.0
 40
4.4979399999999989
  1
セラトレーディング株式会社
 41
0.5
 72
     1
 11
41.180500000000002
 21
27.936800000000002
 31
0.0
  0
LINE
  5
4BC
  8
_________2
 62
     7
 10
183.55099999999999
 20
-4.0910799999999998
 30
0.0
 11
17.049499999999998
 21
-4.0910799999999998
 31
0.0
  0
LINE
  5
4BD
  8
_________2
 62
     7
 10
17.049499999999998
 20
-4.0910799999999998
 30
0.0
 11
17.049499999999998
 21
258.911
 31
0.0
  0
LINE
  5
4BE
  8
_________2
 62
     7
 10
17.049499999999998
 20
258.911
 30
0.0
 11
183.55099999999999
 21
258.911
 31
0.0
  0
LINE
  5
4BF
  8
_________2
 62
     7
 10
183.55099999999999
 20
258.911
 30
0.0
 11
183.55099999999999
 21
-4.0910799999999998
 31
0.0
  0
LINE
  5
4C0
  8
_________2
 62
     7
 10
65.549599999999998
 20
9.4089600000000004
 30
0.0
 11
65.549599999999998
 21
35.908799999999999
 31
0.0
  0
LINE
  5
4C1
  8
_________2
 62
     7
 10
84.549700000000016
 20
9.4089600000000004
 30
0.0
 11
84.549700000000016
 21
35.908799999999999
 31
0.0
  0
LINE
  5
4C2
  8
_________2
 62
     7
 10
103.55
 20
-4.0910799999999998
 30
0.0
 11
103.55
 21
35.908799999999999
 31
0.0
  0
LINE
  5
4C3
  8
_________2
 62
     7
 10
28.549299999999999
 20
9.4089600000000004
 30
0.0
 11
28.549299999999999
 21
23.409199999999998
 31
0.0
  0
LINE
  5
4C4
  8
_________2
 62
     7
 10
17.049499999999998
 20
9.4089600000000004
 30
0.0
 11
103.55
 21
9.4089600000000004
 31
0.0
  0
LINE
  5
4C5
  8
_________2
 62
     7
 10
17.049499999999998
 20
23.409199999999998
 30
0.0
 11
103.55
 21
23.409199999999998
 31
0.0
  0
LINE
  5
4C6
  8
_________2
 62
     7
 10
103.55
 20
15.9085
 30
0.0
 11
183.55099999999999
 21
15.9085
 31
0.0
  0
LINE
  5
4C7
  8
_________2
 62
     7
 10
17.049499999999998
 20
35.908799999999999
 30
0.0
 11
183.55099999999999
 21
35.908799999999999
 31
0.0
  0
ENDSEC
  0
EOF
