  0
SECTION
  2
HEADER
  9
$ACADVER
  1
AC1009
  9
$INSBASE
 10
0.0
 20
0.0
 30
0.0
  9
$EXTMIN
 10
-4.70052
 20
-21.071400000000001
 30
0.0
  9
$EXTMAX
 10
205.30099999999999
 20
275.93099999999998
 30
0.0
  9
$LIMMIN
 10
0.0
 20
0.0
  9
$LIMMAX
 10
12.0
 20
9.0
  9
$ORTHOMODE
 70
     0
  9
$REGENMODE
 70
     1
  9
$FILLMODE
 70
     1
  9
$QTEXTMODE
 70
     0
  9
$MIRRTEXT
 70
     1
  9
$DRAGMODE
 70
     2
  9
$LTSCALE
 40
1.0
  9
$OSMODE
 70
    37
  9
$ATTMODE
 70
     1
  9
$TEXTSIZE
 40
0.0
  9
$TRACEWID
 40
0.05
  9
$TEXTSTYLE
  7
STANDARD
  9
$CLAYER
  8
0
  9
$CELTYPE
  6
CONTINUOUS
  9
$CECOLOR
 62
   256
  9
$DIMSCALE
 40
1.0
  9
$DIMASZ
 40
0.18
  9
$DIMEXO
 40
0.0625
  9
$DIMDLI
 40
0.38
  9
$DIMRND
 40
0.0
  9
$DIMDLE
 40
0.0
  9
$DIMEXE
 40
0.18
  9
$DIMTP
 40
0.0
  9
$DIMTM
 40
0.0
  9
$DIMTXT
 40
0.18
  9
$DIMCEN
 40
0.09
  9
$DIMTSZ
 40
0.0
  9
$DIMTOL
 70
     0
  9
$DIMLIM
 70
     0
  9
$DIMTIH
 70
     1
  9
$DIMTOH
 70
     1
  9
$DIMSE1
 70
     0
  9
$DIMSE2
 70
     0
  9
$DIMTAD
 70
     0
  9
$DIMZIN
 70
     0
  9
$DIMBLK
  1

  9
$DIMASO
 70
     1
  9
$DIMSHO
 70
     1
  9
$DIMPOST
  1

  9
$DIMAPOST
  1

  9
$DIMALT
 70
     0
  9
$DIMALTD
 70
     2
  9
$DIMALTF
 40
25.399999999999999
  9
$DIMLFAC
 40
1.0
  9
$DIMTOFL
 70
     0
  9
$DIMTVP
 40
0.0
  9
$DIMTIX
 70
     0
  9
$DIMSOXD
 70
     0
  9
$DIMSAH
 70
     0
  9
$DIMBLK1
  1

  9
$DIMBLK2
  1

  9
$DIMSTYLE
  2
STANDARD
  9
$DIMCLRD
 70
     0
  9
$DIMCLRE
 70
     0
  9
$DIMCLRT
 70
     0
  9
$DIMTFAC
 40
1.0
  9
$DIMGAP
 40
0.09
  9
$LUNITS
 70
     2
  9
$LUPREC
 70
     4
  9
$SKETCHINC
 40
0.1
  9
$FILLETRAD
 40
0.0
  9
$AUNITS
 70
     0
  9
$AUPREC
 70
     0
  9
$MENU
  1
.
  9
$ELEVATION
 40
0.0
  9
$PELEVATION
 40
0.0
  9
$THICKNESS
 40
0.0
  9
$LIMCHECK
 70
     0
  9
$BLIPMODE
 70
     0
  9
$CHAMFERA
 40
0.0
  9
$CHAMFERB
 40
0.0
  9
$SKPOLY
 70
     0
  9
$TDCREATE
 40
2444972.375
  9
$TDUPDATE
 40
2457478.2478033449
  9
$TDINDWG
 40
0.0000394097
  9
$TDUSRTIMER
 40
0.0000394097
  9
$USRTIMER
 70
     1
  9
$ANGBASE
 50
0.0
  9
$ANGDIR
 70
     0
  9
$PDMODE
 70
     0
  9
$PDSIZE
 40
0.0
  9
$PLINEWID
 40
0.0
  9
$COORDS
 70
     1
  9
$SPLFRAME
 70
     0
  9
$SPLINETYPE
 70
     6
  9
$SPLINESEGS
 70
     8
  9
$ATTDIA
 70
     1
  9
$ATTREQ
 70
     1
  9
$HANDLING
 70
     1
  9
$HANDSEED
  5
508
  9
$SURFTAB1
 70
     6
  9
$SURFTAB2
 70
     6
  9
$SURFTYPE
 70
     6
  9
$SURFU
 70
     6
  9
$SURFV
 70
     6
  9
$UCSNAME
  2

  9
$UCSORG
 10
0.0
 20
0.0
 30
0.0
  9
$UCSXDIR
 10
1.0
 20
0.0
 30
0.0
  9
$UCSYDIR
 10
0.0
 20
1.0
 30
0.0
  9
$PUCSNAME
  2

  9
$PUCSORG
 10
0.0
 20
0.0
 30
0.0
  9
$PUCSXDIR
 10
1.0
 20
0.0
 30
0.0
  9
$PUCSYDIR
 10
0.0
 20
1.0
 30
0.0
  9
$USERI1
 70
     0
  9
$USERI2
 70
     0
  9
$USERI3
 70
     0
  9
$USERI4
 70
     0
  9
$USERI5
 70
     0
  9
$USERR1
 40
0.0
  9
$USERR2
 40
0.0
  9
$USERR3
 40
0.0
  9
$USERR4
 40
0.0
  9
$USERR5
 40
0.0
  9
$WORLDVIEW
 70
     1
  9
$SHADEDGE
 70
     3
  9
$SHADEDIF
 70
    70
  9
$TILEMODE
 70
     1
  9
$MAXACTVP
 70
    48
  9
$PLIMCHECK
 70
     0
  9
$PEXTMIN
 10
1.0000000000000000E+020
 20
1.0000000000000000E+020
 30
1.0000000000000000E+020
  9
$PEXTMAX
 10
-1.0000000000000000E+020
 20
-1.0000000000000000E+020
 30
-1.0000000000000000E+020
  9
$PLIMMIN
 10
0.0
 20
0.0
  9
$PLIMMAX
 10
12.0
 20
9.0
  9
$UNITMODE
 70
     0
  9
$VISRETAIN
 70
     1
  9
$PLINEGEN
 70
     0
  9
$PSLTSCALE
 70
     1
  0
ENDSEC
  0
SECTION
  2
TABLES
  0
TABLE
  2
VPORT
 70
     1
  0
VPORT
  2
*ACTIVE
 70
     0
 10
0.0
 20
0.0
 11
1.0
 21
1.0
 12
156.29059996312719
 22
127.4298
 13
0.0
 23
0.0
 14
1.0
 24
1.0
 15
0.0
 25
0.0
 16
0.0
 26
0.0
 36
1.0
 17
0.0
 27
0.0
 37
0.0
 40
282.89992383679322
 41
2.0381526104417671
 42
50.0
 43
0.0
 44
0.0
 50
0.0
 51
0.0
 71
     0
 72
   100
 73
     1
 74
     1
 75
     0
 76
     0
 77
     0
 78
     0
  0
ENDTAB
  0
TABLE
  2
LTYPE
 70
     3
  0
LTYPE
  2
CONTINUOUS
 70
     0
  3
Solid line
 72
    65
 73
     0
 40
0.0
  0
LTYPE
  2
AIGENLINE001
 70
     0
  3
generate AI->DXF Converter
 72
    65
 73
     4
 40
5.8561449999999988
 49
3.5278
 49
-0.776115
 49
0.776115
 49
-0.776115
  0
LTYPE
  2
AIGENLINE002
 70
     0
  3
generate AI->DXF Converter
 72
    65
 73
     6
 40
7.4083750000000004
 49
3.5278
 49
-0.776115
 49
0.776115
 49
-0.776115
 49
0.776115
 49
-0.776115
  0
ENDTAB
  0
TABLE
  2
LAYER
 70
     2
  0
LAYER
  2
0
 70
     0
 62
     7
  6
CONTINUOUS
  0
LAYER
  2
_________2
 70
     0
 62
     7
  6
CONTINUOUS
  0
ENDTAB
  0
TABLE
  2
STYLE
 70
     1
  0
STYLE
  2
STANDARD
 70
     0
 40
0.0
 41
0.0
 50
0.0
 71
     0
 42
0.0
  3
TXT
  4
EXTFONT.SHX
  0
ENDTAB
  0
TABLE
  2
VIEW
 70
     0
  0
ENDTAB
  0
TABLE
  2
UCS
 70
     0
  0
ENDTAB
  0
TABLE
  2
APPID
 70
     3
  0
APPID
  2
ACAD
 70
     0
  0
APPID
  2
ACAD_NAV_VCDISPLAY
 70
     0
  0
APPID
  2
ACAD_MLEADERVER
 70
     0
  0
ENDTAB
  0
TABLE
  2
DIMSTYLE
 70
     1
  0
DIMSTYLE
  2
STANDARD
 70
     0
  3

  4

  5

  6

  7

 40
1.0
 41
0.18
 42
0.0625
 43
0.38
 44
0.18
 45
0.0
 46
0.0
 47
0.0
 48
0.0
140
0.18
141
0.09
142
0.0
143
25.399999999999999
144
1.0
145
0.0
146
1.0
147
0.09
 71
     0
 72
     0
 73
     1
 74
     1
 75
     0
 76
     0
 77
     0
 78
     0
170
     0
171
     2
172
     0
173
     0
174
     0
175
     0
176
     0
177
     0
178
     0
  0
ENDTAB
  0
ENDSEC
  0
SECTION
  2
BLOCKS
  0
BLOCK
  8
0
  2
$MODEL_SPACE
 70
     0
 10
0.0
 20
0.0
 30
0.0
  3
$MODEL_SPACE
  1

  0
ENDBLK
  5
1A
  8
0
  0
BLOCK
 67
     1
  8
0
  2
$PAPER_SPACE
 70
     0
 10
0.0
 20
0.0
 30
0.0
  3
$PAPER_SPACE
  1

  0
ENDBLK
  5
17
 67
     1
  8
0
  0
ENDSEC
  0
SECTION
  2
ENTITIES
  0
TEXT
  5
23
  8
0
 62
     7
 10
61.372399999999999
 20
159.328
 30
0.0
 40
3.0923400000000001
  1
VL001
 41
0.5
  0
TEXT
  5
24
  8
0
 62
     7
 10
50.5533
 20
164.90799999999999
 30
0.0
 40
3.0923400000000001
  1
VL017
 41
0.5
  0
TEXT
  5
25
  8
0
 62
     7
 10
52.722999999999999
 20
173.28700000000001
 30
0.0
 40
3.0923400000000001
  1
%%c60
 41
0.5
  0
TEXT
  5
26
  8
0
 62
     7
 10
86.903030000000001
 20
159.328
 30
0.0
 40
3.0923400000000001
  1
VL001
 41
0.5
 72
     2
 11
93.603099999999998
 21
159.328
 31
0.0
  0
TEXT
  5
27
  8
0
 62
     7
 10
88.263229999999993
 20
149.97
 30
0.0
 40
3.0923400000000001
  1
VL010
 41
0.5
 72
     2
 11
94.963300000000004
 21
149.97
 31
0.0
  0
TEXT
  5
28
  8
0
 62
     7
 10
70.819797999999992
 20
88.089200000000005
 30
0.0
 40
3.0923400000000001
  1
G 1/2
 41
0.5
 72
     2
 11
76.901399999999995
 21
88.089200000000005
 31
0.0
  0
TEXT
  5
29
  8
0
 62
     7
 10
96.820397999999997
 20
88.089200000000005
 30
0.0
 40
3.0923400000000001
  1
G 1/2
 41
0.5
 72
     2
 11
102.902
 21
88.089200000000005
 31
0.0
  0
TEXT
  5
2A
  8
0
 62
     7
 10
28.483899999999998
 20
101.722525
 30
0.0
 40
3.0923400000000001
  1
95
 50
90.0
 41
0.5
 72
     1
 11
28.483899999999998
 21
103.011
 31
0.0
  0
TEXT
  5
2B
  8
0
 62
     7
 10
24.109999999999999
 20
100.6689825
 30
0.0
 40
3.0923400000000001
  1
103
 50
90.0
 41
0.5
 72
     1
 11
24.109999999999999
 21
102.34399999999999
 31
0.0
  0
TEXT
  5
2C
  8
0
 62
     7
 10
33.155500000000004
 20
96.312345000000008
 30
0.0
 40
3.0923400000000001
  1
55.5
 50
90.0
 41
0.5
 72
     1
 11
33.155500000000004
 21
98.631600000000006
 31
0.0
  0
TEXT
  5
2D
  8
0
 62
     7
 10
103.678355
 20
117.461
 30
0.0
 40
3.0923400000000001
  1
168.5
 41
0.5
 72
     1
 11
106.51300000000001
 21
117.461
 31
0.0
  0
TEXT
  5
2E
  8
0
 62
     7
 10
76.7159075
 20
123.459
 30
0.0
 40
3.0923400000000001
  1
490.5
 41
0.5
 72
     1
 11
79.679400000000001
 21
123.459
 31
0.0
  0
TEXT
  5
2F
  8
0
 62
     7
 10
84.683025000000001
 20
117.461
 30
0.0
 40
3.0923400000000001
  1
78
 41
0.5
 72
     1
 11
85.971500000000006
 21
117.461
 31
0.0
  0
TEXT
  5
30
  8
0
 62
     7
 10
71.682924999999983
 20
117.461
 30
0.0
 40
3.0923400000000001
  1
78
 41
0.5
 72
     1
 11
72.971400000000003
 21
117.461
 31
0.0
  0
TEXT
  5
31
  8
0
 62
     7
 10
50.834035
 20
117.461
 30
0.0
 40
3.0923400000000001
  1
166
 41
0.5
 72
     1
 11
52.637900000000002
 21
117.461
 31
0.0
  0
TEXT
  5
32
  8
0
 62
     7
 10
33.26230000000001
 20
173.44399999999999
 30
0.0
 40
3.0923400000000001
  1
2.5
 50
90.0
 41
0.5
  0
TEXT
  5
33
  8
0
 62
     7
 10
33.26230000000001
 20
184.0033724999999
 30
0.0
 40
3.0923400000000001
  1
70
 50
90.0
 41
0.5
 72
     1
 11
33.26230000000001
 21
185.16300000000001
 31
0.0
  0
TEXT
  5
34
  8
0
 62
     7
 10
42.110045
 20
198.19
 30
0.0
 40
3.0923400000000001
  1
67.5
 41
0.5
 72
     1
 11
44.429299999999991
 21
198.19
 31
0.0
  0
TEXT
  5
35
  8
0
 62
     7
 10
77.825839999999985
 20
198.19
 30
0.0
 40
3.0923400000000001
  1
358
 41
0.5
 72
     1
 11
79.887399999999985
 21
198.19
 31
0.0
  0
TEXT
  5
36
  8
0
 62
     7
 10
113.849525
 20
198.19
 30
0.0
 40
3.0923400000000001
  1
65
 41
0.5
 72
     1
 11
115.13800000000001
 21
198.19
 31
0.0
  0
TEXT
  5
37
  8
0
 62
     7
 10
172.107696
 20
87.654499999999985
 30
0.0
 40
3.0923400000000001
  1
25～51
 41
0.5
 72
     2
 11
179.11699999999999
 21
87.654499999999985
 31
0.0
  0
TEXT
  5
38
  8
0
 62
     7
 10
127.33499999999999
 20
180.9258055
 30
0.0
 40
3.0923400000000001
  1
75～101
 50
90.0
 41
0.5
 72
     1
 11
127.33499999999999
 21
184.81700000000001
 31
0.0
  0
TEXT
  5
39
  8
0
 62
     7
 10
140.59152
 20
172.88499999999999
 30
0.0
 40
3.0923400000000001
  1
壁仕上厚：max.15
 41
0.5
 72
     2
 11
157.084
 21
172.88499999999999
 31
0.0
  0
TEXT
  5
3A
  8
0
 62
     7
 10
50.952300000000001
 20
205.86099999999999
 30
0.0
 40
3.0923400000000001
  1
VL1500R
 41
0.5
  0
TEXT
  5
3B
  8
0
 62
     7
 10
151.21526999999989
 20
73.506399999999999
 30
0.0
 40
3.0923400000000001
  1
max.15
 41
0.5
 72
     1
 11
154.82300000000001
 21
73.506399999999999
 31
0.0
  0
TEXT
  5
3C
  8
0
 62
     7
 10
144.21700000000001
 20
107.64527
 30
0.0
 40
3.0923400000000001
  1
%%c19
 50
90.0
 41
0.5
 72
     2
 11
144.21700000000001
 21
111.253
 31
0.0
  0
TEXT
  5
3D
  8
0
 62
     7
 10
137.14099999999999
 20
96.074024999999992
 30
0.0
 40
3.0923400000000001
  1
67
 50
90.0
 41
0.5
 72
     1
 11
137.14099999999999
 21
97.362499999999997
 31
0.0
  0
TEXT
  5
3E
  8
0
 62
     7
 10
158.86280550000001
 20
80.965400000000002
 30
0.0
 40
3.0923400000000001
  1
75～101
 41
0.5
 72
     1
 11
162.75399999999999
 21
80.965400000000002
 31
0.0
  0
TEXT
  5
3F
  8
0
 62
     7
 10
139.54898249999999
 20
80.965400000000002
 30
0.0
 40
3.0923400000000001
  1
160
 41
0.5
 72
     1
 11
141.22399999999999
 21
80.965400000000002
 31
0.0
  0
LINE
  5
40
  8
0
 62
     7
 10
89.929299999999984
 20
178.9959999999999
 30
0.0
 11
89.929299999999984
 21
176.82900000000001
 31
0.0
  0
LINE
  5
41
  8
0
 62
     7
 10
89.8459
 20
176.82900000000001
 30
0.0
 11
89.8459
 21
178.91300000000001
 31
0.0
  0
LINE
  5
42
  8
0
 62
     7
 10
95.012900000000002
 20
178.9959999999999
 30
0.0
 11
95.012900000000002
 21
176.82900000000001
 31
0.0
  0
LINE
  5
43
  8
0
 62
     7
 10
95.096299999999985
 20
178.91300000000001
 30
0.0
 11
95.096299999999985
 21
176.82900000000001
 31
0.0
  0
ARC
  5
44
  8
0
 62
     7
 10
95.631685000000004
 20
170.16877199999999
 30
0.0
 40
0.173015
 50
272.03668099999999
 51
357.84482700000001
  0
ARC
  5
45
  8
0
 62
     7
 10
89.310514999999995
 20
170.168094
 30
0.0
 40
0.172339
 50
181.938222
 51
267.94306
  0
LINE
  5
46
  8
0
 62
     7
 10
89.138300000000001
 20
176.24600000000001
 30
0.0
 11
95.804599999999994
 21
176.24600000000001
 31
0.0
  0
LINE
  5
47
  8
0
 62
     7
 10
89.304299999999984
 20
169.99600000000001
 30
0.0
 11
95.637799999999984
 21
169.99600000000001
 31
0.0
  0
LINE
  5
48
  8
0
  6
AIGENLINE001
 62
     7
 10
90.905600000000007
 20
170.99600000000001
 30
0.0
 11
93.942099999999996
 21
170.99600000000001
 31
0.0
  0
LINE
  5
49
  8
0
 62
     7
 10
95.804599999999994
 20
170.16200000000001
 30
0.0
 11
95.804599999999994
 21
176.24600000000001
 31
0.0
  0
LINE
  5
4A
  8
0
 62
     7
 10
89.138300000000001
 20
170.16200000000001
 30
0.0
 11
89.138300000000001
 21
176.24600000000001
 31
0.0
  0
ARC
  5
4B
  8
0
 62
     7
 10
92.449400999999995
 20
171.01767799999999
 30
0.0
 40
0.6056850000000001
 50
272.05138499999998
 51
357.91479199999998
  0
ARC
  5
4C
  8
0
 62
     7
 10
92.493114000000006
 20
171.017314
 30
0.0
 40
0.6053350000000001
 50
182.0520379999999
 51
267.91413899999998
  0
ARC
  5
4D
  8
0
 62
     7
 10
92.493777000000009
 20
170.973659
 30
0.0
 40
0.6060080000000001
 50
92.146265999999997
 51
177.92139
  0
ARC
  5
4E
  8
0
 62
     7
 10
92.449061999999998
 20
170.97362000000001
 30
0.0
 40
0.6060220000000001
 50
2.0822660000000002
 51
87.917723999999993
  0
LINE
  5
4F
  8
0
  6
AIGENLINE001
 62
     7
 10
92.471100000000007
 20
167.898
 30
0.0
 11
92.471100000000007
 21
192.10599999999999
 31
0.0
  0
LINE
  5
50
  8
0
 62
     7
 10
87.470799999999997
 20
176.82900000000001
 30
0.0
 11
87.470799999999997
 21
176.57900000000001
 31
0.0
  0
LINE
  5
51
  8
0
 62
     7
 10
87.470799999999997
 20
176.82900000000001
 30
0.0
 11
97.471299999999999
 21
176.82900000000001
 31
0.0
  0
LINE
  5
52
  8
0
 62
     7
 10
97.471299999999999
 20
176.82900000000001
 30
0.0
 11
97.471299999999999
 21
176.57900000000001
 31
0.0
  0
LINE
  5
53
  8
0
 62
     7
 10
87.470799999999997
 20
176.57900000000001
 30
0.0
 11
97.471299999999999
 21
176.57900000000001
 31
0.0
  0
LINE
  5
54
  8
0
 62
     7
 10
95.267799999999994
 20
176.57900000000001
 30
0.0
 11
95.267799999999994
 21
176.24600000000001
 31
0.0
  0
LINE
  5
55
  8
0
 62
     7
 10
89.606099999999998
 20
176.57900000000001
 30
0.0
 11
89.606099999999998
 21
176.24600000000001
 31
0.0
  0
LINE
  5
56
  8
0
 62
     7
 10
63.929000000000002
 20
178.9959999999999
 30
0.0
 11
63.929000000000002
 21
176.82900000000001
 31
0.0
  0
LINE
  5
57
  8
0
 62
     7
 10
63.845599999999997
 20
176.82900000000001
 30
0.0
 11
63.845599999999997
 21
178.91300000000001
 31
0.0
  0
LINE
  5
58
  8
0
 62
     7
 10
69.012600000000006
 20
178.9959999999999
 30
0.0
 11
69.012600000000006
 21
176.82900000000001
 31
0.0
  0
LINE
  5
59
  8
0
 62
     7
 10
69.096000000000004
 20
178.91300000000001
 30
0.0
 11
69.096000000000004
 21
176.82900000000001
 31
0.0
  0
ARC
  5
5A
  8
0
 62
     7
 10
69.631366
 20
170.16843299999999
 30
0.0
 40
0.172677
 50
272.04680300000001
 51
357.95320699999991
  0
ARC
  5
5B
  8
0
 62
     7
 10
63.310196999999988
 20
170.16843299999999
 30
0.0
 40
0.172677
 50
182.046796
 51
267.95323400000012
  0
LINE
  5
5C
  8
0
 62
     7
 10
63.137599999999999
 20
176.24600000000001
 30
0.0
 11
69.803899999999985
 21
176.24600000000001
 31
0.0
  0
LINE
  5
5D
  8
0
 62
     7
 10
63.304000000000002
 20
169.99600000000001
 30
0.0
 11
69.637500000000003
 21
169.99600000000001
 31
0.0
  0
LINE
  5
5E
  8
0
  6
AIGENLINE001
 62
     7
 10
64.905299999999997
 20
170.99600000000001
 30
0.0
 11
67.941500000000005
 21
170.99600000000001
 31
0.0
  0
LINE
  5
5F
  8
0
 62
     7
 10
69.803899999999985
 20
170.16200000000001
 30
0.0
 11
69.803899999999985
 21
176.24600000000001
 31
0.0
  0
LINE
  5
60
  8
0
 62
     7
 10
63.137599999999999
 20
170.16200000000001
 30
0.0
 11
63.137599999999999
 21
176.24600000000001
 31
0.0
  0
ARC
  5
61
  8
0
 62
     7
 10
66.470781000000002
 20
170.99563900000001
 30
0.0
 40
0.5832580000000001
 50
270.00002000000001
 51
359.99999000000003
  0
ARC
  5
62
  8
0
 62
     7
 10
66.470781000000002
 20
170.99563900000001
 30
0.0
 40
0.5832580000000001
 50
179.99996999999999
 51
270.00002000000001
  0
ARC
  5
63
  8
0
 62
     7
 10
66.493535999999992
 20
170.973243
 30
0.0
 40
0.6064270000000001
 50
92.150359999999992
 51
177.883442
  0
ARC
  5
64
  8
0
 62
     7
 10
66.448743000000007
 20
170.97395800000001
 30
0.0
 40
0.6056850000000001
 50
2.0513750000000002
 51
87.914781999999974
  0
LINE
  5
65
  8
0
 62
     7
 10
71.470699999999994
 20
171.99199999999999
 30
0.0
 11
52.722999999999999
 21
171.99199999999999
 31
0.0
  0
LINE
  5
66
  8
0
 62
     7
 10
58.996299999999998
 20
164.208
 30
0.0
 11
50.5533
 21
164.208
 31
0.0
  0
LINE
  5
67
  8
0
 62
     7
 10
68.195099999999996
 20
175.072
 30
0.0
 11
68.432400000000001
 21
176.57900000000001
 31
0.0
  0
LINE
  5
68
  8
0
 62
     7
 10
68.432400000000001
 20
176.57900000000001
 30
0.0
 11
68.980500000000006
 21
175.155
 31
0.0
  0
LINE
  5
69
  8
0
 62
     7
 10
68.980500000000006
 20
175.155
 30
0.0
 11
68.195099999999996
 21
175.072
 31
0.0
  0
LINE
  5
6A
  8
0
 62
     7
 10
70.3279
 20
158.613
 30
0.0
 11
68.425200000000004
 21
176.578
 31
0.0
  0
LINE
  5
6B
  8
0
 62
     7
 10
62.841000000000001
 20
169.15100000000001
 30
0.0
 11
64.112300000000005
 21
169.99600000000001
 31
0.0
  0
LINE
  5
6C
  8
0
 62
     7
 10
64.112300000000005
 20
169.99600000000001
 30
0.0
 11
63.433199999999999
 21
168.62899999999999
 31
0.0
  0
LINE
  5
6D
  8
0
 62
     7
 10
63.433199999999999
 20
168.62899999999999
 30
0.0
 11
62.841000000000001
 21
169.15100000000001
 31
0.0
  0
LINE
  5
6E
  8
0
 62
     7
 10
58.996299999999998
 20
164.208
 30
0.0
 11
64.106700000000004
 21
170.0
 31
0.0
  0
LINE
  5
6F
  8
0
 62
     7
 10
62.944400000000002
 20
172.387
 30
0.0
 11
61.470500000000001
 21
171.99199999999999
 31
0.0
  0
LINE
  5
70
  8
0
 62
     7
 10
61.470500000000001
 20
171.99199999999999
 30
0.0
 11
62.944400000000002
 21
171.59599999999989
 31
0.0
  0
LINE
  5
71
  8
0
 62
     7
 10
62.944400000000002
 20
171.59599999999989
 30
0.0
 11
62.944400000000002
 21
172.387
 31
0.0
  0
LINE
  5
72
  8
0
 62
     7
 10
69.996200000000002
 20
171.59599999999989
 30
0.0
 11
71.470699999999994
 21
171.99199999999999
 31
0.0
  0
LINE
  5
73
  8
0
 62
     7
 10
71.470699999999994
 20
171.99199999999999
 30
0.0
 11
69.996200000000002
 21
172.387
 31
0.0
  0
LINE
  5
74
  8
0
 62
     7
 10
69.996200000000002
 20
172.387
 30
0.0
 11
69.996200000000002
 21
171.59599999999989
 31
0.0
  0
LINE
  5
75
  8
0
 62
     7
 10
71.470699999999994
 20
171.292
 30
0.0
 11
71.470699999999994
 21
175.87899999999999
 31
0.0
  0
LINE
  5
76
  8
0
 62
     7
 10
61.470500000000001
 20
171.292
 30
0.0
 11
61.470500000000001
 21
175.87899999999999
 31
0.0
  0
LINE
  5
77
  8
0
  6
AIGENLINE001
 62
     7
 10
66.470799999999997
 20
167.898
 30
0.0
 11
66.470799999999997
 21
192.10599999999999
 31
0.0
  0
LINE
  5
78
  8
0
 62
     7
 10
61.470500000000001
 20
176.82900000000001
 30
0.0
 11
61.470500000000001
 21
176.57900000000001
 31
0.0
  0
LINE
  5
79
  8
0
 62
     7
 10
61.470500000000001
 20
176.82900000000001
 30
0.0
 11
71.470699999999994
 21
176.82900000000001
 31
0.0
  0
LINE
  5
7A
  8
0
 62
     7
 10
71.470699999999994
 20
176.82900000000001
 30
0.0
 11
71.470699999999994
 21
176.57900000000001
 31
0.0
  0
LINE
  5
7B
  8
0
 62
     7
 10
61.470500000000001
 20
176.57900000000001
 30
0.0
 11
71.470699999999994
 21
176.57900000000001
 31
0.0
  0
LINE
  5
7C
  8
0
 62
     7
 10
69.267499999999998
 20
176.57900000000001
 30
0.0
 11
69.267499999999998
 21
176.24600000000001
 31
0.0
  0
LINE
  5
7D
  8
0
 62
     7
 10
63.605800000000002
 20
176.57900000000001
 30
0.0
 11
63.605800000000002
 21
176.24600000000001
 31
0.0
  0
LINE
  5
7E
  8
0
 62
     7
 10
70.3279
 20
158.613
 30
0.0
 11
61.329599999999999
 21
158.613
 31
0.0
  0
LINE
  5
7F
  8
0
 62
     7
 10
82.945299999999989
 20
175.072
 30
0.0
 11
83.182400000000015
 21
176.57900000000001
 31
0.0
  0
LINE
  5
80
  8
0
 62
     7
 10
83.182400000000015
 20
176.57900000000001
 30
0.0
 11
83.730799999999988
 21
175.155
 31
0.0
  0
LINE
  5
81
  8
0
 62
     7
 10
83.730799999999988
 20
175.155
 30
0.0
 11
82.945299999999989
 21
175.072
 31
0.0
  0
LINE
  5
82
  8
0
 62
     7
 10
85.077899999999985
 20
158.613
 30
0.0
 11
83.1755
 21
176.578
 31
0.0
  0
LINE
  5
83
  8
0
 62
     7
 10
86.170299999999983
 20
149.27000000000001
 30
0.0
 11
94.963300000000004
 21
149.27000000000001
 31
0.0
  0
LINE
  5
84
  8
0
 62
     7
 10
82.325599999999994
 20
154.21299999999999
 30
0.0
 11
81.054299999999998
 21
155.05699999999999
 31
0.0
  0
LINE
  5
85
  8
0
 62
     7
 10
81.054299999999998
 20
155.05699999999999
 30
0.0
 11
81.733299999999986
 21
153.69
 31
0.0
  0
LINE
  5
86
  8
0
 62
     7
 10
81.733299999999986
 20
153.69
 30
0.0
 11
82.325599999999994
 21
154.21299999999999
 31
0.0
  0
LINE
  5
87
  8
0
 62
     7
 10
86.170299999999983
 20
149.27000000000001
 30
0.0
 11
81.059799999999996
 21
155.06200000000001
 31
0.0
  0
LINE
  5
88
  8
0
  6
AIGENLINE001
 62
     7
 10
79.4709
 20
146.703
 30
0.0
 11
79.4709
 21
191.72300000000001
 31
0.0
  0
ARC
  5
89
  8
0
 62
     7
 10
79.410282999999993
 20
150.22263000000001
 30
0.0
 40
1.645143
 50
272.11271399999998
 51
357.88729599999999
  0
ARC
  5
8A
  8
0
 62
     7
 10
79.531593999999998
 20
150.222286
 30
0.0
 40
1.6447989999999999
 50
182.10116999999991
 51
267.886392
  0
LINE
  5
8B
  8
0
 62
     7
 10
77.471400000000003
 20
176.82900000000001
 30
0.0
 11
77.471400000000003
 21
178.92500000000001
 31
0.0
  0
LINE
  5
8C
  8
0
 62
     7
 10
81.471199999999996
 20
176.82900000000001
 30
0.0
 11
81.471199999999996
 21
178.92500000000001
 31
0.0
  0
LINE
  5
8D
  8
0
 62
     7
 10
81.637900000000002
 20
176.82900000000001
 30
0.0
 11
81.637900000000002
 21
178.92500000000001
 31
0.0
  0
LINE
  5
8E
  8
0
 62
     7
 10
77.304599999999994
 20
176.82900000000001
 30
0.0
 11
77.304599999999994
 21
178.92500000000001
 31
0.0
  0
LINE
  5
8F
  8
0
 62
     7
 10
76.4709
 20
175.745
 30
0.0
 11
76.637699999999995
 21
175.57900000000001
 31
0.0
  0
LINE
  5
90
  8
0
 62
     7
 10
82.471299999999999
 20
175.745
 30
0.0
 11
82.304900000000004
 21
175.57900000000001
 31
0.0
  0
LINE
  5
91
  8
0
 62
     7
 10
82.471299999999999
 20
175.745
 30
0.0
 11
82.471299999999999
 21
176.57900000000001
 31
0.0
  0
LINE
  5
92
  8
0
 62
     7
 10
76.4709
 20
175.745
 30
0.0
 11
76.4709
 21
176.57900000000001
 31
0.0
  0
LINE
  5
93
  8
0
 62
     7
 10
76.4709
 20
175.745
 30
0.0
 11
82.471299999999999
 21
175.745
 31
0.0
  0
LINE
  5
94
  8
0
 62
     7
 10
76.637699999999995
 20
175.57900000000001
 30
0.0
 11
82.304900000000004
 21
175.57900000000001
 31
0.0
  0
LINE
  5
95
  8
0
 62
     7
 10
81.054299999999998
 20
150.16200000000001
 30
0.0
 11
81.054299999999998
 21
175.57900000000001
 31
0.0
  0
LINE
  5
96
  8
0
 62
     7
 10
77.887900000000002
 20
150.16200000000001
 30
0.0
 11
77.887900000000002
 21
175.57900000000001
 31
0.0
  0
LINE
  5
97
  8
0
 62
     7
 10
74.471400000000003
 20
176.82900000000001
 30
0.0
 11
74.471400000000003
 21
176.57900000000001
 31
0.0
  0
LINE
  5
98
  8
0
 62
     7
 10
74.471400000000003
 20
176.82900000000001
 30
0.0
 11
84.471199999999996
 21
176.82900000000001
 31
0.0
  0
LINE
  5
99
  8
0
 62
     7
 10
84.471199999999996
 20
176.82900000000001
 30
0.0
 11
84.471199999999996
 21
176.57900000000001
 31
0.0
  0
LINE
  5
9A
  8
0
 62
     7
 10
74.471400000000003
 20
176.57900000000001
 30
0.0
 11
84.471199999999996
 21
176.57900000000001
 31
0.0
  0
LINE
  5
9B
  8
0
 62
     7
 10
93.603099999999998
 20
158.613
 30
0.0
 11
85.077899999999985
 21
158.613
 31
0.0
  0
LINE
  5
9C
  8
0
 62
     7
 10
169.05699999999999
 20
97.177800000000005
 30
0.0
 11
168.80699999999999
 21
97.177800000000005
 31
0.0
  0
LINE
  5
9D
  8
0
 62
     7
 10
169.05699999999999
 20
96.177700000000002
 30
0.0
 11
168.80699999999999
 21
96.177700000000002
 31
0.0
  0
LINE
  5
9E
  8
0
 62
     7
 10
169.05699999999999
 20
97.177800000000005
 30
0.0
 11
169.14099999999999
 21
97.094099999999997
 31
0.0
  0
LINE
  5
9F
  8
0
 62
     7
 10
169.14099999999999
 20
96.261099999999999
 30
0.0
 11
169.05699999999999
 21
96.177700000000002
 31
0.0
  0
LINE
  5
A0
  8
0
 62
     7
 10
169.14099999999999
 20
96.261099999999999
 30
0.0
 11
169.14099999999999
 21
97.094099999999997
 31
0.0
  0
LINE
  5
A1
  8
0
 62
     7
 10
169.05699999999999
 20
96.177700000000002
 30
0.0
 11
169.05699999999999
 21
97.177800000000005
 31
0.0
  0
LINE
  5
A2
  8
0
 62
     7
 10
169.05699999999999
 20
109.84399999999999
 30
0.0
 11
168.80699999999999
 21
109.84399999999999
 31
0.0
  0
LINE
  5
A3
  8
0
 62
     7
 10
169.05699999999999
 20
108.84399999999999
 30
0.0
 11
168.80699999999999
 21
108.84399999999999
 31
0.0
  0
LINE
  5
A4
  8
0
 62
     7
 10
169.05699999999999
 20
109.84399999999999
 30
0.0
 11
169.14099999999999
 21
109.761
 31
0.0
  0
LINE
  5
A5
  8
0
 62
     7
 10
169.14099999999999
 20
108.928
 30
0.0
 11
169.05699999999999
 21
108.84399999999999
 31
0.0
  0
LINE
  5
A6
  8
0
 62
     7
 10
169.14099999999999
 20
108.928
 30
0.0
 11
169.14099999999999
 21
109.761
 31
0.0
  0
LINE
  5
A7
  8
0
 62
     7
 10
169.05699999999999
 20
108.84399999999999
 30
0.0
 11
169.05699999999999
 21
109.84399999999999
 31
0.0
  0
LINE
  5
A8
  8
0
 62
     7
 10
163.05000000000001
 20
93.760900000000007
 30
0.0
 11
167.05099999999999
 21
93.760900000000007
 31
0.0
  0
ARC
  5
A9
  8
0
 62
     7
 10
167.049926
 20
94.097849999999994
 30
0.0
 40
0.336918
 50
270.12064500000002
 51
302.26434
  0
LINE
  5
AA
  8
0
 62
     7
 10
167.22999999999999
 20
95.094200000000001
 30
0.0
 11
167.22999999999999
 21
93.812999999999988
 31
0.0
  0
ARC
  5
AB
  8
0
 62
     7
 10
163.063637
 20
94.107534000000001
 30
0.0
 40
0.346863
 50
182.166685
 51
267.77412400000009
  0
LINE
  5
AC
  8
0
 62
     7
 10
162.71700000000001
 20
95.094200000000001
 30
0.0
 11
162.71700000000001
 21
94.094399999999993
 31
0.0
  0
LINE
  5
AD
  8
0
 62
     7
 10
157.22399999999999
 20
110.92700000000001
 30
0.0
 11
157.22399999999999
 21
95.094200000000001
 31
0.0
  0
LINE
  5
AE
  8
0
 62
     7
 10
156.88999999999999
 20
110.92700000000001
 30
0.0
 11
156.88999999999999
 21
95.094200000000001
 31
0.0
  0
LINE
  5
AF
  8
0
 62
     7
 10
168.80699999999999
 20
95.094200000000001
 30
0.0
 11
168.80699999999999
 21
110.92700000000001
 31
0.0
  0
LINE
  5
B0
  8
0
 62
     7
 10
168.80699999999999
 20
95.094200000000001
 30
0.0
 11
156.88999999999999
 21
95.094200000000001
 31
0.0
  0
LINE
  5
B1
  8
0
 62
     7
 10
168.80699999999999
 20
110.92700000000001
 30
0.0
 11
156.88999999999999
 21
110.92700000000001
 31
0.0
  0
ARC
  5
B2
  8
0
 62
     7
 10
158.973558
 20
108.26074300000001
 30
0.0
 40
0.5002310000000002
 50
90.0
 51
179.99996999999999
  0
ARC
  5
B3
  8
0
 62
     7
 10
158.99253999999999
 20
108.28008199999999
 30
0.0
 40
0.519573
 50
182.1331439999999
 51
267.90635900000001
  0
ARC
  5
B4
  8
0
 62
     7
 10
158.954262
 20
108.28039699999999
 30
0.0
 40
0.519898
 50
272.12699300000003
 51
357.83354300000002
  0
ARC
  5
B5
  8
0
 62
     7
 10
158.973558
 20
108.26074300000001
 30
0.0
 40
0.5002310000000002
 50
0.00001
 51
89.999980000000008
  0
ARC
  5
B6
  8
0
 62
     7
 10
160.409549
 20
97.742070999999996
 30
0.0
 40
0.5192350000000001
 50
92.136610000000005
 51
177.94233500000001
  0
ARC
  5
B7
  8
0
 62
     7
 10
160.40948
 20
97.780004000000005
 30
0.0
 40
0.51919
 50
182.12919199999999
 51
267.87083799999999
  0
ARC
  5
B8
  8
0
 62
     7
 10
160.37090900000001
 20
97.780711999999994
 30
0.0
 40
0.5198970000000001
 50
272.125451
 51
357.79558500000002
  0
ARC
  5
B9
  8
0
 62
     7
 10
160.37085999999999
 20
97.741383999999996
 30
0.0
 40
0.519921
 50
2.1307099999999992
 51
87.869280000000003
  0
LINE
  5
BA
  8
0
 62
     7
 10
163.72399999999999
 20
106.34399999999999
 30
0.0
 11
165.88999999999999
 21
106.34399999999999
 31
0.0
  0
LINE
  5
BB
  8
0
 62
     7
 10
166.38999999999999
 20
100.17700000000001
 30
0.0
 11
166.38999999999999
 21
105.84399999999999
 31
0.0
  0
ARC
  5
BC
  8
0
 62
     7
 10
165.871354
 20
105.825014
 30
0.0
 40
0.519212
 50
2.132903999999999
 51
87.906586999999988
  0
LINE
  5
BD
  8
0
 62
     7
 10
163.72399999999999
 20
99.677599999999998
 30
0.0
 11
165.88999999999999
 21
99.677599999999998
 31
0.0
  0
ARC
  5
BE
  8
0
 62
     7
 10
165.87102899999999
 20
100.19676800000001
 30
0.0
 40
0.519549
 50
272.127861
 51
357.83264800000001
  0
ARC
  5
BF
  8
0
 62
     7
 10
162.938569
 20
103.077996
 30
0.0
 40
2.5982579999999991
 50
287.56410599999998
 51
13.321424
  0
ARC
  5
C0
  8
0
 62
     7
 10
163.017368
 20
102.970901
 30
0.0
 40
2.5491950000000001
 50
16.072854
 51
73.938453999999993
  0
ARC
  5
C1
  8
0
 62
     7
 10
161.41577000000001
 20
102.985253
 30
0.0
 40
0.6925740000000001
 50
92.106943999999984
 51
177.86340799999999
  0
ARC
  5
C2
  8
0
 62
     7
 10
161.41614300000001
 20
103.036551
 30
0.0
 40
0.6929340000000001
 50
182.107125
 51
267.86330199999998
  0
ARC
  5
C3
  8
0
 62
     7
 10
161.36479700000001
 20
103.036227
 30
0.0
 40
0.6925980000000001
 50
272.11092300000001
 51
357.91869000000003
  0
ARC
  5
C4
  8
0
 62
     7
 10
161.36516
 20
102.985567
 30
0.0
 40
0.692249
 50
2.1115400000000002
 51
87.918068000000005
  0
ARC
  5
C5
  8
0
 62
     7
 10
161.43780899999999
 20
102.96321500000001
 30
0.0
 40
1.2986159999999991
 50
92.096232999999998
 51
177.887947
  0
ARC
  5
C6
  8
0
 62
     7
 10
161.43860799999999
 20
103.05937299999999
 30
0.0
 40
1.299431
 50
182.13020399999999
 51
267.86982599999999
  0
ARC
  5
C7
  8
0
 62
     7
 10
161.34199799999999
 20
103.05938399999999
 30
0.0
 40
1.2994419999999991
 50
272.13063099999999
 51
357.86937899999998
  0
ARC
  5
C8
  8
0
 62
     7
 10
161.34235699999999
 20
102.96276400000001
 30
0.0
 40
1.2990829999999991
 50
2.1311490000000002
 51
87.884630999999985
  0
LINE
  5
C9
  8
0
 62
     7
 10
163.72399999999999
 20
95.927199999999985
 30
0.0
 11
163.72399999999999
 21
110.09399999999999
 31
0.0
  0
ARC
  5
CA
  8
0
 62
     7
 10
162.85897
 20
110.062522
 30
0.0
 40
0.8652969999999999
 50
2.1003080000000001
 51
87.947054000000009
  0
ARC
  5
CB
  8
0
 62
     7
 10
162.85833199999999
 20
95.959574000000003
 30
0.0
 40
0.865958
 50
272.09362599999997
 51
357.85901200000001
  0
LINE
  5
CC
  8
0
  6
AIGENLINE001
 62
     7
 10
164.97300000000001
 20
95.887900000000016
 30
0.0
 11
164.97300000000001
 21
92.084900000000005
 31
0.0
  0
ARC
  5
CD
  8
0
 62
     7
 10
149.21735000000001
 20
110.337479
 30
0.0
 40
0.173036
 50
2.047461999999999
 51
87.952528000000015
  0
ARC
  5
CE
  8
0
 62
     7
 10
148.39634000000001
 20
110.337479
 30
0.0
 40
0.173036
 50
92.047434999999993
 51
177.95253500000001
  0
LINE
  5
CF
  8
0
 62
     7
 10
148.22300000000001
 20
110.34399999999999
 30
0.0
 11
148.22300000000001
 21
106.34399999999999
 31
0.0
  0
LINE
  5
D0
  8
0
 62
     7
 10
149.38999999999999
 20
110.34399999999999
 30
0.0
 11
149.38999999999999
 21
106.34399999999999
 31
0.0
  0
LINE
  5
D1
  8
0
  6
AIGENLINE001
 62
     7
 10
148.80699999999999
 20
111.02500000000001
 30
0.0
 11
148.80699999999999
 21
105.247
 31
0.0
  0
LINE
  5
D2
  8
0
 62
     7
 10
148.38999999999999
 20
110.51000000000001
 30
0.0
 11
149.22399999999999
 21
110.51000000000001
 31
0.0
  0
ARC
  5
D3
  8
0
 62
     7
 10
148.14623399999999
 20
99.849467000000004
 30
0.0
 40
0.172689
 50
181.9362469999999
 51
267.94528100000002
  0
ARC
  5
D4
  8
0
 62
     7
 10
148.146567
 20
106.170969
 30
0.0
 40
0.173033
 50
92.160874000000007
 51
177.95759899999999
  0
LINE
  5
D5
  8
0
 62
     7
 10
154.22300000000001
 20
106.34399999999999
 30
0.0
 11
154.22300000000001
 21
99.676900000000003
 31
0.0
  0
LINE
  5
D6
  8
0
 62
     7
 10
147.97399999999999
 20
106.17700000000001
 30
0.0
 11
147.97399999999999
 21
99.843599999999995
 31
0.0
  0
LINE
  5
D7
  8
0
 62
     7
 10
148.13999999999999
 20
99.676900000000003
 30
0.0
 11
154.22300000000001
 21
99.676900000000003
 31
0.0
  0
LINE
  5
D8
  8
0
 62
     7
 10
148.13999999999999
 20
106.34399999999999
 30
0.0
 11
154.22300000000001
 21
106.34399999999999
 31
0.0
  0
ARC
  5
D9
  8
0
 62
     7
 10
104.846287
 20
184.11809600000001
 30
0.0
 40
0.9911489999999998
 50
236.87904900000001
 51
303.120971
  0
ARC
  5
DA
  8
0
 62
     7
 10
103.763142
 20
184.117017
 30
0.0
 40
0.9902459999999999
 50
236.84493900000001
 51
303.155081
  0
LINE
  5
DB
  8
0
 62
     7
 10
105.38800000000001
 20
184.328
 30
0.0
 11
104.30500000000001
 21
184.328
 31
0.0
  0
ARC
  5
DC
  8
0
 62
     7
 10
105.224422
 20
184.57593899999989
 30
0.0
 40
0.086028
 50
92.202260999999993
 51
178.27319
  0
ARC
  5
DD
  8
0
 62
     7
 10
105.225041
 20
184.41499400000001
 30
0.0
 40
0.086667
 50
182.12022400000001
 51
267.40432499999997
  0
LINE
  5
DE
  8
0
 62
     7
 10
105.13800000000001
 20
184.41200000000001
 30
0.0
 11
105.13800000000001
 21
184.57900000000001
 31
0.0
  0
LINE
  5
DF
  8
0
 62
     7
 10
105.34699999999999
 20
183.07900000000001
 30
0.0
 11
105.38800000000001
 21
183.12
 31
0.0
  0
ARC
  5
E0
  8
0
 62
     7
 10
105.051534
 20
182.16532100000001
 30
0.0
 40
0.086958
 50
271.87073600000002
 51
357.89397300000002
  0
LINE
  5
E1
  8
0
 62
     7
 10
105.13800000000001
 20
182.16200000000001
 30
0.0
 11
105.13800000000001
 21
183.07900000000001
 31
0.0
  0
LINE
  5
E2
  8
0
 62
     7
 10
104.30500000000001
 20
183.28800000000001
 30
0.0
 11
104.30500000000001
 21
184.328
 31
0.0
  0
LINE
  5
E3
  8
0
 62
     7
 10
105.38800000000001
 20
183.12
 30
0.0
 11
105.38800000000001
 21
184.328
 31
0.0
  0
ARC
  5
E4
  8
0
 62
     7
 10
103.384389
 20
184.57532499999999
 30
0.0
 40
0.086667
 50
2.1202040000000002
 51
87.404304999999994
  0
ARC
  5
E5
  8
0
 62
     7
 10
103.38500500000001
 20
184.41438199999999
 30
0.0
 40
0.08603
 50
272.20388600000001
 51
358.27160500000002
  0
LINE
  5
E6
  8
0
 62
     7
 10
103.471
 20
184.57900000000001
 30
0.0
 11
103.471
 21
184.41200000000001
 31
0.0
  0
LINE
  5
E7
  8
0
 62
     7
 10
103.22199999999999
 20
183.12
 30
0.0
 11
103.26300000000001
 21
183.07900000000001
 31
0.0
  0
ARC
  5
E8
  8
0
 62
     7
 10
103.557956
 20
182.16535500000001
 30
0.0
 40
0.08702
 50
182.12686099999999
 51
267.63689699999998
  0
LINE
  5
E9
  8
0
 62
     7
 10
103.471
 20
183.07900000000001
 30
0.0
 11
103.471
 21
182.16200000000001
 31
0.0
  0
LINE
  5
EA
  8
0
 62
     7
 10
103.22199999999999
 20
183.12
 30
0.0
 11
103.22199999999999
 21
184.328
 31
0.0
  0
LINE
  5
EB
  8
0
 62
     7
 10
103.26300000000001
 20
183.07900000000001
 30
0.0
 11
105.34699999999999
 21
183.07900000000001
 31
0.0
  0
LINE
  5
EC
  8
0
 62
     7
 10
103.30500000000001
 20
184.66200000000001
 30
0.0
 11
105.304
 21
184.66200000000001
 31
0.0
  0
LINE
  5
ED
  8
0
 62
     7
 10
104.30500000000001
 20
184.328
 30
0.0
 11
103.22199999999999
 21
184.328
 31
0.0
  0
LINE
  5
EE
  8
0
 62
     7
 10
103.471
 20
182.16200000000001
 30
0.0
 11
105.13800000000001
 21
182.16200000000001
 31
0.0
  0
LINE
  5
EF
  8
0
 62
     7
 10
105.05500000000001
 20
182.078
 30
0.0
 11
103.554
 21
182.078
 31
0.0
  0
LINE
  5
F0
  8
0
 62
     7
 10
105.471
 20
189.16200000000001
 30
0.0
 11
105.471
 21
189.82900000000001
 31
0.0
  0
LINE
  5
F1
  8
0
 62
     7
 10
103.13800000000001
 20
189.82900000000001
 30
0.0
 11
103.13800000000001
 21
189.16200000000001
 31
0.0
  0
LINE
  5
F2
  8
0
 62
     7
 10
105.304
 20
184.66200000000001
 30
0.0
 11
105.304
 21
189.16200000000001
 31
0.0
  0
LINE
  5
F3
  8
0
 62
     7
 10
105.221
 20
184.66200000000001
 30
0.0
 11
105.221
 21
189.16200000000001
 31
0.0
  0
LINE
  5
F4
  8
0
 62
     7
 10
103.38800000000001
 20
189.16200000000001
 30
0.0
 11
103.38800000000001
 21
184.66200000000001
 31
0.0
  0
LINE
  5
F5
  8
0
 62
     7
 10
103.30500000000001
 20
189.16200000000001
 30
0.0
 11
103.30500000000001
 21
184.66200000000001
 31
0.0
  0
ARC
  5
F6
  8
0
 62
     7
 10
55.179237000000001
 20
184.11782299999999
 30
0.0
 40
0.9910149999999999
 50
236.86208199999999
 51
303.13793800000002
  0
ARC
  5
F7
  8
0
 62
     7
 10
54.095919999999992
 20
184.11755700000001
 30
0.0
 40
0.9906979999999999
 50
236.86200199999999
 51
303.1380180000001
  0
LINE
  5
F8
  8
0
 62
     7
 10
55.720999999999997
 20
184.328
 30
0.0
 11
54.637500000000003
 21
184.328
 31
0.0
  0
ARC
  5
F9
  8
0
 62
     7
 10
55.557173999999989
 20
184.57560799999999
 30
0.0
 40
0.086357
 50
92.176860999999988
 51
178.06035900000001
  0
ARC
  5
FA
  8
0
 62
     7
 10
55.55735
 20
184.414885
 30
0.0
 40
0.086539
 50
182.0515959999999
 51
267.711185
  0
LINE
  5
FB
  8
0
 62
     7
 10
55.4709
 20
184.41200000000001
 30
0.0
 11
55.4709
 21
184.57900000000001
 31
0.0
  0
LINE
  5
FC
  8
0
 62
     7
 10
55.679299999999998
 20
183.07900000000001
 30
0.0
 11
55.720999999999997
 21
183.12
 31
0.0
  0
ARC
  5
FD
  8
0
 62
     7
 10
55.384633999999998
 20
182.16461899999999
 30
0.0
 40
0.086269
 50
272.12957100000011
 51
358.34395499999999
  0
LINE
  5
FE
  8
0
 62
     7
 10
55.4709
 20
182.16200000000001
 30
0.0
 11
55.4709
 21
183.07900000000001
 31
0.0
  0
LINE
  5
FF
  8
0
 62
     7
 10
54.637500000000003
 20
183.28800000000001
 30
0.0
 11
54.637500000000003
 21
184.328
 31
0.0
  0
LINE
  5
100
  8
0
 62
     7
 10
55.720999999999997
 20
183.12
 30
0.0
 11
55.720999999999997
 21
184.328
 31
0.0
  0
ARC
  5
101
  8
0
 62
     7
 10
53.717291000000003
 20
184.575433
 30
0.0
 40
0.086539
 50
2.0515929999999991
 51
87.711146999999997
  0
ARC
  5
102
  8
0
 62
     7
 10
53.717566000000012
 20
184.41461100000001
 30
0.0
 40
0.086254
 50
272.11343199999999
 51
358.12382700000001
  0
LINE
  5
103
  8
0
 62
     7
 10
53.803800000000003
 20
184.57900000000001
 30
0.0
 11
53.803800000000003
 21
184.41200000000001
 31
0.0
  0
LINE
  5
104
  8
0
 62
     7
 10
53.554299999999998
 20
183.12
 30
0.0
 11
53.595700000000001
 21
183.07900000000001
 31
0.0
  0
ARC
  5
105
  8
0
 62
     7
 10
53.890602000000001
 20
182.165223
 30
0.0
 40
0.086882
 50
182.043037
 51
267.72072200000002
  0
LINE
  5
106
  8
0
 62
     7
 10
53.803800000000003
 20
183.07900000000001
 30
0.0
 11
53.803800000000003
 21
182.16200000000001
 31
0.0
  0
LINE
  5
107
  8
0
 62
     7
 10
53.554299999999998
 20
183.12
 30
0.0
 11
53.554299999999998
 21
184.328
 31
0.0
  0
LINE
  5
108
  8
0
 62
     7
 10
53.595700000000001
 20
183.07900000000001
 30
0.0
 11
55.679299999999998
 21
183.07900000000001
 31
0.0
  0
LINE
  5
109
  8
0
 62
     7
 10
53.637700000000002
 20
184.66200000000001
 30
0.0
 11
55.637300000000003
 21
184.66200000000001
 31
0.0
  0
LINE
  5
10A
  8
0
 62
     7
 10
54.637500000000003
 20
184.328
 30
0.0
 11
53.554299999999998
 21
184.328
 31
0.0
  0
LINE
  5
10B
  8
0
 62
     7
 10
53.803800000000003
 20
182.16200000000001
 30
0.0
 11
55.4709
 21
182.16200000000001
 31
0.0
  0
LINE
  5
10C
  8
0
 62
     7
 10
55.387799999999999
 20
182.078
 30
0.0
 11
53.88709999999999
 21
182.078
 31
0.0
  0
LINE
  5
10D
  8
0
 62
     7
 10
55.804400000000001
 20
189.16200000000001
 30
0.0
 11
55.804400000000001
 21
189.82900000000001
 31
0.0
  0
LINE
  5
10E
  8
0
 62
     7
 10
53.471000000000011
 20
189.82900000000001
 30
0.0
 11
53.471000000000011
 21
189.16200000000001
 31
0.0
  0
LINE
  5
10F
  8
0
 62
     7
 10
55.637300000000003
 20
184.66200000000001
 30
0.0
 11
55.637300000000003
 21
189.16200000000001
 31
0.0
  0
LINE
  5
110
  8
0
 62
     7
 10
55.553899999999999
 20
184.66200000000001
 30
0.0
 11
55.553899999999999
 21
189.16200000000001
 31
0.0
  0
LINE
  5
111
  8
0
 62
     7
 10
53.720700000000001
 20
189.16200000000001
 30
0.0
 11
53.720700000000001
 21
184.66200000000001
 31
0.0
  0
LINE
  5
112
  8
0
 62
     7
 10
53.637700000000002
 20
189.16200000000001
 30
0.0
 11
53.637700000000002
 21
184.66200000000001
 31
0.0
  0
LINE
  5
113
  8
0
 62
     7
 10
103.80500000000001
 20
190.91300000000001
 30
0.0
 11
103.80500000000001
 21
190.66300000000001
 31
0.0
  0
LINE
  5
114
  8
0
 62
     7
 10
104.80500000000001
 20
190.91300000000001
 30
0.0
 11
104.80500000000001
 21
190.66300000000001
 31
0.0
  0
LINE
  5
115
  8
0
 62
     7
 10
103.80500000000001
 20
190.91300000000001
 30
0.0
 11
103.889
 21
190.99600000000001
 31
0.0
  0
LINE
  5
116
  8
0
 62
     7
 10
104.72199999999999
 20
190.99600000000001
 30
0.0
 11
104.80500000000001
 21
190.91300000000001
 31
0.0
  0
LINE
  5
117
  8
0
 62
     7
 10
104.72199999999999
 20
190.99600000000001
 30
0.0
 11
103.889
 21
190.99600000000001
 31
0.0
  0
LINE
  5
118
  8
0
 62
     7
 10
104.80500000000001
 20
190.91300000000001
 30
0.0
 11
103.80500000000001
 21
190.91300000000001
 31
0.0
  0
LINE
  5
119
  8
0
 62
     7
 10
54.137599999999992
 20
190.91300000000001
 30
0.0
 11
54.137599999999992
 21
190.66300000000001
 31
0.0
  0
LINE
  5
11A
  8
0
 62
     7
 10
55.137700000000002
 20
190.91300000000001
 30
0.0
 11
55.137700000000002
 21
190.66300000000001
 31
0.0
  0
LINE
  5
11B
  8
0
 62
     7
 10
54.137599999999992
 20
190.91300000000001
 30
0.0
 11
54.221299999999999
 21
190.99600000000001
 31
0.0
  0
LINE
  5
11C
  8
0
 62
     7
 10
55.05469999999999
 20
190.99600000000001
 30
0.0
 11
55.137700000000002
 21
190.91300000000001
 31
0.0
  0
LINE
  5
11D
  8
0
 62
     7
 10
55.05469999999999
 20
190.99600000000001
 30
0.0
 11
54.221299999999999
 21
190.99600000000001
 31
0.0
  0
LINE
  5
11E
  8
0
 62
     7
 10
55.137700000000002
 20
190.91300000000001
 30
0.0
 11
54.137599999999992
 21
190.91300000000001
 31
0.0
  0
LINE
  5
11F
  8
0
 62
     7
 10
104.30500000000001
 20
95.426299999999998
 30
0.0
 11
103.22199999999999
 21
96.051900000000003
 31
0.0
  0
LINE
  5
120
  8
0
 62
     7
 10
105.38800000000001
 20
96.051900000000003
 30
0.0
 11
104.30500000000001
 21
95.426299999999998
 31
0.0
  0
LINE
  5
121
  8
0
 62
     7
 10
105.38800000000001
 20
97.303200000000004
 30
0.0
 11
105.38800000000001
 21
96.051900000000003
 31
0.0
  0
LINE
  5
122
  8
0
 62
     7
 10
104.30500000000001
 20
97.928500000000014
 30
0.0
 11
105.38800000000001
 21
97.303200000000004
 31
0.0
  0
LINE
  5
123
  8
0
 62
     7
 10
103.22199999999999
 20
97.303200000000004
 30
0.0
 11
104.30500000000001
 21
97.928500000000014
 31
0.0
  0
LINE
  5
124
  8
0
 62
     7
 10
103.22199999999999
 20
96.051900000000003
 30
0.0
 11
103.22199999999999
 21
97.303200000000004
 31
0.0
  0
LINE
  5
125
  8
0
 62
     7
 10
103.22199999999999
 20
109.97
 30
0.0
 11
103.22199999999999
 21
108.71899999999999
 31
0.0
  0
LINE
  5
126
  8
0
 62
     7
 10
104.30500000000001
 20
110.595
 30
0.0
 11
103.22199999999999
 21
109.97
 31
0.0
  0
LINE
  5
127
  8
0
 62
     7
 10
105.38800000000001
 20
109.97
 30
0.0
 11
104.30500000000001
 21
110.595
 31
0.0
  0
LINE
  5
128
  8
0
 62
     7
 10
105.38800000000001
 20
108.71899999999999
 30
0.0
 11
105.38800000000001
 21
109.97
 31
0.0
  0
LINE
  5
129
  8
0
 62
     7
 10
104.30500000000001
 20
108.093
 30
0.0
 11
105.38800000000001
 21
108.71899999999999
 31
0.0
  0
LINE
  5
12A
  8
0
 62
     7
 10
103.22199999999999
 20
108.71899999999999
 30
0.0
 11
104.30500000000001
 21
108.093
 31
0.0
  0
LINE
  5
12B
  8
0
 62
     7
 10
53.554699999999997
 20
108.71899999999999
 30
0.0
 11
53.554699999999997
 21
109.97
 31
0.0
  0
LINE
  5
12C
  8
0
 62
     7
 10
54.637500000000003
 20
108.093
 30
0.0
 11
53.554699999999997
 21
108.71899999999999
 31
0.0
  0
LINE
  5
12D
  8
0
 62
     7
 10
55.720999999999997
 20
108.71899999999999
 30
0.0
 11
54.637500000000003
 21
108.093
 31
0.0
  0
LINE
  5
12E
  8
0
 62
     7
 10
55.720999999999997
 20
109.97
 30
0.0
 11
55.720999999999997
 21
108.71899999999999
 31
0.0
  0
LINE
  5
12F
  8
0
 62
     7
 10
54.637500000000003
 20
110.595
 30
0.0
 11
55.720999999999997
 21
109.97
 31
0.0
  0
LINE
  5
130
  8
0
 62
     7
 10
53.554699999999997
 20
109.97
 30
0.0
 11
54.637500000000003
 21
110.595
 31
0.0
  0
LINE
  5
131
  8
0
 62
     7
 10
53.554699999999997
 20
96.051900000000003
 30
0.0
 11
53.554699999999997
 21
97.303200000000004
 31
0.0
  0
LINE
  5
132
  8
0
 62
     7
 10
54.637500000000003
 20
95.426299999999998
 30
0.0
 11
53.554699999999997
 21
96.051900000000003
 31
0.0
  0
LINE
  5
133
  8
0
 62
     7
 10
55.720999999999997
 20
96.051900000000003
 30
0.0
 11
54.637500000000003
 21
95.426299999999998
 31
0.0
  0
LINE
  5
134
  8
0
 62
     7
 10
55.720999999999997
 20
97.303200000000004
 30
0.0
 11
55.720999999999997
 21
96.051900000000003
 31
0.0
  0
LINE
  5
135
  8
0
 62
     7
 10
54.637500000000003
 20
97.928500000000014
 30
0.0
 11
55.720999999999997
 21
97.303200000000004
 31
0.0
  0
LINE
  5
136
  8
0
 62
     7
 10
53.554699999999997
 20
97.303200000000004
 30
0.0
 11
54.637500000000003
 21
97.928500000000014
 31
0.0
  0
ARC
  5
137
  8
0
 62
     7
 10
119.690617
 20
110.062522
 30
0.0
 40
0.8652969999999999
 50
2.1003080000000001
 51
87.947054000000009
  0
ARC
  5
138
  8
0
 62
     7
 10
118.87276900000001
 20
109.27633299999999
 30
0.0
 40
0.4322760000000001
 50
272.096881
 51
357.90312899999998
  0
ARC
  5
139
  8
0
 62
     7
 10
118.87207100000001
 20
109.24471800000001
 30
0.0
 40
0.432973
 50
2.0910729999999988
 51
87.814134999999993
  0
ARC
  5
13A
  8
0
 62
     7
 10
118.87242000000001
 20
105.495043
 30
0.0
 40
0.432624
 50
2.0939689999999991
 51
87.858609999999999
  0
ARC
  5
13B
  8
0
 62
     7
 10
118.90438899999999
 20
105.494331
 30
0.0
 40
0.4333220000000001
 50
92.090091000000015
 51
177.81517500000001
  0
ARC
  5
13C
  8
0
 62
     7
 10
115.53923500000001
 20
105.49497
 30
0.0
 40
0.432661
 50
2.1034779999999991
 51
87.991216000000009
  0
ARC
  5
13D
  8
0
 62
     7
 10
115.57024199999999
 20
105.495367
 30
0.0
 40
0.432288
 50
92.100015999999997
 51
177.94736499999999
  0
ARC
  5
13E
  8
0
 62
     7
 10
115.570266
 20
109.24536500000001
 30
0.0
 40
0.432301
 50
92.103189
 51
177.99156400000001
  0
ARC
  5
13F
  8
0
 62
     7
 10
115.570217
 20
109.276332
 30
0.0
 40
0.4322760000000001
 50
182.09687299999999
 51
267.90315600000002
  0
LINE
  5
140
  8
0
 62
     7
 10
115.554
 20
108.84399999999999
 30
0.0
 11
118.889
 21
108.84399999999999
 31
0.0
  0
LINE
  5
141
  8
0
 62
     7
 10
118.889
 20
109.67700000000001
 30
0.0
 11
115.554
 21
109.67700000000001
 31
0.0
  0
ARC
  5
142
  8
0
 62
     7
 10
118.903741
 20
100.526822
 30
0.0
 40
0.432651
 50
182.102237
 51
267.99249700000001
  0
ARC
  5
143
  8
0
 62
     7
 10
118.872744
 20
100.52643500000001
 30
0.0
 40
0.4322890000000001
 50
272.100053
 51
357.94736799999998
  0
ARC
  5
144
  8
0
 62
     7
 10
115.570556
 20
100.526749
 30
0.0
 40
0.4326140000000001
 50
182.092727
 51
267.859892
  0
ARC
  5
145
  8
0
 62
     7
 10
115.538597
 20
100.52747100000001
 30
0.0
 40
0.4333220000000001
 50
272.09011099999998
 51
357.81519500000002
  0
ARC
  5
146
  8
0
 62
     7
 10
118.87272
 20
96.776092000000006
 30
0.0
 40
0.432301
 50
272.10322599999989
 51
357.99156600000009
  0
ARC
  5
147
  8
0
 62
     7
 10
118.87242000000001
 20
96.745133999999993
 30
0.0
 40
0.432624
 50
2.0939689999999991
 51
87.858609999999999
  0
ARC
  5
148
  8
0
 62
     7
 10
119.68997899999999
 20
95.959574000000003
 30
0.0
 40
0.865958
 50
272.09362599999997
 51
357.85901200000001
  0
ARC
  5
149
  8
0
 62
     7
 10
115.57024199999999
 20
96.745457999999999
 30
0.0
 40
0.432288
 50
92.100015999999997
 51
177.94736499999999
  0
ARC
  5
14A
  8
0
 62
     7
 10
115.570915
 20
96.776740000000004
 30
0.0
 40
0.432972
 50
182.09107499999999
 51
267.8141720000001
  0
LINE
  5
14B
  8
0
 62
     7
 10
118.889
 20
96.344099999999997
 30
0.0
 11
115.554
 21
96.344099999999997
 31
0.0
  0
LINE
  5
14C
  8
0
 62
     7
 10
115.554
 20
97.177499999999995
 30
0.0
 11
118.889
 21
97.177499999999995
 31
0.0
  0
LINE
  5
14D
  8
0
 62
     7
 10
119.30500000000001
 20
100.511
 30
0.0
 11
119.30500000000001
 21
105.511
 31
0.0
  0
LINE
  5
14E
  8
0
 62
     7
 10
115.97199999999999
 20
100.511
 30
0.0
 11
115.97199999999999
 21
105.511
 31
0.0
  0
LINE
  5
14F
  8
0
 62
     7
 10
115.13800000000001
 20
105.511
 30
0.0
 11
115.13800000000001
 21
100.511
 31
0.0
  0
LINE
  5
150
  8
0
 62
     7
 10
118.471
 20
105.511
 30
0.0
 11
118.471
 21
100.511
 31
0.0
  0
LINE
  5
151
  8
0
 62
     7
 10
120.55500000000001
 20
95.927199999999985
 30
0.0
 11
120.55500000000001
 21
110.09399999999999
 31
0.0
  0
LINE
  5
152
  8
0
 62
     7
 10
105.88800000000001
 20
110.92700000000001
 30
0.0
 11
105.13800000000001
 21
110.92700000000001
 31
0.0
  0
ARC
  5
153
  8
0
 62
     7
 10
105.10677
 20
110.06257100000001
 30
0.0
 40
0.865273
 50
2.0971380000000002
 51
87.902851999999996
  0
ARC
  5
154
  8
0
 62
     7
 10
103.39769200000001
 20
110.17532
 30
0.0
 40
0.7593830000000001
 50
157.553012
 51
179.85344699999999
  0
ARC
  5
155
  8
0
 62
     7
 10
106.92651600000001
 20
110.965942
 30
0.0
 40
1.0391449999999991
 50
182.1331439999999
 51
267.90635900000001
  0
ARC
  5
156
  8
0
 62
     7
 10
106.849914
 20
110.96554500000001
 30
0.0
 40
1.0387729999999991
 50
272.13170500000001
 51
357.88805200000002
  0
LINE
  5
157
  8
0
 62
     7
 10
107.47199999999999
 20
107.511
 30
0.0
 11
107.47199999999999
 21
109.011
 31
0.0
  0
LINE
  5
158
  8
0
 62
     7
 10
107.55500000000001
 20
109.09399999999999
 30
0.0
 11
107.55500000000001
 21
107.428
 31
0.0
  0
ARC
  5
159
  8
0
 62
     7
 10
107.558094
 20
107.513997
 30
0.0
 40
0.086345
 50
182.161046
 51
267.83898399999998
  0
LINE
  5
15A
  8
0
 62
     7
 10
107.55500000000001
 20
107.428
 30
0.0
 11
108.471
 21
107.428
 31
0.0
  0
LINE
  5
15B
  8
0
 62
     7
 10
107.30500000000001
 20
105.511
 30
0.0
 11
107.221
 21
105.42700000000001
 31
0.0
  0
LINE
  5
15C
  8
0
 62
     7
 10
108.471
 20
105.511
 30
0.0
 11
107.30500000000001
 21
105.511
 31
0.0
  0
ARC
  5
15D
  8
0
 62
     7
 10
107.55807299999999
 20
109.00785500000001
 30
0.0
 40
0.086323
 50
92.147660999999999
 51
177.85230899999999
  0
LINE
  5
15E
  8
0
 62
     7
 10
108.471
 20
109.09399999999999
 30
0.0
 11
107.55500000000001
 21
109.09399999999999
 31
0.0
  0
ARC
  5
15F
  8
0
 62
     7
 10
101.830648
 20
108.651905
 30
0.0
 40
0.709687
 50
92.103955000000013
 51
177.92490100000001
  0
ARC
  5
160
  8
0
 62
     7
 10
101.830962
 20
108.703613
 30
0.0
 40
0.710012
 50
182.09952100000001
 51
267.871623
  0
ARC
  5
161
  8
0
 62
     7
 10
101.778558
 20
108.70328000000001
 30
0.0
 40
0.7096670000000001
 50
272.102464
 51
357.92643199999998
  0
ARC
  5
162
  8
0
 62
     7
 10
101.77822399999999
 20
108.651591
 30
0.0
 40
0.710013
 50
2.0995180000000002
 51
87.871585999999994
  0
LINE
  5
163
  8
0
 62
     7
 10
105.971
 20
107.122
 30
0.0
 11
105.971
 21
106.652
 31
0.0
  0
LINE
  5
164
  8
0
 62
     7
 10
105.971
 20
107.122
 30
0.0
 11
105.971
 21
107.497
 31
0.0
  0
LINE
  5
165
  8
0
 62
     7
 10
105.971
 20
107.732
 30
0.0
 11
105.971
 21
107.497
 31
0.0
  0
LINE
  5
166
  8
0
 62
     7
 10
104.646
 20
109.68300000000001
 30
0.0
 11
104.182
 21
109.809
 31
0.0
  0
LINE
  5
167
  8
0
 62
     7
 10
104.182
 20
109.809
 30
0.0
 11
103.84099999999999
 21
109.47
 31
0.0
  0
LINE
  5
168
  8
0
 62
     7
 10
103.84099999999999
 20
109.47
 30
0.0
 11
103.964
 21
109.005
 31
0.0
  0
LINE
  5
169
  8
0
 62
     7
 10
103.964
 20
109.005
 30
0.0
 11
104.42700000000001
 21
108.879
 31
0.0
  0
LINE
  5
16A
  8
0
 62
     7
 10
104.42700000000001
 20
108.879
 30
0.0
 11
104.76900000000001
 21
109.218
 31
0.0
  0
LINE
  5
16B
  8
0
 62
     7
 10
104.76900000000001
 20
109.218
 30
0.0
 11
104.646
 21
109.68300000000001
 31
0.0
  0
ARC
  5
16C
  8
0
 62
     7
 10
104.304715
 20
109.34388800000001
 30
0.0
 40
1.041804
 50
90.0
 51
179.99996999999999
  0
ARC
  5
16D
  8
0
 62
     7
 10
104.30437000000001
 20
109.34423200000001
 30
0.0
 40
1.041458999999999
 50
180.0189629999999
 51
270.01897300000002
  0
ARC
  5
16E
  8
0
 62
     7
 10
104.264788
 20
109.384888
 30
0.0
 40
1.0828509999999989
 50
272.11308700000001
 51
357.83007199999997
  0
ARC
  5
16F
  8
0
 62
     7
 10
104.265064
 20
109.30387899999999
 30
0.0
 40
1.082538999999999
 50
2.1180330000000001
 51
87.900901000000005
  0
ARC
  5
170
  8
0
 62
     7
 10
104.336393
 20
109.312209
 30
0.0
 40
0.8656319999999999
 50
92.097244999999987
 51
177.902726
  0
ARC
  5
171
  8
0
 62
     7
 10
104.336045
 20
109.375576
 30
0.0
 40
0.8652840000000001
 50
182.098726
 51
267.92499500000002
  0
ARC
  5
172
  8
0
 62
     7
 10
104.273079
 20
109.376239
 30
0.0
 40
0.865958
 50
272.09362599999997
 51
357.85901200000001
  0
ARC
  5
173
  8
0
 62
     7
 10
104.27337900000001
 20
109.31219400000001
 30
0.0
 40
0.8656349999999999
 50
2.0982340000000002
 51
87.925437000000016
  0
LINE
  5
174
  8
0
 62
     7
 10
105.971
 20
107.732
 30
0.0
 11
105.971
 21
110.09399999999999
 31
0.0
  0
ARC
  5
175
  8
0
 62
     7
 10
102.655517
 20
109.99366999999999
 30
0.0
 40
0.4757050000000001
 50
92.072776000000005
 51
177.970257
  0
ARC
  5
176
  8
0
 62
     7
 10
102.655154
 20
110.02771799999999
 30
0.0
 40
0.4753550000000001
 50
182.07364899999999
 51
267.96947599999999
  0
ARC
  5
177
  8
0
 62
     7
 10
102.621145
 20
110.028042
 30
0.0
 40
0.47569
 50
272.068128
 51
357.88878599999998
  0
ARC
  5
178
  8
0
 62
     7
 10
102.62078200000001
 20
109.993346
 30
0.0
 40
0.47604
 50
2.0672790000000001
 51
87.889647999999994
  0
LINE
  5
179
  8
0
 62
     7
 10
102.63800000000001
 20
109.553
 30
0.0
 11
102.63800000000001
 21
110.17700000000001
 31
0.0
  0
ARC
  5
17A
  8
0
 62
     7
 10
91.176392000000007
 20
110.96547700000001
 30
0.0
 40
1.038702
 50
182.10835399999999
 51
267.87192900000002
  0
ARC
  5
17B
  8
0
 62
     7
 10
91.131962999999999
 20
110.941056
 30
0.0
 40
1.013582999999999
 50
270.33115199999997
 51
318.25117400000011
  0
ARC
  5
17C
  8
0
 62
     7
 10
91.148518000000024
 20
110.92486100000001
 30
0.0
 40
0.9897679999999999
 50
335.24487299999998
 51
0.139098
  0
LINE
  5
17D
  8
0
 62
     7
 10
105.13800000000001
 20
110.92700000000001
 30
0.0
 11
92.138299999999987
 21
110.92700000000001
 31
0.0
  0
ARC
  5
17E
  8
0
 62
     7
 10
107.558098
 20
98.508159000000006
 30
0.0
 40
0.086335
 50
92.163516000000016
 51
178.07370299999999
  0
LINE
  5
17F
  8
0
 62
     7
 10
108.471
 20
98.594399999999993
 30
0.0
 11
107.55500000000001
 21
98.594399999999993
 31
0.0
  0
LINE
  5
180
  8
0
 62
     7
 10
107.221
 20
100.59399999999999
 30
0.0
 11
107.30500000000001
 21
100.511
 31
0.0
  0
LINE
  5
181
  8
0
 62
     7
 10
107.30500000000001
 20
100.511
 30
0.0
 11
108.471
 21
100.511
 31
0.0
  0
ARC
  5
182
  8
0
 62
     7
 10
102.664322
 20
102.985063
 30
0.0
 40
0.709654
 50
92.100494999999995
 51
177.899475
  0
ARC
  5
183
  8
0
 62
     7
 10
102.664681
 20
103.037085
 30
0.0
 40
0.710012
 50
182.09952100000001
 51
267.871623
  0
ARC
  5
184
  8
0
 62
     7
 10
102.612257
 20
103.036771
 30
0.0
 40
0.709687
 50
272.103993
 51
357.92490400000003
  0
ARC
  5
185
  8
0
 62
     7
 10
102.61227100000001
 20
102.985033
 30
0.0
 40
0.709685
 50
2.1028159999999989
 51
87.897173999999978
  0
LINE
  5
186
  8
0
 62
     7
 10
102.63800000000001
 20
102.328
 30
0.0
 11
102.63800000000001
 21
103.694
 31
0.0
  0
LINE
  5
187
  8
0
 62
     7
 10
105.971
 20
99.3703
 30
0.0
 11
105.971
 21
98.899000000000001
 31
0.0
  0
LINE
  5
188
  8
0
 62
     7
 10
105.971
 20
98.899000000000001
 30
0.0
 11
105.971
 21
98.524799999999985
 31
0.0
  0
LINE
  5
189
  8
0
 62
     7
 10
105.971
 20
98.524799999999985
 30
0.0
 11
105.971
 21
98.289199999999994
 31
0.0
  0
ARC
  5
18A
  8
0
 62
     7
 10
104.33071200000001
 20
101.6511
 30
0.0
 40
0.710011
 50
92.098342000000017
 51
177.843841
  0
ARC
  5
18B
  8
0
 62
     7
 10
104.33109899999999
 20
101.703839
 30
0.0
 40
0.710372
 50
182.099684
 51
267.87147399999998
  0
ARC
  5
18C
  8
0
 62
     7
 10
104.27866400000001
 20
101.703864
 30
0.0
 40
0.7103850000000002
 50
272.10162200000002
 51
357.89838800000001
  0
ARC
  5
18D
  8
0
 62
     7
 10
104.279689
 20
101.651715
 30
0.0
 40
0.7093620000000001
 50
2.108452999999999
 51
87.978195999999997
  0
ARC
  5
18E
  8
0
 62
     7
 10
107.55878300000001
 20
97.014282999999992
 30
0.0
 40
0.087032
 50
182.12439499999999
 51
267.40211900000003
  0
LINE
  5
18F
  8
0
 62
     7
 10
107.55500000000001
 20
96.927300000000002
 30
0.0
 11
108.471
 21
96.927300000000002
 31
0.0
  0
LINE
  5
190
  8
0
 62
     7
 10
104.76900000000001
 20
96.551500000000004
 30
0.0
 11
104.646
 21
97.016599999999997
 31
0.0
  0
LINE
  5
191
  8
0
 62
     7
 10
103.84099999999999
 20
96.803299999999993
 30
0.0
 11
103.964
 21
96.3386
 31
0.0
  0
ARC
  5
192
  8
0
 62
     7
 10
104.34469900000001
 20
96.637586000000013
 30
0.0
 40
1.0825260000000001
 50
92.116738999999995
 51
177.88323099999999
  0
ARC
  5
193
  8
0
 62
     7
 10
104.34469900000001
 20
96.717554000000021
 30
0.0
 40
1.0825260000000001
 50
182.11676900000001
 51
267.883261
  0
ARC
  5
194
  8
0
 62
     7
 10
104.26473900000001
 20
96.717903000000007
 30
0.0
 40
1.082875
 50
272.11561799999998
 51
357.86544800000007
  0
ARC
  5
195
  8
0
 62
     7
 10
104.26505400000001
 20
96.637551000000016
 30
0.0
 40
1.0825489999999991
 50
2.1185459999999989
 51
87.900388000000007
  0
ARC
  5
196
  8
0
 62
     7
 10
104.336369
 20
96.645557999999994
 30
0.0
 40
0.86562
 50
92.095660999999993
 51
177.880619
  0
ARC
  5
197
  8
0
 62
     7
 10
104.336045
 20
96.709256999999994
 30
0.0
 40
0.8652840000000001
 50
182.098726
 51
267.92499500000002
  0
ARC
  5
198
  8
0
 62
     7
 10
104.273079
 20
96.709920999999994
 30
0.0
 40
0.865958
 50
272.09362599999997
 51
357.85901200000001
  0
ARC
  5
199
  8
0
 62
     7
 10
104.273717
 20
96.645856999999992
 30
0.0
 40
0.8652969999999999
 50
2.1003080000000001
 51
87.947054000000009
  0
LINE
  5
19A
  8
0
 62
     7
 10
105.88800000000001
 20
95.094200000000001
 30
0.0
 11
105.13800000000001
 21
95.094200000000001
 31
0.0
  0
ARC
  5
19B
  8
0
 62
     7
 10
105.10675999999999
 20
95.958896999999979
 30
0.0
 40
0.8652829999999999
 50
272.09777100000002
 51
357.90223900000001
  0
ARC
  5
19C
  8
0
 62
     7
 10
103.386278
 20
95.843857999999983
 30
0.0
 40
0.747966
 50
179.94773799999999
 51
202.619463
  0
LINE
  5
19D
  8
0
 62
     7
 10
103.964
 20
96.3386
 30
0.0
 11
104.42700000000001
 21
96.212100000000007
 31
0.0
  0
ARC
  5
19E
  8
0
 62
     7
 10
102.655517
 20
95.993746999999999
 30
0.0
 40
0.4757050000000001
 50
92.072776000000005
 51
177.970257
  0
ARC
  5
19F
  8
0
 62
     7
 10
102.655145
 20
96.027786000000006
 30
0.0
 40
0.475345
 50
182.072565
 51
267.97056000000009
  0
ARC
  5
1A0
  8
0
 62
     7
 10
102.621145
 20
96.028118999999975
 30
0.0
 40
0.47569
 50
272.068128
 51
357.88878599999998
  0
ARC
  5
1A1
  8
0
 62
     7
 10
102.620791
 20
95.993431999999984
 30
0.0
 40
0.4760310000000001
 50
2.0661979999999991
 51
87.890728999999993
  0
LINE
  5
1A2
  8
0
 62
     7
 10
102.63800000000001
 20
95.844499999999996
 30
0.0
 11
102.63800000000001
 21
96.469099999999997
 31
0.0
  0
LINE
  5
1A3
  8
0
 62
     7
 10
104.42700000000001
 20
96.212100000000007
 30
0.0
 11
104.76900000000001
 21
96.551500000000004
 31
0.0
  0
LINE
  5
1A4
  8
0
 62
     7
 10
104.646
 20
97.016599999999997
 30
0.0
 11
104.182
 21
97.142300000000006
 31
0.0
  0
LINE
  5
1A5
  8
0
 62
     7
 10
104.182
 20
97.142300000000006
 30
0.0
 11
103.84099999999999
 21
96.803299999999993
 31
0.0
  0
ARC
  5
1A6
  8
0
 62
     7
 10
106.84923999999999
 20
95.055596999999992
 30
0.0
 40
1.0394579999999991
 50
2.1279629999999998
 51
87.832540000000009
  0
ARC
  5
1A7
  8
0
 62
     7
 10
106.888381
 20
95.094020999999998
 30
0.0
 40
1.000289999999999
 50
89.990132999999986
 51
179.990104
  0
LINE
  5
1A8
  8
0
 62
     7
 10
105.971
 20
98.289199999999994
 30
0.0
 11
105.971
 21
95.927199999999985
 31
0.0
  0
ARC
  5
1A9
  8
0
 62
     7
 10
101.830623
 20
97.318169999999995
 30
0.0
 40
0.7096749999999999
 50
92.102023999999986
 51
177.89794699999999
  0
ARC
  5
1AA
  8
0
 62
     7
 10
101.804593
 20
97.344200000000001
 30
0.0
 40
0.683167
 50
179.99996999999999
 51
270.00002000000001
  0
ARC
  5
1AB
  8
0
 62
     7
 10
101.778582
 20
97.370210999999983
 30
0.0
 40
0.709654
 50
272.10053199999999
 51
357.89947799999999
  0
ARC
  5
1AC
  8
0
 62
     7
 10
101.77857299999999
 20
97.318179000000015
 30
0.0
 40
0.7096650000000001
 50
2.1012859999999991
 51
87.898704000000009
  0
LINE
  5
1AD
  8
0
 62
     7
 10
107.47199999999999
 20
97.011099999999985
 30
0.0
 11
107.47199999999999
 21
98.511099999999999
 31
0.0
  0
LINE
  5
1AE
  8
0
 62
     7
 10
107.55500000000001
 20
98.594399999999993
 30
0.0
 11
107.55500000000001
 21
96.927300000000002
 31
0.0
  0
ARC
  5
1AF
  8
0
 62
     7
 10
94.457843000000011
 20
94.107907999999995
 30
0.0
 40
0.347223
 50
272.167013
 51
357.77383700000001
  0
LINE
  5
1B0
  8
0
 62
     7
 10
94.221500000000006
 20
93.760900000000007
 30
0.0
 11
94.471000000000004
 21
93.760900000000007
 31
0.0
  0
ARC
  5
1B1
  8
0
 62
     7
 10
90.484604000000004
 20
94.107117999999986
 30
0.0
 40
0.346444
 50
182.10040000000001
 51
267.78112800000002
  0
LINE
  5
1B2
  8
0
 62
     7
 10
90.471199999999996
 20
93.760900000000007
 30
0.0
 11
94.471000000000004
 21
93.760900000000007
 31
0.0
  0
LINE
  5
1B3
  8
0
 62
     7
 10
90.138400000000004
 20
98.587900000000005
 30
0.0
 11
90.138400000000004
 21
94.094399999999993
 31
0.0
  0
LINE
  5
1B4
  8
0
 62
     7
 10
94.8048
 20
98.587500000000006
 30
0.0
 11
94.8048
 21
94.094399999999993
 31
0.0
  0
LINE
  5
1B5
  8
0
 62
     7
 10
95.897599999999997
 20
99.3703
 30
0.0
 11
105.971
 21
99.3703
 31
0.0
  0
LINE
  5
1B6
  8
0
 62
     7
 10
94.8048
 20
98.524799999999985
 30
0.0
 11
105.971
 21
98.524799999999985
 31
0.0
  0
LINE
  5
1B7
  8
0
 62
     7
 10
94.8048
 20
95.094200000000001
 30
0.0
 11
105.13800000000001
 21
95.094200000000001
 31
0.0
  0
LINE
  5
1B8
  8
0
 62
     7
 10
105.971
 20
99.3703
 30
0.0
 11
105.971
 21
106.652
 31
0.0
  0
ARC
  5
1B9
  8
0
 62
     7
 10
104.33076
 20
104.318288
 30
0.0
 40
0.7100350000000001
 50
92.102186000000003
 51
177.897784
  0
ARC
  5
1BA
  8
0
 62
     7
 10
104.33109899999999
 20
104.37036000000001
 30
0.0
 40
0.710372
 50
182.099684
 51
267.87147399999998
  0
ARC
  5
1BB
  8
0
 62
     7
 10
104.27866400000001
 20
104.370385
 30
0.0
 40
0.7103850000000002
 50
272.10162200000002
 51
357.89838800000001
  0
ARC
  5
1BC
  8
0
 62
     7
 10
104.27900200000001
 20
104.318264
 30
0.0
 40
0.710047
 50
2.1041439999999989
 51
87.924717000000001
  0
LINE
  5
1BD
  8
0
 62
     7
 10
107.221
 20
100.59399999999999
 30
0.0
 11
107.221
 21
105.42700000000001
 31
0.0
  0
LINE
  5
1BE
  8
0
 62
     7
 10
107.30500000000001
 20
105.511
 30
0.0
 11
107.30500000000001
 21
100.511
 31
0.0
  0
LINE
  5
1BF
  8
0
 62
     7
 10
108.471
 20
95.094200000000001
 30
0.0
 11
108.471
 21
110.92700000000001
 31
0.0
  0
ARC
  5
1C0
  8
0
 62
     7
 10
79.509169
 20
110.965501
 30
0.0
 40
1.038713999999999
 50
182.10967400000001
 51
267.890356
  0
ARC
  5
1C1
  8
0
 62
     7
 10
79.432330000000007
 20
110.96658100000001
 30
0.0
 40
1.039806999999999
 50
272.12753900000001
 51
357.83299799999998
  0
ARC
  5
1C2
  8
0
 62
     7
 10
67.80998000000001
 20
110.927887
 30
0.0
 40
1.0053659999999991
 50
180.03553600000001
 51
204.53532799999999
  0
ARC
  5
1C3
  8
0
 62
     7
 10
67.811793000000009
 20
110.943862
 30
0.0
 40
1.0163990000000001
 50
221.89744400000001
 51
269.58246700000001
  0
ARC
  5
1C4
  8
0
 62
     7
 10
67.765767000000011
 20
110.96588300000001
 30
0.0
 40
1.0391099999999991
 50
272.12995100000001
 51
357.87005900000003
  0
LINE
  5
1C5
  8
0
 62
     7
 10
68.804199999999994
 20
110.92700000000001
 30
0.0
 11
78.471199999999996
 21
110.92700000000001
 31
0.0
  0
LINE
  5
1C6
  8
0
 62
     7
 10
64.4709
 20
93.760900000000007
 30
0.0
 11
68.471400000000003
 21
93.760900000000007
 31
0.0
  0
ARC
  5
1C7
  8
0
 62
     7
 10
64.484304000000009
 20
94.107117999999986
 30
0.0
 40
0.346444
 50
182.10040000000001
 51
267.78112800000002
  0
ARC
  5
1C8
  8
0
 62
     7
 10
68.458184000000003
 20
94.106881999999999
 30
0.0
 40
0.3462
 50
272.18134700000002
 51
357.93716499999999
  0
LINE
  5
1C9
  8
0
 62
     7
 10
64.138099999999994
 20
98.587900000000005
 30
0.0
 11
64.138099999999994
 21
94.094399999999993
 31
0.0
  0
LINE
  5
1CA
  8
0
 62
     7
 10
68.804199999999994
 20
98.587900000000005
 30
0.0
 11
68.804199999999994
 21
94.094399999999993
 31
0.0
  0
LINE
  5
1CB
  8
0
 62
     7
 10
68.804199999999994
 20
95.094200000000001
 30
0.0
 11
77.887600000000006
 21
95.094200000000001
 31
0.0
  0
LINE
  5
1CC
  8
0
 62
     7
 10
80.471400000000003
 20
110.92700000000001
 30
0.0
 11
90.138400000000004
 21
110.92700000000001
 31
0.0
  0
LINE
  5
1CD
  8
0
 62
     7
 10
88.242500000000007
 20
100.34399999999999
 30
0.0
 11
83.700299999999984
 21
100.34399999999999
 31
0.0
  0
LINE
  5
1CE
  8
0
 62
     7
 10
75.242199999999997
 20
100.34399999999999
 30
0.0
 11
70.700000000000003
 21
100.34399999999999
 31
0.0
  0
LINE
  5
1CF
  8
0
 62
     7
 10
69.897800000000004
 20
99.3703
 30
0.0
 11
76.046099999999996
 21
99.3703
 31
0.0
  0
LINE
  5
1D0
  8
0
 62
     7
 10
82.894900000000007
 20
99.3703
 30
0.0
 11
89.045800000000014
 21
99.3703
 31
0.0
  0
LINE
  5
1D1
  8
0
 62
     7
 10
81.054299999999998
 20
95.094200000000001
 30
0.0
 11
90.138400000000004
 21
95.094200000000001
 31
0.0
  0
LINE
  5
1D2
  8
0
 62
     7
 10
88.176100000000005
 20
105.678
 30
0.0
 11
83.699500000000015
 21
105.678
 31
0.0
  0
LINE
  5
1D3
  8
0
 62
     7
 10
75.242400000000004
 20
105.678
 30
0.0
 11
70.699299999999994
 21
105.678
 31
0.0
  0
LINE
  5
1D4
  8
0
 62
     7
 10
68.804199999999994
 20
98.524799999999985
 30
0.0
 11
77.266400000000004
 21
98.524799999999985
 31
0.0
  0
LINE
  5
1D5
  8
0
 62
     7
 10
81.676699999999997
 20
98.524799999999985
 30
0.0
 11
90.138400000000004
 21
98.524799999999985
 31
0.0
  0
LINE
  5
1D6
  8
0
 62
     7
 10
119.72199999999999
 20
95.094200000000001
 30
0.0
 11
107.88800000000001
 21
95.094200000000001
 31
0.0
  0
LINE
  5
1D7
  8
0
 62
     7
 10
119.72199999999999
 20
110.92700000000001
 30
0.0
 11
107.88800000000001
 21
110.92700000000001
 31
0.0
  0
LINE
  5
1D8
  8
0
 62
     7
 10
120.55500000000001
 20
179.32900000000001
 30
0.0
 11
120.55500000000001
 21
178.91300000000001
 31
0.0
  0
ARC
  5
1D9
  8
0
 62
     7
 10
108.124953
 20
189.89944800000001
 30
0.0
 40
0.346537
 50
2.1759669999999991
 51
87.883243999999976
  0
ARC
  5
1DA
  8
0
 62
     7
 10
108.109106
 20
189.883602
 30
0.0
 40
0.779533
 50
2.132318999999999
 51
87.893984000000003
  0
LINE
  5
1DB
  8
0
 62
     7
 10
108.88800000000001
 20
185.58000000000001
 30
0.0
 11
109.30500000000001
 21
185.58000000000001
 31
0.0
  0
LINE
  5
1DC
  8
0
 62
     7
 10
107.30500000000001
 20
187.41200000000001
 30
0.0
 11
107.221
 21
187.32900000000001
 31
0.0
  0
LINE
  5
1DD
  8
0
 62
     7
 10
108.471
 20
187.41200000000001
 30
0.0
 11
107.30500000000001
 21
187.41200000000001
 31
0.0
  0
LINE
  5
1DE
  8
0
 62
     7
 10
107.88800000000001
 20
190.66300000000001
 30
0.0
 11
107.88800000000001
 21
190.2459999999999
 31
0.0
  0
LINE
  5
1DF
  8
0
 62
     7
 10
107.88800000000001
 20
190.66300000000001
 30
0.0
 11
108.13800000000001
 21
190.66300000000001
 31
0.0
  0
LINE
  5
1E0
  8
0
 62
     7
 10
108.13800000000001
 20
190.2459999999999
 30
0.0
 11
107.88800000000001
 21
190.2459999999999
 31
0.0
  0
LINE
  5
1E1
  8
0
 62
     7
 10
105.13800000000001
 20
189.82900000000001
 30
0.0
 11
105.13800000000001
 21
190.2459999999999
 31
0.0
  0
LINE
  5
1E2
  8
0
 62
     7
 10
105.971
 20
190.2459999999999
 30
0.0
 11
105.971
 21
189.82900000000001
 31
0.0
  0
LINE
  5
1E3
  8
0
 62
     7
 10
105.971
 20
189.82900000000001
 30
0.0
 11
105.13800000000001
 21
189.82900000000001
 31
0.0
  0
LINE
  5
1E4
  8
0
 62
     7
 10
105.971
 20
189.82900000000001
 30
0.0
 11
105.971
 21
189.73099999999999
 31
0.0
  0
LINE
  5
1E5
  8
0
 62
     7
 10
105.971
 20
189.357
 30
0.0
 11
105.971
 21
189.73099999999999
 31
0.0
  0
LINE
  5
1E6
  8
0
 62
     7
 10
105.971
 20
189.357
 30
0.0
 11
105.971
 21
189.16200000000001
 31
0.0
  0
LINE
  5
1E7
  8
0
 62
     7
 10
102.63800000000001
 20
190.66300000000001
 30
0.0
 11
105.88800000000001
 21
190.66300000000001
 31
0.0
  0
LINE
  5
1E8
  8
0
 62
     7
 10
105.88800000000001
 20
190.2459999999999
 30
0.0
 11
102.63800000000001
 21
190.2459999999999
 31
0.0
  0
LINE
  5
1E9
  8
0
 62
     7
 10
105.13800000000001
 20
190.2459999999999
 30
0.0
 11
105.971
 21
190.2459999999999
 31
0.0
  0
LINE
  5
1EA
  8
0
 62
     7
 10
102.63800000000001
 20
190.2459999999999
 30
0.0
 11
102.63800000000001
 21
190.66300000000001
 31
0.0
  0
LINE
  5
1EB
  8
0
 62
     7
 10
105.88800000000001
 20
190.66300000000001
 30
0.0
 11
105.88800000000001
 21
190.2459999999999
 31
0.0
  0
LINE
  5
1EC
  8
0
 62
     7
 10
105.88800000000001
 20
190.66300000000001
 30
0.0
 11
107.88800000000001
 21
190.66300000000001
 31
0.0
  0
LINE
  5
1ED
  8
0
 62
     7
 10
105.88800000000001
 20
190.2459999999999
 30
0.0
 11
107.88800000000001
 21
190.2459999999999
 31
0.0
  0
LINE
  5
1EE
  8
0
 62
     7
 10
108.88800000000001
 20
179.66200000000001
 30
0.0
 11
108.88800000000001
 21
184.74600000000001
 31
0.0
  0
LINE
  5
1EF
  8
0
 62
     7
 10
109.505
 20
181.95400000000001
 30
0.0
 11
109.505
 21
184.53800000000001
 31
0.0
  0
LINE
  5
1F0
  8
0
 62
     7
 10
109.30500000000001
 20
184.74600000000001
 30
0.0
 11
109.30500000000001
 21
182.03700000000001
 31
0.0
  0
LINE
  5
1F1
  8
0
 62
     7
 10
109.38800000000001
 20
184.53800000000001
 30
0.0
 11
109.38800000000001
 21
181.95400000000001
 31
0.0
  0
LINE
  5
1F2
  8
0
 62
     7
 10
109.30500000000001
 20
182.03700000000001
 30
0.0
 11
109.30500000000001
 21
179.66200000000001
 31
0.0
  0
LINE
  5
1F3
  8
0
 62
     7
 10
109.38800000000001
 20
180.4129999999999
 30
0.0
 11
109.38800000000001
 21
181.41200000000001
 31
0.0
  0
LINE
  5
1F4
  8
0
 62
     7
 10
109.38800000000001
 20
180.4129999999999
 30
0.0
 11
109.471
 21
180.49600000000001
 31
0.0
  0
LINE
  5
1F5
  8
0
 62
     7
 10
108.88800000000001
 20
179.66200000000001
 30
0.0
 11
108.88800000000001
 21
179.41300000000001
 31
0.0
  0
LINE
  5
1F6
  8
0
 62
     7
 10
109.30500000000001
 20
180.4129999999999
 30
0.0
 11
109.38800000000001
 21
180.4129999999999
 31
0.0
  0
LINE
  5
1F7
  8
0
 62
     7
 10
108.471
 20
179.41300000000001
 30
0.0
 11
108.471
 21
180.16200000000001
 31
0.0
  0
LINE
  5
1F8
  8
0
 62
     7
 10
108.88800000000001
 20
179.41300000000001
 30
0.0
 11
108.471
 21
179.41300000000001
 31
0.0
  0
LINE
  5
1F9
  8
0
 62
     7
 10
108.471
 20
180.16200000000001
 30
0.0
 11
108.88800000000001
 21
180.16200000000001
 31
0.0
  0
LINE
  5
1FA
  8
0
 62
     7
 10
109.471
 20
181.32900000000001
 30
0.0
 11
109.471
 21
180.49600000000001
 31
0.0
  0
LINE
  5
1FB
  8
0
 62
     7
 10
109.38800000000001
 20
181.95400000000001
 30
0.0
 11
109.505
 21
181.95400000000001
 31
0.0
  0
ARC
  5
1FC
  8
0
 62
     7
 10
109.391587
 20
182.04064
 30
0.0
 40
0.086689
 50
182.13357199999999
 51
267.39097700000002
  0
LINE
  5
1FD
  8
0
 62
     7
 10
109.38800000000001
 20
181.41200000000001
 30
0.0
 11
109.30500000000001
 21
181.41200000000001
 31
0.0
  0
LINE
  5
1FE
  8
0
 62
     7
 10
109.471
 20
181.32900000000001
 30
0.0
 11
109.38800000000001
 21
181.41200000000001
 31
0.0
  0
LINE
  5
1FF
  8
0
 62
     7
 10
107.55500000000001
 20
181.74600000000001
 30
0.0
 11
107.55500000000001
 21
180.07900000000001
 31
0.0
  0
LINE
  5
200
  8
0
 62
     7
 10
107.471
 20
180.16200000000001
 30
0.0
 11
107.471
 21
180.91300000000001
 31
0.0
  0
ARC
  5
201
  8
0
 62
     7
 10
107.55813499999999
 20
180.16570400000001
 30
0.0
 40
0.086731
 50
182.17850200000001
 51
267.821527
  0
LINE
  5
202
  8
0
 62
     7
 10
107.471
 20
180.91300000000001
 30
0.0
 11
107.471
 21
181.66300000000001
 31
0.0
  0
ARC
  5
203
  8
0
 62
     7
 10
107.558093
 20
181.65932900000001
 30
0.0
 40
0.086688
 50
92.151730000000015
 51
177.84824
  0
LINE
  5
204
  8
0
 62
     7
 10
107.55500000000001
 20
180.07900000000001
 30
0.0
 11
108.471
 21
180.07900000000001
 31
0.0
  0
LINE
  5
205
  8
0
 62
     7
 10
108.471
 20
181.74600000000001
 30
0.0
 11
107.55500000000001
 21
181.74600000000001
 31
0.0
  0
LINE
  5
206
  8
0
 62
     7
 10
109.63800000000001
 20
182.58000000000001
 30
0.0
 11
109.721
 21
182.66200000000001
 31
0.0
  0
LINE
  5
207
  8
0
 62
     7
 10
109.505
 20
182.58000000000001
 30
0.0
 11
109.63800000000001
 21
182.58000000000001
 31
0.0
  0
LINE
  5
208
  8
0
 62
     7
 10
109.721
 20
183.83000000000001
 30
0.0
 11
109.63800000000001
 21
183.91300000000001
 31
0.0
  0
LINE
  5
209
  8
0
 62
     7
 10
109.721
 20
183.83000000000001
 30
0.0
 11
109.721
 21
183.24600000000001
 31
0.0
  0
LINE
  5
20A
  8
0
 62
     7
 10
109.63800000000001
 20
183.91300000000001
 30
0.0
 11
109.505
 21
183.91300000000001
 31
0.0
  0
LINE
  5
20B
  8
0
 62
     7
 10
109.721
 20
183.24600000000001
 30
0.0
 11
109.721
 21
182.66200000000001
 31
0.0
  0
LINE
  5
20C
  8
0
 62
     7
 10
109.63800000000001
 20
182.58000000000001
 30
0.0
 11
109.63800000000001
 21
183.91300000000001
 31
0.0
  0
LINE
  5
20D
  8
0
 62
     7
 10
107.221
 20
182.49600000000001
 30
0.0
 11
107.30500000000001
 21
182.41300000000001
 31
0.0
  0
LINE
  5
20E
  8
0
 62
     7
 10
107.471
 20
182.32900000000001
 30
0.0
 11
107.471
 21
182.41300000000001
 31
0.0
  0
ARC
  5
20F
  8
0
 62
     7
 10
107.557761
 20
182.332494
 30
0.0
 40
0.086357
 50
182.176908
 51
268.06037099999998
  0
LINE
  5
210
  8
0
 62
     7
 10
107.55500000000001
 20
182.2459999999999
 30
0.0
 11
108.471
 21
182.2459999999999
 31
0.0
  0
LINE
  5
211
  8
0
 62
     7
 10
107.30500000000001
 20
182.41300000000001
 30
0.0
 11
108.471
 21
182.41300000000001
 31
0.0
  0
LINE
  5
212
  8
0
 62
     7
 10
109.30500000000001
 20
184.74600000000001
 30
0.0
 11
108.88800000000001
 21
184.74600000000001
 31
0.0
  0
LINE
  5
213
  8
0
 62
     7
 10
109.505
 20
184.53800000000001
 30
0.0
 11
109.38800000000001
 21
184.53800000000001
 31
0.0
  0
ARC
  5
214
  8
0
 62
     7
 10
109.39097099999999
 20
184.45189999999999
 30
0.0
 40
0.086043
 50
92.218226999999999
 51
178.493482
  0
LINE
  5
215
  8
0
 62
     7
 10
108.88800000000001
 20
189.9129999999999
 30
0.0
 11
108.88800000000001
 21
180.16200000000001
 31
0.0
  0
LINE
  5
216
  8
0
 62
     7
 10
108.471
 20
180.16200000000001
 30
0.0
 11
108.471
 21
189.9129999999999
 31
0.0
  0
LINE
  5
217
  8
0
 62
     7
 10
107.30500000000001
 20
187.41200000000001
 30
0.0
 11
107.30500000000001
 21
182.41300000000001
 31
0.0
  0
LINE
  5
218
  8
0
 62
     7
 10
107.221
 20
182.49600000000001
 30
0.0
 11
107.221
 21
187.32900000000001
 31
0.0
  0
LINE
  5
219
  8
0
 62
     7
 10
109.30500000000001
 20
185.58000000000001
 30
0.0
 11
109.30500000000001
 21
184.74600000000001
 31
0.0
  0
LINE
  5
21A
  8
0
 62
     7
 10
94.804100000000005
 20
185.745
 30
0.0
 11
94.804100000000005
 21
186.99600000000001
 31
0.0
  0
ARC
  5
21B
  8
0
 62
     7
 10
95.047381000000001
 20
185.5725149999999
 30
0.0
 40
0.173013
 50
2.0315979999999989
 51
87.731142000000006
  0
LINE
  5
21C
  8
0
 62
     7
 10
95.054199999999994
 20
185.745
 30
0.0
 11
94.441699999999983
 21
185.745
 31
0.0
  0
LINE
  5
21D
  8
0
 62
     7
 10
90.137999999999991
 20
185.745
 30
0.0
 11
90.137999999999991
 21
186.99600000000001
 31
0.0
  0
LINE
  5
21E
  8
0
 62
     7
 10
94.804100000000005
 20
180.745
 30
0.0
 11
94.804100000000005
 21
182.078
 31
0.0
  0
LINE
  5
21F
  8
0
 62
     7
 10
95.304299999999998
 20
180.41200000000001
 30
0.0
 11
95.137600000000006
 21
180.41200000000001
 31
0.0
  0
ARC
  5
220
  8
0
 62
     7
 10
95.150751
 20
180.7584699999999
 30
0.0
 40
0.346886
 50
182.172371
 51
267.82765899999998
  0
ARC
  5
221
  8
0
 62
     7
 10
95.298172999999991
 20
180.23891699999999
 30
0.0
 40
0.173027
 50
2.0446049999999989
 51
87.955384999999993
  0
LINE
  5
222
  8
0
 62
     7
 10
95.220299999999995
 20
182.41200000000001
 30
0.0
 11
95.137600000000006
 21
182.41200000000001
 31
0.0
  0
ARC
  5
223
  8
0
 62
     7
 10
95.149966000000006
 20
182.066045
 30
0.0
 40
0.346072
 50
92.047434999999993
 51
177.95253500000001
  0
LINE
  5
224
  8
0
 62
     7
 10
90.137999999999991
 20
180.745
 30
0.0
 11
90.137999999999991
 21
182.078
 31
0.0
  0
LINE
  5
225
  8
0
 62
     7
 10
89.804599999999979
 20
180.41200000000001
 30
0.0
 11
92.471100000000007
 21
180.41200000000001
 31
0.0
  0
ARC
  5
226
  8
0
 62
     7
 10
89.643975999999995
 20
180.23821599999999
 30
0.0
 40
0.173727
 50
92.031556000000023
 51
177.73214299999989
  0
LINE
  5
227
  8
0
 62
     7
 10
89.804599999999979
 20
180.41200000000001
 30
0.0
 11
89.637799999999984
 21
180.41200000000001
 31
0.0
  0
ARC
  5
228
  8
0
 62
     7
 10
89.791411999999994
 20
180.7584699999999
 30
0.0
 40
0.346886
 50
272.17236100000002
 51
357.82764900000001
  0
ARC
  5
229
  8
0
 62
     7
 10
89.791805000000011
 20
182.065653
 30
0.0
 40
0.346478
 50
2.109893
 51
87.890096999999983
  0
LINE
  5
22A
  8
0
 62
     7
 10
95.137600000000006
 20
180.41200000000001
 30
0.0
 11
92.471100000000007
 21
180.41200000000001
 31
0.0
  0
LINE
  5
22B
  8
0
 62
     7
 10
95.220299999999995
 20
182.41200000000001
 30
0.0
 11
95.220299999999995
 21
185.57900000000001
 31
0.0
  0
LINE
  5
22C
  8
0
 62
     7
 10
89.721199999999996
 20
183.321
 30
0.0
 11
89.721199999999996
 21
185.36199999999999
 31
0.0
  0
ARC
  5
22D
  8
0
 62
     7
 10
81.957953000000003
 20
185.39914899999999
 30
0.0
 40
0.346478
 50
2.109893
 51
87.890096999999983
  0
ARC
  5
22E
  8
0
 62
     7
 10
80.207843999999994
 20
188.82878700000001
 30
0.0
 40
0.346466
 50
2.1059380000000001
 51
87.834831999999992
  0
ARC
  5
22F
  8
0
 62
     7
 10
78.733303000000006
 20
188.82950199999999
 30
0.0
 40
0.345725
 50
92.051072999999988
 51
178.008118
  0
ARC
  5
230
  8
0
 62
     7
 10
80.900319999999994
 20
186.09129100000001
 30
0.0
 40
0.346478
 50
182.10989599999999
 51
267.89013399999999
  0
LINE
  5
231
  8
0
 62
     7
 10
80.554100000000005
 20
186.07900000000001
 30
0.0
 11
80.554100000000005
 21
188.84200000000001
 31
0.0
  0
LINE
  5
232
  8
0
 62
     7
 10
78.3874
 20
186.07900000000001
 30
0.0
 11
78.3874
 21
188.84200000000001
 31
0.0
  0
ARC
  5
233
  8
0
 62
     7
 10
78.041930000000008
 20
186.09054699999999
 30
0.0
 40
0.345721
 50
272.05039399999998
 51
358.00883599999997
  0
ARC
  5
234
  8
0
 62
     7
 10
76.983183999999994
 20
185.39988799999989
 30
0.0
 40
0.345725
 50
92.051072999999988
 51
178.008118
  0
LINE
  5
235
  8
0
 62
     7
 10
76.637699999999995
 20
182.91200000000001
 30
0.0
 11
76.637699999999995
 21
185.41200000000001
 31
0.0
  0
LINE
  5
236
  8
0
 62
     7
 10
82.304199999999994
 20
182.91200000000001
 30
0.0
 11
82.304199999999994
 21
185.41200000000001
 31
0.0
  0
ARC
  5
237
  8
0
 62
     7
 10
92.586911999999984
 20
186.94544300000001
 30
0.0
 40
2.4242400000000002
 50
113.894091
 51
199.66788700000001
  0
ARC
  5
238
  8
0
 62
     7
 10
92.490468000000007
 20
187.00841
 30
0.0
 40
2.3564029999999989
 50
201.89942600000001
 51
224.359319
  0
ARC
  5
239
  8
0
 62
     7
 10
92.470600000000005
 20
186.99545000000001
 30
0.0
 40
2.3338290000000002
 50
315.54368699999998
 51
45.532932000000002
  0
ARC
  5
23A
  8
0
 62
     7
 10
92.466104999999999
 20
186.98634000000001
 30
0.0
 40
2.3434810000000001
 50
45.610529999999997
 51
68.179315000000003
  0
ARC
  5
23B
  8
0
 62
     7
 10
66.586508999999992
 20
186.9457459999999
 30
0.0
 40
2.4239220000000001
 50
113.89478200000001
 51
199.678192
  0
ARC
  5
23C
  8
0
 62
     7
 10
66.479631999999995
 20
187.00055900000001
 30
0.0
 40
2.3433820000000001
 50
201.82053999999999
 51
224.402176
  0
ARC
  5
23D
  8
0
 62
     7
 10
66.470299999999995
 20
186.99545000000001
 30
0.0
 40
2.3338290000000002
 50
315.54368699999998
 51
45.532932000000002
  0
ARC
  5
23E
  8
0
 62
     7
 10
66.469184999999996
 20
186.991524
 30
0.0
 40
2.3374130000000002
 50
45.580847999999982
 51
68.208995999999999
  0
LINE
  5
23F
  8
0
 62
     7
 10
68.803799999999995
 20
185.745
 30
0.0
 11
68.803799999999995
 21
186.99600000000001
 31
0.0
  0
ARC
  5
240
  8
0
 62
     7
 10
63.894264999999997
 20
185.57203000000001
 30
0.0
 40
0.173502
 50
92.304526999999993
 51
177.81394499999999
  0
LINE
  5
241
  8
0
 62
     7
 10
63.887300000000003
 20
185.745
 30
0.0
 11
64.500500000000002
 21
185.745
 31
0.0
  0
LINE
  5
242
  8
0
 62
     7
 10
64.137699999999995
 20
185.745
 30
0.0
 11
64.137699999999995
 21
186.99600000000001
 31
0.0
  0
LINE
  5
243
  8
0
 62
     7
 10
65.604699999999994
 20
189.16200000000001
 30
0.0
 11
67.3369
 21
189.16200000000001
 31
0.0
  0
LINE
  5
244
  8
0
 62
     7
 10
63.7209
 20
182.41200000000001
 30
0.0
 11
63.803899999999999
 21
182.41200000000001
 31
0.0
  0
LINE
  5
245
  8
0
 62
     7
 10
68.803799999999995
 20
180.745
 30
0.0
 11
68.803799999999995
 21
182.078
 31
0.0
  0
LINE
  5
246
  8
0
 62
     7
 10
69.137600000000006
 20
180.41200000000001
 30
0.0
 11
69.304000000000002
 21
180.41200000000001
 31
0.0
  0
ARC
  5
247
  8
0
 62
     7
 10
69.150069999999999
 20
180.75810100000001
 30
0.0
 40
0.34649
 50
182.11385300000001
 51
267.94533699999999
  0
LINE
  5
248
  8
0
 62
     7
 10
64.137699999999995
 20
180.745
 30
0.0
 11
64.137699999999995
 21
182.078
 31
0.0
  0
LINE
  5
249
  8
0
 62
     7
 10
63.637500000000003
 20
180.41200000000001
 30
0.0
 11
63.803899999999999
 21
180.41200000000001
 31
0.0
  0
ARC
  5
24A
  8
0
 62
     7
 10
63.64370799999999
 20
180.238899
 30
0.0
 40
0.173046
 50
92.050303999999997
 51
177.94966599999989
  0
ARC
  5
24B
  8
0
 62
     7
 10
63.790781000000003
 20
180.758814
 30
0.0
 40
0.347229
 50
272.16788300000002
 51
357.77296799999999
  0
LINE
  5
24C
  8
0
 62
     7
 10
64.137699999999995
 20
180.41200000000001
 30
0.0
 11
66.470799999999997
 21
180.41200000000001
 31
0.0
  0
LINE
  5
24D
  8
0
 62
     7
 10
68.803799999999995
 20
180.41200000000001
 30
0.0
 11
66.470799999999997
 21
180.41200000000001
 31
0.0
  0
ARC
  5
24E
  8
0
 62
     7
 10
63.791493000000003
 20
182.065629
 30
0.0
 40
0.346491
 50
2.1138499999999989
 51
87.945299000000006
  0
ARC
  5
24F
  8
0
 62
     7
 10
69.149996999999999
 20
182.06570199999999
 30
0.0
 40
0.346415
 50
92.043090000000007
 51
177.89772099999999
  0
ARC
  5
250
  8
0
 62
     7
 10
69.297481999999974
 20
180.238527
 30
0.0
 40
0.173431
 50
2.1688740000000002
 51
87.831116000000009
  0
LINE
  5
251
  8
0
 62
     7
 10
63.7209
 20
182.41200000000001
 30
0.0
 11
73.736500000000007
 21
182.41200000000001
 31
0.0
  0
LINE
  5
252
  8
0
 62
     7
 10
69.221000000000004
 20
183.321
 30
0.0
 11
69.221000000000004
 21
185.36199999999999
 31
0.0
  0
LINE
  5
253
  8
0
 62
     7
 10
63.7209
 20
182.41200000000001
 30
0.0
 11
63.7209
 21
185.57900000000001
 31
0.0
  0
LINE
  5
254
  8
0
 62
     7
 10
66.470799999999997
 20
182.91200000000001
 30
0.0
 11
79.137799999999999
 21
182.91200000000001
 31
0.0
  0
LINE
  5
255
  8
0
 62
     7
 10
73.736500000000007
 20
182.41200000000001
 30
0.0
 11
79.137799999999999
 21
182.41200000000001
 31
0.0
  0
LINE
  5
256
  8
0
 62
     7
 10
68.441000000000003
 20
185.745
 30
0.0
 11
78.054299999999998
 21
185.745
 31
0.0
  0
LINE
  5
257
  8
0
 62
     7
 10
76.970799999999997
 20
189.82900000000001
 30
0.0
 11
105.13800000000001
 21
189.82900000000001
 31
0.0
  0
LINE
  5
258
  8
0
 62
     7
 10
76.970799999999997
 20
190.2459999999999
 30
0.0
 11
105.13800000000001
 21
190.2459999999999
 31
0.0
  0
LINE
  5
259
  8
0
 62
     7
 10
92.471100000000007
 20
182.91200000000001
 30
0.0
 11
79.804400000000001
 21
182.91200000000001
 31
0.0
  0
LINE
  5
25A
  8
0
 62
     7
 10
95.220299999999995
 20
182.41200000000001
 30
0.0
 11
79.804400000000001
 21
182.41200000000001
 31
0.0
  0
LINE
  5
25B
  8
0
 62
     7
 10
90.500500000000002
 20
185.745
 30
0.0
 11
80.887600000000006
 21
185.745
 31
0.0
  0
LINE
  5
25C
  8
0
 62
     7
 10
94.929500000000004
 20
178.92500000000001
 30
0.0
 11
95.096299999999985
 21
178.75800000000001
 31
0.0
  0
LINE
  5
25D
  8
0
 62
     7
 10
90.012600000000006
 20
178.92500000000001
 30
0.0
 11
89.8459
 21
178.75800000000001
 31
0.0
  0
LINE
  5
25E
  8
0
 62
     7
 10
95.471100000000007
 20
178.92500000000001
 30
0.0
 11
89.470399999999984
 21
178.92500000000001
 31
0.0
  0
LINE
  5
25F
  8
0
 62
     7
 10
89.8459
 20
178.75800000000001
 30
0.0
 11
95.096299999999985
 21
178.75800000000001
 31
0.0
  0
LINE
  5
260
  8
0
 62
     7
 10
76.637699999999995
 20
178.92500000000001
 30
0.0
 11
82.304199999999994
 21
178.92500000000001
 31
0.0
  0
LINE
  5
261
  8
0
 62
     7
 10
68.929199999999994
 20
179.07900000000001
 30
0.0
 11
69.095600000000005
 21
178.91200000000001
 31
0.0
  0
LINE
  5
262
  8
0
 62
     7
 10
64.012299999999996
 20
179.07900000000001
 30
0.0
 11
63.8459
 21
178.91200000000001
 31
0.0
  0
LINE
  5
263
  8
0
 62
     7
 10
69.095600000000005
 20
178.91200000000001
 30
0.0
 11
63.8459
 21
178.91200000000001
 31
0.0
  0
LINE
  5
264
  8
0
 62
     7
 10
69.470799999999997
 20
179.07900000000001
 30
0.0
 11
63.470799999999997
 21
179.07900000000001
 31
0.0
  0
ARC
  5
265
  8
0
 62
     7
 10
109.650874
 20
179.67529400000001
 30
0.0
 40
0.346164
 50
182.17170300000001
 51
267.828327
  0
ARC
  5
266
  8
0
 62
     7
 10
109.666731
 20
179.69115099999999
 30
0.0
 40
0.7791710000000001
 50
182.13116199999999
 51
267.86886700000002
  0
LINE
  5
267
  8
0
 62
     7
 10
63.470799999999997
 20
179.07900000000001
 30
0.0
 11
63.470799999999997
 21
180.245
 31
0.0
  0
LINE
  5
268
  8
0
 62
     7
 10
69.470799999999997
 20
179.07900000000001
 30
0.0
 11
69.470799999999997
 21
180.245
 31
0.0
  0
LINE
  5
269
  8
0
 62
     7
 10
76.637699999999995
 20
182.41200000000001
 30
0.0
 11
76.637699999999995
 21
178.92500000000001
 31
0.0
  0
LINE
  5
26A
  8
0
 62
     7
 10
82.304199999999994
 20
178.92500000000001
 30
0.0
 11
82.304199999999994
 21
182.41200000000001
 31
0.0
  0
LINE
  5
26B
  8
0
 62
     7
 10
89.470399999999984
 20
178.92500000000001
 30
0.0
 11
89.470399999999984
 21
180.245
 31
0.0
  0
LINE
  5
26C
  8
0
 62
     7
 10
95.471100000000007
 20
178.92500000000001
 30
0.0
 11
95.471100000000007
 21
180.245
 31
0.0
  0
LINE
  5
26D
  8
0
 62
     7
 10
109.63800000000001
 20
179.32900000000001
 30
0.0
 11
120.55500000000001
 21
179.32900000000001
 31
0.0
  0
LINE
  5
26E
  8
0
 62
     7
 10
120.55500000000001
 20
178.91300000000001
 30
0.0
 11
109.63800000000001
 21
178.91300000000001
 31
0.0
  0
LINE
  5
26F
  8
0
 62
     7
 10
53.804099999999998
 20
110.92700000000001
 30
0.0
 11
52.971099999999993
 21
110.92700000000001
 31
0.0
  0
ARC
  5
270
  8
0
 62
     7
 10
53.835781999999988
 20
110.06257100000001
 30
0.0
 40
0.8652719999999998
 50
92.097110999999984
 51
177.90285900000001
  0
ARC
  5
271
  8
0
 62
     7
 10
55.467447
 20
110.093401
 30
0.0
 40
0.8371389999999999
 50
0.05701
 51
26.057921
  0
LINE
  5
272
  8
0
 62
     7
 10
52.971099999999993
 20
106.652
 30
0.0
 11
52.971099999999993
 21
107.122
 31
0.0
  0
LINE
  5
273
  8
0
 62
     7
 10
52.971099999999993
 20
107.497
 30
0.0
 11
52.971099999999993
 21
107.122
 31
0.0
  0
LINE
  5
274
  8
0
 62
     7
 10
52.971099999999993
 20
107.497
 30
0.0
 11
52.971099999999993
 21
107.732
 31
0.0
  0
LINE
  5
275
  8
0
 62
     7
 10
54.979199999999999
 20
109.68300000000001
 30
0.0
 11
54.514499999999998
 21
109.809
 31
0.0
  0
LINE
  5
276
  8
0
 62
     7
 10
55.101900000000001
 20
109.218
 30
0.0
 11
54.979199999999999
 21
109.68300000000001
 31
0.0
  0
LINE
  5
277
  8
0
 62
     7
 10
54.761200000000002
 20
108.879
 30
0.0
 11
55.101900000000001
 21
109.218
 31
0.0
  0
LINE
  5
278
  8
0
 62
     7
 10
54.173400000000001
 20
109.47
 30
0.0
 11
54.296399999999998
 21
109.005
 31
0.0
  0
LINE
  5
279
  8
0
 62
     7
 10
54.514499999999998
 20
109.809
 30
0.0
 11
54.173400000000001
 21
109.47
 31
0.0
  0
LINE
  5
27A
  8
0
 62
     7
 10
54.296399999999998
 20
109.005
 30
0.0
 11
54.761200000000002
 21
108.879
 31
0.0
  0
ARC
  5
27B
  8
0
 62
     7
 10
57.164306000000003
 20
108.650884
 30
0.0
 40
0.7107060000000001
 50
92.096761999999998
 51
177.84547900000001
  0
ARC
  5
27C
  8
0
 62
     7
 10
57.163672999999989
 20
108.703687
 30
0.0
 40
0.7100489999999999
 50
182.10531399999999
 51
267.95244500000001
  0
ARC
  5
27D
  8
0
 62
     7
 10
57.112233999999987
 20
108.702956
 30
0.0
 40
0.709344
 50
272.10614600000002
 51
357.95164999999997
  0
ARC
  5
27E
  8
0
 62
     7
 10
57.111601
 20
108.65161500000001
 30
0.0
 40
0.7100010000000001
 50
2.097586999999999
 51
87.844616000000002
  0
ARC
  5
27F
  8
0
 62
     7
 10
54.677491000000003
 20
109.304247
 30
0.0
 40
1.082182999999999
 50
92.118156000000013
 51
177.90076500000001
  0
ARC
  5
280
  8
0
 62
     7
 10
54.677122999999987
 20
109.383876
 30
0.0
 40
1.081828
 50
182.118336
 51
267.90064999999998
  0
ARC
  5
281
  8
0
 62
     7
 10
54.597560999999992
 20
109.38489300000001
 30
0.0
 40
1.082856
 50
272.11334399999998
 51
357.82981599999999
  0
ARC
  5
282
  8
0
 62
     7
 10
54.597842000000007
 20
109.30387899999999
 30
0.0
 40
1.082538999999999
 50
2.1180330000000001
 51
87.900901000000005
  0
ARC
  5
283
  8
0
 62
     7
 10
54.669170999999992
 20
109.312209
 30
0.0
 40
0.8656319999999999
 50
92.097244999999987
 51
177.902726
  0
ARC
  5
284
  8
0
 62
     7
 10
54.669215000000001
 20
109.375968
 30
0.0
 40
0.8656909999999999
 50
182.12371899999991
 51
267.90000199999997
  0
ARC
  5
285
  8
0
 62
     7
 10
54.605856999999993
 20
109.376239
 30
0.0
 40
0.865958
 50
272.09362599999997
 51
357.85901200000001
  0
ARC
  5
286
  8
0
 62
     7
 10
54.605765000000012
 20
109.311803
 30
0.0
 40
0.8660399999999999
 50
2.123184999999999
 51
87.900486000000001
  0
LINE
  5
287
  8
0
 62
     7
 10
52.971099999999993
 20
110.09399999999999
 30
0.0
 11
52.971099999999993
 21
107.732
 31
0.0
  0
ARC
  5
288
  8
0
 62
     7
 10
56.321772000000003
 20
109.993331
 30
0.0
 40
0.4760430000000001
 50
92.069052999999997
 51
177.93091699999999
  0
ARC
  5
289
  8
0
 62
     7
 10
56.321486999999998
 20
110.02813500000001
 30
0.0
 40
0.475773
 50
182.122016
 51
267.96417300000002
  0
ARC
  5
28A
  8
0
 62
     7
 10
56.28742299999999
 20
110.028037
 30
0.0
 40
0.475685
 50
272.06758600000001
 51
357.88932799999998
  0
ARC
  5
28B
  8
0
 62
     7
 10
56.28666299999999
 20
109.992954
 30
0.0
 40
0.4764470000000001
 50
2.112693999999999
 51
87.844233000000003
  0
LINE
  5
28C
  8
0
 62
     7
 10
56.304600000000001
 20
109.553
 30
0.0
 11
56.304600000000001
 21
110.09399999999999
 31
0.0
  0
LINE
  5
28D
  8
0
 62
     7
 10
50.971499999999999
 20
110.92700000000001
 30
0.0
 11
39.637500000000003
 21
110.92700000000001
 31
0.0
  0
ARC
  5
28E
  8
0
 62
     7
 10
40.455339000000002
 20
105.495019
 30
0.0
 40
0.432636
 50
2.0971380000000002
 51
87.902851999999996
  0
ARC
  5
28F
  8
0
 62
     7
 10
40.486992999999998
 20
105.49467
 30
0.0
 40
0.4329840000000001
 50
92.094228999999984
 51
177.85837000000001
  0
ARC
  5
290
  8
0
 62
     7
 10
43.788822999999987
 20
105.49499400000001
 30
0.0
 40
0.432649
 50
2.1003080000000001
 51
87.947054000000009
  0
ARC
  5
291
  8
0
 62
     7
 10
43.820152999999998
 20
105.495019
 30
0.0
 40
0.432636
 50
92.097110999999984
 51
177.90285900000001
  0
LINE
  5
292
  8
0
 62
     7
 10
43.804299999999991
 20
109.67700000000001
 30
0.0
 11
40.471200000000003
 21
109.67700000000001
 31
0.0
  0
LINE
  5
293
  8
0
 62
     7
 10
40.471200000000003
 20
108.84399999999999
 30
0.0
 11
43.804299999999991
 21
108.84399999999999
 31
0.0
  0
ARC
  5
294
  8
0
 62
     7
 10
40.487017000000002
 20
109.244669
 30
0.0
 40
0.432996
 50
92.097378000000006
 51
177.902592
  0
ARC
  5
295
  8
0
 62
     7
 10
40.486711999999997
 20
109.27677300000001
 30
0.0
 40
0.4327069999999999
 50
182.15318099999999
 51
267.94163099999997
  0
ARC
  5
296
  8
0
 62
     7
 10
43.788527999999992
 20
109.27702499999999
 30
0.0
 40
0.4329670000000001
 50
272.09046000000001
 51
357.81476700000002
  0
ARC
  5
297
  8
0
 62
     7
 10
43.788474999999998
 20
109.244669
 30
0.0
 40
0.432996
 50
2.0974049999999989
 51
87.902585000000002
  0
ARC
  5
298
  8
0
 62
     7
 10
52.009543000000001
 20
110.96547700000001
 30
0.0
 40
1.038702
 50
182.10835399999999
 51
267.87192900000002
  0
ARC
  5
299
  8
0
 62
     7
 10
51.932355999999999
 20
110.96623700000001
 30
0.0
 40
1.0394639999999991
 50
272.12901799999997
 51
357.85125199999999
  0
ARC
  5
29A
  8
0
 62
     7
 10
56.330596999999997
 20
102.98470399999999
 30
0.0
 40
0.710013
 50
92.099508000000014
 51
177.871576
  0
ARC
  5
29B
  8
0
 62
     7
 10
56.330621000000001
 20
103.037109
 30
0.0
 40
0.710024
 50
182.101451
 51
267.89857799999999
  0
ARC
  5
29C
  8
0
 62
     7
 10
56.278516000000003
 20
103.036427
 30
0.0
 40
0.709344
 50
272.10614600000002
 51
357.95164999999997
  0
ARC
  5
29D
  8
0
 62
     7
 10
56.278210999999999
 20
102.985057
 30
0.0
 40
0.709673
 50
2.100884999999999
 51
87.870204999999999
  0
LINE
  5
29E
  8
0
 62
     7
 10
56.304600000000001
 20
102.328
 30
0.0
 11
56.304600000000001
 21
103.694
 31
0.0
  0
LINE
  5
29F
  8
0
 62
     7
 10
52.971099999999993
 20
98.899000000000001
 30
0.0
 11
52.971099999999993
 21
99.3703
 31
0.0
  0
LINE
  5
2A0
  8
0
 62
     7
 10
52.971099999999993
 20
98.524799999999985
 30
0.0
 11
52.971099999999993
 21
98.899000000000001
 31
0.0
  0
LINE
  5
2A1
  8
0
 62
     7
 10
52.971099999999993
 20
98.289199999999994
 30
0.0
 11
52.971099999999993
 21
98.524799999999985
 31
0.0
  0
ARC
  5
2A2
  8
0
 62
     7
 10
54.663499000000002
 20
101.651449
 30
0.0
 40
0.7096630000000002
 50
92.100109000000018
 51
177.87096
  0
ARC
  5
2A3
  8
0
 62
     7
 10
54.664211000000002
 20
101.70381500000001
 30
0.0
 40
0.710361
 50
182.09775500000001
 51
267.844517
  0
ARC
  5
2A4
  8
0
 62
     7
 10
54.611446999999998
 20
101.70385899999999
 30
0.0
 40
0.71038
 50
272.10124000000002
 51
357.89877000000001
  0
ARC
  5
2A5
  8
0
 62
     7
 10
54.612467000000002
 20
101.651715
 30
0.0
 40
0.7093620000000001
 50
2.108452999999999
 51
87.978195999999997
  0
LINE
  5
2A6
  8
0
 62
     7
 10
54.173400000000001
 20
96.803299999999993
 30
0.0
 11
54.296399999999998
 21
96.3386
 31
0.0
  0
LINE
  5
2A7
  8
0
 62
     7
 10
55.101900000000001
 20
96.551500000000004
 30
0.0
 11
54.979199999999999
 21
97.016599999999997
 31
0.0
  0
ARC
  5
2A8
  8
0
 62
     7
 10
54.677491000000003
 20
96.637929
 30
0.0
 40
1.082182999999999
 50
92.118156000000013
 51
177.90076500000001
  0
ARC
  5
2A9
  8
0
 62
     7
 10
54.677810000000001
 20
96.717529000000013
 30
0.0
 40
1.0825139999999991
 50
182.11550299999999
 51
267.86557599999998
  0
ARC
  5
2AA
  8
0
 62
     7
 10
54.597512000000002
 20
96.717907999999994
 30
0.0
 40
1.082879999999999
 50
272.11587500000002
 51
357.86519099999998
  0
ARC
  5
2AB
  8
0
 62
     7
 10
54.597831999999997
 20
96.637551000000016
 30
0.0
 40
1.0825489999999991
 50
2.1185459999999989
 51
87.900388000000007
  0
ARC
  5
2AC
  8
0
 62
     7
 10
54.669147000000002
 20
96.645557999999994
 30
0.0
 40
0.86562
 50
92.095660999999993
 51
177.880619
  0
ARC
  5
2AD
  8
0
 62
     7
 10
54.669215000000001
 20
96.709649999999996
 30
0.0
 40
0.8656909999999999
 50
182.12371899999991
 51
267.90000199999997
  0
ARC
  5
2AE
  8
0
 62
     7
 10
54.605856999999993
 20
96.709920999999994
 30
0.0
 40
0.865958
 50
272.09362599999997
 51
357.85901200000001
  0
ARC
  5
2AF
  8
0
 62
     7
 10
54.606104000000002
 20
96.645465000000002
 30
0.0
 40
0.865703
 50
2.125281999999999
 51
87.922079999999994
  0
LINE
  5
2B0
  8
0
 62
     7
 10
53.804099999999998
 20
95.094200000000001
 30
0.0
 11
52.971099999999993
 21
95.094200000000001
 31
0.0
  0
ARC
  5
2B1
  8
0
 62
     7
 10
53.836174
 20
95.959279000000009
 30
0.0
 40
0.865679
 50
182.12213600000001
 51
267.87789400000003
  0
ARC
  5
2B2
  8
0
 62
     7
 10
55.461267000000007
 20
95.929835999999995
 30
0.0
 40
0.8433219999999998
 50
334.0389009999999
 51
359.82246700000002
  0
LINE
  5
2B3
  8
0
 62
     7
 10
54.761200000000002
 20
96.212100000000007
 30
0.0
 11
55.101900000000001
 21
96.551500000000004
 31
0.0
  0
LINE
  5
2B4
  8
0
 62
     7
 10
54.296399999999998
 20
96.3386
 30
0.0
 11
54.761200000000002
 21
96.212100000000007
 31
0.0
  0
LINE
  5
2B5
  8
0
 62
     7
 10
56.304600000000001
 20
95.927199999999985
 30
0.0
 11
56.304600000000001
 21
96.469099999999997
 31
0.0
  0
ARC
  5
2B6
  8
0
 62
     7
 10
56.321772000000003
 20
95.993408000000002
 30
0.0
 40
0.4760430000000001
 50
92.069052999999997
 51
177.93091699999999
  0
ARC
  5
2B7
  8
0
 62
     7
 10
56.321477000000002
 20
96.028202000000007
 30
0.0
 40
0.475763
 50
182.12084999999999
 51
267.96533899999997
  0
ARC
  5
2B8
  8
0
 62
     7
 10
56.28742299999999
 20
96.028114000000002
 30
0.0
 40
0.475685
 50
272.06758600000001
 51
357.88932799999998
  0
ARC
  5
2B9
  8
0
 62
     7
 10
56.286673
 20
95.993041000000005
 30
0.0
 40
0.476436
 50
2.1115300000000001
 51
87.845395999999994
  0
LINE
  5
2BA
  8
0
 62
     7
 10
54.979199999999999
 20
97.016599999999997
 30
0.0
 11
54.514499999999998
 21
97.142300000000006
 31
0.0
  0
LINE
  5
2BB
  8
0
 62
     7
 10
54.514499999999998
 20
97.142300000000006
 30
0.0
 11
54.173400000000001
 21
96.803299999999993
 31
0.0
  0
ARC
  5
2BC
  8
0
 62
     7
 10
57.164281999999993
 20
97.317148000000003
 30
0.0
 40
0.7106940000000001
 50
92.094832999999994
 51
177.818522
  0
ARC
  5
2BD
  8
0
 62
     7
 10
57.163334999999996
 20
97.370303000000007
 30
0.0
 40
0.7097120000000001
 50
182.10785000000001
 51
267.97879499999999
  0
ARC
  5
2BE
  8
0
 62
     7
 10
57.112258999999987
 20
97.369887000000006
 30
0.0
 40
0.709332
 50
272.10421300000002
 51
357.92469699999998
  0
ARC
  5
2BF
  8
0
 62
     7
 10
57.111948999999989
 20
97.318204000000009
 30
0.0
 40
0.709653
 50
2.0993539999999991
 51
87.871734999999987
  0
LINE
  5
2C0
  8
0
 62
     7
 10
52.971099999999993
 20
95.927199999999985
 30
0.0
 11
52.971099999999993
 21
98.289199999999994
 31
0.0
  0
ARC
  5
2C1
  8
0
 62
     7
 10
40.487051000000001
 20
100.52718900000001
 30
0.0
 40
0.433044
 50
182.14893699999999
 51
267.89846499999999
  0
ARC
  5
2C2
  8
0
 62
     7
 10
40.455343999999997
 20
100.526779
 30
0.0
 40
0.4326310000000001
 50
272.09652599999998
 51
357.90348399999999
  0
ARC
  5
2C3
  8
0
 62
     7
 10
43.820535
 20
100.527165
 30
0.0
 40
0.433032
 50
182.1457739999999
 51
267.85425600000002
  0
ARC
  5
2C4
  8
0
 62
     7
 10
43.788504000000003
 20
100.52712699999999
 30
0.0
 40
0.432979
 50
272.09362599999997
 51
357.85901200000001
  0
ARC
  5
2C5
  8
0
 62
     7
 10
40.486992999999998
 20
96.744760999999997
 30
0.0
 40
0.4329840000000001
 50
92.094228999999984
 51
177.85837000000001
  0
ARC
  5
2C6
  8
0
 62
     7
 10
40.48740999999999
 20
96.777180999999985
 30
0.0
 40
0.4334030000000001
 50
182.14738500000001
 51
267.852645
  0
ARC
  5
2C7
  8
0
 62
     7
 10
43.788478999999988
 20
96.776783999999992
 30
0.0
 40
0.432991
 50
272.09679299999999
 51
357.90321699999998
  0
ARC
  5
2C8
  8
0
 62
     7
 10
43.788822999999987
 20
96.745085000000003
 30
0.0
 40
0.432649
 50
2.1003080000000001
 51
87.947054000000009
  0
LINE
  5
2C9
  8
0
 62
     7
 10
43.804299999999991
 20
96.344099999999997
 30
0.0
 11
40.471200000000003
 21
96.344099999999997
 31
0.0
  0
LINE
  5
2CA
  8
0
 62
     7
 10
40.471200000000003
 20
97.177499999999995
 30
0.0
 11
43.804299999999991
 21
97.177499999999995
 31
0.0
  0
LINE
  5
2CB
  8
0
 62
     7
 10
50.971499999999999
 20
95.094200000000001
 30
0.0
 11
39.637500000000003
 21
95.094200000000001
 31
0.0
  0
ARC
  5
2CC
  8
0
 62
     7
 10
51.970971999999989
 20
95.094193999999973
 30
0.0
 40
1.0001180000000001
 50
0.00001
 51
89.999980000000008
  0
ARC
  5
2CD
  8
0
 62
     7
 10
52.009630000000001
 20
95.056252000000001
 30
0.0
 40
1.0387789999999999
 50
92.132714000000007
 51
177.906744
  0
LINE
  5
2CE
  8
0
 62
     7
 10
52.971099999999993
 20
106.652
 30
0.0
 11
52.971099999999993
 21
99.3703
 31
0.0
  0
LINE
  5
2CF
  8
0
 62
     7
 10
44.221200000000003
 20
100.511
 30
0.0
 11
44.221200000000003
 21
105.511
 31
0.0
  0
LINE
  5
2D0
  8
0
 62
     7
 10
43.387799999999991
 20
105.511
 30
0.0
 11
43.387799999999991
 21
100.511
 31
0.0
  0
LINE
  5
2D1
  8
0
 62
     7
 10
40.887700000000002
 20
100.511
 30
0.0
 11
40.887700000000002
 21
105.511
 31
0.0
  0
LINE
  5
2D2
  8
0
 62
     7
 10
40.054299999999991
 20
105.511
 30
0.0
 11
40.054299999999991
 21
100.511
 31
0.0
  0
LINE
  5
2D3
  8
0
 62
     7
 10
50.471299999999999
 20
110.92700000000001
 30
0.0
 11
50.471299999999999
 21
95.094200000000001
 31
0.0
  0
ARC
  5
2D4
  8
0
 62
     7
 10
54.663547000000001
 20
104.318637
 30
0.0
 40
0.709687
 50
92.103955000000013
 51
177.92490100000001
  0
ARC
  5
2D5
  8
0
 62
     7
 10
54.664211000000002
 20
104.37033599999999
 30
0.0
 40
0.710361
 50
182.09775500000001
 51
267.844517
  0
ARC
  5
2D6
  8
0
 62
     7
 10
54.611446999999998
 20
104.37038
 30
0.0
 40
0.71038
 50
272.10124000000002
 51
357.89877000000001
  0
ARC
  5
2D7
  8
0
 62
     7
 10
54.611780000000003
 20
104.318264
 30
0.0
 40
0.710047
 50
2.1041439999999989
 51
87.924717000000001
  0
LINE
  5
2D8
  8
0
 62
     7
 10
38.804099999999998
 20
95.927199999999985
 30
0.0
 11
38.804099999999998
 21
110.09399999999999
 31
0.0
  0
ARC
  5
2D9
  8
0
 62
     7
 10
39.669173999999998
 20
95.959303000000006
 30
0.0
 40
0.8656909999999999
 50
182.12371899999991
 51
267.90000199999997
  0
ARC
  5
2DA
  8
0
 62
     7
 10
39.669111000000001
 20
110.062218
 30
0.0
 40
0.865625
 50
92.095972000000003
 51
177.88030800000001
  0
LINE
  5
2DB
  8
0
 62
     7
 10
53.803800000000003
 20
190.2459999999999
 30
0.0
 11
53.803800000000003
 21
189.82900000000001
 31
0.0
  0
LINE
  5
2DC
  8
0
 62
     7
 10
52.970700000000001
 20
189.82900000000001
 30
0.0
 11
52.970700000000001
 21
190.2459999999999
 31
0.0
  0
LINE
  5
2DD
  8
0
 62
     7
 10
52.970700000000001
 20
189.73099999999999
 30
0.0
 11
52.970700000000001
 21
189.82900000000001
 31
0.0
  0
LINE
  5
2DE
  8
0
 62
     7
 10
52.970700000000001
 20
189.73099999999999
 30
0.0
 11
52.970700000000001
 21
189.357
 31
0.0
  0
LINE
  5
2DF
  8
0
 62
     7
 10
52.970700000000001
 20
189.16200000000001
 30
0.0
 11
52.970700000000001
 21
189.357
 31
0.0
  0
LINE
  5
2E0
  8
0
 62
     7
 10
53.803800000000003
 20
189.82900000000001
 30
0.0
 11
52.970700000000001
 21
189.82900000000001
 31
0.0
  0
LINE
  5
2E1
  8
0
 62
     7
 10
56.304200000000002
 20
190.2459999999999
 30
0.0
 11
55.4709
 21
190.2459999999999
 31
0.0
  0
LINE
  5
2E2
  8
0
 62
     7
 10
55.4709
 20
190.66300000000001
 30
0.0
 11
56.304200000000002
 21
190.66300000000001
 31
0.0
  0
LINE
  5
2E3
  8
0
 62
     7
 10
56.304200000000002
 20
190.66300000000001
 30
0.0
 11
56.304200000000002
 21
190.2459999999999
 31
0.0
  0
LINE
  5
2E4
  8
0
 62
     7
 10
52.970700000000001
 20
190.2459999999999
 30
0.0
 11
52.970700000000001
 21
190.66300000000001
 31
0.0
  0
LINE
  5
2E5
  8
0
 62
     7
 10
55.4709
 20
190.2459999999999
 30
0.0
 11
52.970700000000001
 21
190.2459999999999
 31
0.0
  0
LINE
  5
2E6
  8
0
 62
     7
 10
52.970700000000001
 20
190.66300000000001
 30
0.0
 11
55.4709
 21
190.66300000000001
 31
0.0
  0
LINE
  5
2E7
  8
0
 62
     7
 10
52.970700000000001
 20
190.2459999999999
 30
0.0
 11
53.803800000000003
 21
190.2459999999999
 31
0.0
  0
ARC
  5
2E8
  8
0
 62
     7
 10
50.83276
 20
189.88397000000001
 30
0.0
 40
0.779178
 50
92.132508999999999
 51
177.89378600000001
  0
ARC
  5
2E9
  8
0
 62
     7
 10
50.816134000000012
 20
189.90059500000001
 30
0.0
 40
0.345375
 50
92.052177
 51
178.00707499999999
  0
LINE
  5
2EA
  8
0
 62
     7
 10
50.971200000000003
 20
190.2459999999999
 30
0.0
 11
50.803800000000003
 21
190.2459999999999
 31
0.0
  0
LINE
  5
2EB
  8
0
 62
     7
 10
50.971200000000003
 20
190.66300000000001
 30
0.0
 11
50.971200000000003
 21
190.2459999999999
 31
0.0
  0
LINE
  5
2EC
  8
0
 62
     7
 10
50.803800000000003
 20
190.66300000000001
 30
0.0
 11
50.971200000000003
 21
190.66300000000001
 31
0.0
  0
LINE
  5
2ED
  8
0
 62
     7
 10
50.470999999999997
 20
189.9129999999999
 30
0.0
 11
50.470999999999997
 21
179.66200000000001
 31
0.0
  0
LINE
  5
2EE
  8
0
 62
     7
 10
50.054099999999998
 20
179.66200000000001
 30
0.0
 11
50.054099999999998
 21
189.9129999999999
 31
0.0
  0
LINE
  5
2EF
  8
0
 62
     7
 10
50.971200000000003
 20
190.2459999999999
 30
0.0
 11
52.970700000000001
 21
190.2459999999999
 31
0.0
  0
LINE
  5
2F0
  8
0
 62
     7
 10
50.971200000000003
 20
190.66300000000001
 30
0.0
 11
52.970700000000001
 21
190.66300000000001
 31
0.0
  0
LINE
  5
2F1
  8
0
 62
     7
 10
38.803699999999999
 20
179.32900000000001
 30
0.0
 11
49.72059999999999
 21
179.32900000000001
 31
0.0
  0
LINE
  5
2F2
  8
0
 62
     7
 10
49.72059999999999
 20
178.91300000000001
 30
0.0
 11
38.803699999999999
 21
178.91300000000001
 31
0.0
  0
LINE
  5
2F3
  8
0
 62
     7
 10
38.803699999999999
 20
178.91300000000001
 30
0.0
 11
38.803699999999999
 21
179.32900000000001
 31
0.0
  0
ARC
  5
2F4
  8
0
 62
     7
 10
49.691685
 20
179.69182900000001
 30
0.0
 40
0.7798470000000001
 50
272.12647900000002
 51
357.82089400000001
  0
ARC
  5
2F5
  8
0
 62
     7
 10
49.707521
 20
179.675994
 30
0.0
 40
0.346863
 50
272.16447299999999
 51
357.71703500000001
  0
LINE
  5
2F6
  8
0
 62
     7
 10
105.971
 20
189.16200000000001
 30
0.0
 11
52.970700000000001
 21
189.16200000000001
 31
0.0
  0
LINE
  5
2F7
  8
0
 62
     7
 10
53.803800000000003
 20
190.2459999999999
 30
0.0
 11
76.970799999999997
 21
190.2459999999999
 31
0.0
  0
LINE
  5
2F8
  8
0
 62
     7
 10
53.803800000000003
 20
189.82900000000001
 30
0.0
 11
76.970799999999997
 21
189.82900000000001
 31
0.0
  0
LINE
  5
2F9
  8
0
 62
     7
 10
53.804099999999998
 20
110.92700000000001
 30
0.0
 11
66.804599999999994
 21
110.92700000000001
 31
0.0
  0
LINE
  5
2FA
  8
0
 62
     7
 10
52.971099999999993
 20
98.524799999999985
 30
0.0
 11
64.138099999999994
 21
98.524799999999985
 31
0.0
  0
LINE
  5
2FB
  8
0
 62
     7
 10
52.971099999999993
 20
99.3703
 30
0.0
 11
63.044400000000003
 21
99.3703
 31
0.0
  0
LINE
  5
2FC
  8
0
 62
     7
 10
105.971
 20
107.497
 30
0.0
 11
94.6785
 21
107.497
 31
0.0
  0
LINE
  5
2FD
  8
0
 62
     7
 10
90.263299999999987
 20
107.497
 30
0.0
 11
81.679299999999998
 21
107.497
 31
0.0
  0
LINE
  5
2FE
  8
0
 62
     7
 10
77.261399999999995
 20
107.497
 30
0.0
 11
68.674999999999983
 21
107.497
 31
0.0
  0
LINE
  5
2FF
  8
0
 62
     7
 10
64.2697
 20
107.497
 30
0.0
 11
52.971099999999993
 21
107.497
 31
0.0
  0
LINE
  5
300
  8
0
 62
     7
 10
53.804099999999998
 20
95.094200000000001
 30
0.0
 11
64.138099999999994
 21
95.094200000000001
 31
0.0
  0
LINE
  5
301
  8
0
 62
     7
 10
105.971
 20
106.652
 30
0.0
 11
95.898300000000006
 21
106.652
 31
0.0
  0
LINE
  5
302
  8
0
 62
     7
 10
89.044399999999996
 20
106.652
 30
0.0
 11
82.8964
 21
106.652
 31
0.0
  0
LINE
  5
303
  8
0
 62
     7
 10
76.045599999999993
 20
106.652
 30
0.0
 11
69.897499999999994
 21
106.652
 31
0.0
  0
LINE
  5
304
  8
0
 62
     7
 10
63.044800000000002
 20
106.652
 30
0.0
 11
52.971099999999993
 21
106.652
 31
0.0
  0
LINE
  5
305
  8
0
  6
AIGENLINE001
 62
     7
 10
122.95999999999999
 20
103.011
 30
0.0
 11
36.998800000000003
 21
103.011
 31
0.0
  0
LINE
  5
306
  8
0
  6
AIGENLINE001
 62
     7
 10
79.4709
 20
110.946
 30
0.0
 11
79.4709
 21
90.585199999999986
 31
0.0
  0
LINE
  5
307
  8
0
 62
     7
 10
66.747100000000003
 20
87.001299999999986
 30
0.0
 11
68.221599999999995
 21
87.396399999999986
 31
0.0
  0
LINE
  5
308
  8
0
 62
     7
 10
68.221599999999995
 20
87.396399999999986
 30
0.0
 11
66.747100000000003
 21
87.791200000000003
 31
0.0
  0
LINE
  5
309
  8
0
 62
     7
 10
66.747100000000003
 20
87.791200000000003
 30
0.0
 11
66.747100000000003
 21
87.001299999999986
 31
0.0
  0
LINE
  5
30A
  8
0
 62
     7
 10
66.195899999999995
 20
87.784300000000002
 30
0.0
 11
64.721400000000003
 21
87.389200000000002
 31
0.0
  0
LINE
  5
30B
  8
0
 62
     7
 10
64.721400000000003
 20
87.389200000000002
 30
0.0
 11
66.195899999999995
 21
86.994
 31
0.0
  0
LINE
  5
30C
  8
0
 62
     7
 10
66.195899999999995
 20
86.994
 30
0.0
 11
66.195899999999995
 21
87.784300000000002
 31
0.0
  0
LINE
  5
30D
  8
0
 62
     7
 10
76.901399999999995
 20
87.389200000000002
 30
0.0
 11
64.721400000000003
 21
87.389200000000002
 31
0.0
  0
LINE
  5
30E
  8
0
 62
     7
 10
68.221599999999995
 20
87.039199999999994
 30
0.0
 11
68.221599999999995
 21
93.176000000000002
 31
0.0
  0
LINE
  5
30F
  8
0
 62
     7
 10
64.721400000000003
 20
87.039199999999994
 30
0.0
 11
64.721400000000003
 21
93.176000000000002
 31
0.0
  0
LINE
  5
310
  8
0
 62
     7
 10
92.747000000000014
 20
87.001299999999986
 30
0.0
 11
94.221500000000006
 21
87.396399999999986
 31
0.0
  0
LINE
  5
311
  8
0
 62
     7
 10
94.221500000000006
 20
87.396399999999986
 30
0.0
 11
92.747000000000014
 21
87.791200000000003
 31
0.0
  0
LINE
  5
312
  8
0
 62
     7
 10
92.747000000000014
 20
87.791200000000003
 30
0.0
 11
92.747000000000014
 21
87.001299999999986
 31
0.0
  0
LINE
  5
313
  8
0
 62
     7
 10
92.195800000000006
 20
87.784300000000002
 30
0.0
 11
90.721299999999985
 21
87.389200000000002
 31
0.0
  0
LINE
  5
314
  8
0
 62
     7
 10
90.721299999999985
 20
87.389200000000002
 30
0.0
 11
92.195800000000006
 21
86.994
 31
0.0
  0
LINE
  5
315
  8
0
 62
     7
 10
92.195800000000006
 20
86.994
 30
0.0
 11
92.195800000000006
 21
87.784300000000002
 31
0.0
  0
LINE
  5
316
  8
0
 62
     7
 10
102.902
 20
87.389200000000002
 30
0.0
 11
90.721299999999985
 21
87.389200000000002
 31
0.0
  0
LINE
  5
317
  8
0
 62
     7
 10
94.221500000000006
 20
87.039199999999994
 30
0.0
 11
94.221500000000006
 21
93.176000000000002
 31
0.0
  0
LINE
  5
318
  8
0
 62
     7
 10
90.721299999999985
 20
87.039199999999994
 30
0.0
 11
90.721299999999985
 21
93.176000000000002
 31
0.0
  0
LINE
  5
319
  8
0
  6
AIGENLINE001
 62
     7
 10
92.471399999999988
 20
108.291
 30
0.0
 11
92.471399999999988
 21
92.995400000000004
 31
0.0
  0
LINE
  5
31A
  8
0
 62
     7
 10
25.057400000000001
 20
109.453
 30
0.0
 11
24.662199999999999
 21
110.92700000000001
 31
0.0
  0
LINE
  5
31B
  8
0
 62
     7
 10
24.662199999999999
 20
110.92700000000001
 30
0.0
 11
24.267099999999999
 21
109.453
 31
0.0
  0
LINE
  5
31C
  8
0
 62
     7
 10
24.267099999999999
 20
109.453
 30
0.0
 11
25.057400000000001
 21
109.453
 31
0.0
  0
LINE
  5
31D
  8
0
 62
     7
 10
24.2746
 20
95.235399999999998
 30
0.0
 11
24.669499999999999
 21
93.760900000000007
 31
0.0
  0
LINE
  5
31E
  8
0
 62
     7
 10
24.669499999999999
 20
93.760900000000007
 30
0.0
 11
25.064599999999999
 21
95.235399999999998
 31
0.0
  0
LINE
  5
31F
  8
0
 62
     7
 10
25.064599999999999
 20
95.235399999999998
 30
0.0
 11
24.2746
 21
95.235399999999998
 31
0.0
  0
LINE
  5
320
  8
0
 62
     7
 10
24.669499999999999
 20
110.92700000000001
 30
0.0
 11
24.669499999999999
 21
93.760900000000007
 31
0.0
  0
LINE
  5
321
  8
0
 62
     7
 10
24.319800000000001
 20
110.92700000000001
 30
0.0
 11
38.7624
 21
110.92700000000001
 31
0.0
  0
LINE
  5
322
  8
0
  6
AIGENLINE001
 62
     7
 10
66.471500000000006
 20
111.629
 30
0.0
 11
66.471500000000006
 21
92.995400000000004
 31
0.0
  0
LINE
  5
323
  8
0
 62
     7
 10
29.431999999999999
 20
109.453
 30
0.0
 11
29.036799999999999
 21
110.92700000000001
 31
0.0
  0
LINE
  5
324
  8
0
 62
     7
 10
29.036799999999999
 20
110.92700000000001
 30
0.0
 11
28.6417
 21
109.453
 31
0.0
  0
LINE
  5
325
  8
0
 62
     7
 10
28.6417
 20
109.453
 30
0.0
 11
29.431999999999999
 21
109.453
 31
0.0
  0
LINE
  5
326
  8
0
 62
     7
 10
28.648900000000001
 20
96.568700000000007
 30
0.0
 11
29.0441
 21
95.094200000000001
 31
0.0
  0
LINE
  5
327
  8
0
 62
     7
 10
29.0441
 20
95.094200000000001
 30
0.0
 11
29.4389
 21
96.568700000000007
 31
0.0
  0
LINE
  5
328
  8
0
 62
     7
 10
29.4389
 20
96.568700000000007
 30
0.0
 11
28.648900000000001
 21
96.568700000000007
 31
0.0
  0
LINE
  5
329
  8
0
 62
     7
 10
29.0441
 20
110.92700000000001
 30
0.0
 11
29.0441
 21
95.094200000000001
 31
0.0
  0
LINE
  5
32A
  8
0
 62
     7
 10
33.039400000000001
 20
103.011
 30
0.0
 11
36.2898
 21
103.011
 31
0.0
  0
LINE
  5
32B
  8
0
 62
     7
 10
28.694400000000002
 20
95.094200000000001
 30
0.0
 11
38.7624
 21
95.094200000000001
 31
0.0
  0
LINE
  5
32C
  8
0
 62
     7
 10
63.873899999999992
 20
93.760900000000007
 30
0.0
 11
24.319800000000001
 21
93.760900000000007
 31
0.0
  0
LINE
  5
32D
  8
0
 62
     7
 10
93.945899999999995
 20
117.15600000000001
 30
0.0
 11
92.471399999999988
 21
116.761
 31
0.0
  0
LINE
  5
32E
  8
0
 62
     7
 10
92.471399999999988
 20
116.761
 30
0.0
 11
93.945899999999995
 21
116.366
 31
0.0
  0
LINE
  5
32F
  8
0
 62
     7
 10
93.945899999999995
 20
116.366
 30
0.0
 11
93.945899999999995
 21
117.15600000000001
 31
0.0
  0
LINE
  5
330
  8
0
 62
     7
 10
90.997299999999996
 20
116.366
 30
0.0
 11
92.471399999999988
 21
116.761
 31
0.0
  0
LINE
  5
331
  8
0
 62
     7
 10
92.471399999999988
 20
116.761
 30
0.0
 11
90.997299999999996
 21
117.15600000000001
 31
0.0
  0
LINE
  5
332
  8
0
 62
     7
 10
90.997299999999996
 20
117.15600000000001
 30
0.0
 11
90.997299999999996
 21
116.366
 31
0.0
  0
LINE
  5
333
  8
0
 62
     7
 10
92.471399999999988
 20
108.73
 30
0.0
 11
92.471399999999988
 21
117.111
 31
0.0
  0
LINE
  5
334
  8
0
 62
     7
 10
80.945400000000006
 20
117.15600000000001
 30
0.0
 11
79.4709
 21
116.761
 31
0.0
  0
LINE
  5
335
  8
0
 62
     7
 10
79.4709
 20
116.761
 30
0.0
 11
80.945400000000006
 21
116.366
 31
0.0
  0
LINE
  5
336
  8
0
 62
     7
 10
80.945400000000006
 20
116.366
 30
0.0
 11
80.945400000000006
 21
117.15600000000001
 31
0.0
  0
LINE
  5
337
  8
0
 62
     7
 10
77.997100000000003
 20
116.366
 30
0.0
 11
79.4709
 21
116.761
 31
0.0
  0
LINE
  5
338
  8
0
 62
     7
 10
79.4709
 20
116.761
 30
0.0
 11
77.997100000000003
 21
117.15600000000001
 31
0.0
  0
LINE
  5
339
  8
0
 62
     7
 10
77.997100000000003
 20
117.15600000000001
 30
0.0
 11
77.997100000000003
 21
116.366
 31
0.0
  0
LINE
  5
33A
  8
0
 62
     7
 10
67.945599999999999
 20
117.15600000000001
 30
0.0
 11
66.471500000000006
 21
116.761
 31
0.0
  0
LINE
  5
33B
  8
0
 62
     7
 10
66.471500000000006
 20
116.761
 30
0.0
 11
67.945599999999999
 21
116.366
 31
0.0
  0
LINE
  5
33C
  8
0
 62
     7
 10
67.945599999999999
 20
116.366
 30
0.0
 11
67.945599999999999
 21
117.15600000000001
 31
0.0
  0
LINE
  5
33D
  8
0
 62
     7
 10
64.997
 20
116.366
 30
0.0
 11
66.471500000000006
 21
116.761
 31
0.0
  0
LINE
  5
33E
  8
0
 62
     7
 10
66.471500000000006
 20
116.761
 30
0.0
 11
64.997
 21
117.15600000000001
 31
0.0
  0
LINE
  5
33F
  8
0
 62
     7
 10
64.997
 20
117.15600000000001
 30
0.0
 11
64.997
 21
116.366
 31
0.0
  0
LINE
  5
340
  8
0
 62
     7
 10
40.27859999999999
 20
123.154
 30
0.0
 11
38.804099999999998
 21
122.759
 31
0.0
  0
LINE
  5
341
  8
0
 62
     7
 10
38.804099999999998
 20
122.759
 30
0.0
 11
40.27859999999999
 21
122.364
 31
0.0
  0
LINE
  5
342
  8
0
 62
     7
 10
40.27859999999999
 20
122.364
 30
0.0
 11
40.27859999999999
 21
123.154
 31
0.0
  0
LINE
  5
343
  8
0
 62
     7
 10
119.08
 20
122.372
 30
0.0
 11
120.55500000000001
 21
122.767
 31
0.0
  0
LINE
  5
344
  8
0
 62
     7
 10
120.55500000000001
 20
122.767
 30
0.0
 11
119.08
 21
123.16200000000001
 31
0.0
  0
LINE
  5
345
  8
0
 62
     7
 10
119.08
 20
123.16200000000001
 30
0.0
 11
119.08
 21
122.372
 31
0.0
  0
LINE
  5
346
  8
0
 62
     7
 10
38.804099999999998
 20
122.759
 30
0.0
 11
120.55500000000001
 21
122.759
 31
0.0
  0
LINE
  5
347
  8
0
 62
     7
 10
40.27859999999999
 20
117.15600000000001
 30
0.0
 11
38.8048
 21
116.761
 31
0.0
  0
LINE
  5
348
  8
0
 62
     7
 10
38.8048
 20
116.761
 30
0.0
 11
40.27859999999999
 21
116.366
 31
0.0
  0
LINE
  5
349
  8
0
 62
     7
 10
40.27859999999999
 20
116.366
 30
0.0
 11
40.27859999999999
 21
117.15600000000001
 31
0.0
  0
LINE
  5
34A
  8
0
 62
     7
 10
119.08
 20
116.373
 30
0.0
 11
120.55500000000001
 21
116.768
 31
0.0
  0
LINE
  5
34B
  8
0
 62
     7
 10
120.55500000000001
 20
116.768
 30
0.0
 11
119.08
 21
117.163
 31
0.0
  0
LINE
  5
34C
  8
0
 62
     7
 10
119.08
 20
117.163
 30
0.0
 11
119.08
 21
116.373
 31
0.0
  0
LINE
  5
34D
  8
0
 62
     7
 10
38.8048
 20
116.761
 30
0.0
 11
120.55500000000001
 21
116.761
 31
0.0
  0
LINE
  5
34E
  8
0
 62
     7
 10
120.55500000000001
 20
110.836
 30
0.0
 11
120.55500000000001
 21
123.117
 31
0.0
  0
LINE
  5
34F
  8
0
 62
     7
 10
79.4709
 20
111.38500000000001
 30
0.0
 11
79.4709
 21
117.111
 31
0.0
  0
LINE
  5
350
  8
0
 62
     7
 10
66.471500000000006
 20
111.979
 30
0.0
 11
66.471500000000006
 21
117.02200000000001
 31
0.0
  0
LINE
  5
351
  8
0
 62
     7
 10
38.804099999999998
 20
110.794
 30
0.0
 11
38.804099999999998
 21
123.10899999999999
 31
0.0
  0
LINE
  5
352
  8
0
 62
     7
 10
34.1036
 20
101.53700000000001
 30
0.0
 11
33.708399999999997
 21
103.011
 31
0.0
  0
LINE
  5
353
  8
0
 62
     7
 10
33.708399999999997
 20
103.011
 30
0.0
 11
33.313299999999998
 21
101.53700000000001
 31
0.0
  0
LINE
  5
354
  8
0
 62
     7
 10
33.313299999999998
 20
101.53700000000001
 30
0.0
 11
34.1036
 21
101.53700000000001
 31
0.0
  0
LINE
  5
355
  8
0
 62
     7
 10
33.320099999999996
 20
95.235399999999998
 30
0.0
 11
33.715299999999999
 21
93.760900000000007
 31
0.0
  0
LINE
  5
356
  8
0
 62
     7
 10
33.715299999999999
 20
93.760900000000007
 30
0.0
 11
34.110500000000002
 21
95.235399999999998
 31
0.0
  0
LINE
  5
357
  8
0
 62
     7
 10
34.110500000000002
 20
95.235399999999998
 30
0.0
 11
33.320099999999996
 21
95.235399999999998
 31
0.0
  0
LINE
  5
358
  8
0
 62
     7
 10
33.715299999999999
 20
103.011
 30
0.0
 11
33.715299999999999
 21
93.760900000000007
 31
0.0
  0
LINE
  5
359
  8
0
 62
     7
 10
33.450699999999998
 20
180.803
 30
0.0
 11
33.845500000000001
 21
179.32900000000001
 31
0.0
  0
LINE
  5
35A
  8
0
 62
     7
 10
33.845500000000001
 20
179.32900000000001
 30
0.0
 11
34.240699999999997
 21
180.803
 31
0.0
  0
LINE
  5
35B
  8
0
 62
     7
 10
34.240699999999997
 20
180.803
 30
0.0
 11
33.450699999999998
 21
180.803
 31
0.0
  0
LINE
  5
35C
  8
0
 62
     7
 10
34.240699999999997
 20
177.43899999999999
 30
0.0
 11
33.845500000000001
 21
178.91300000000001
 31
0.0
  0
LINE
  5
35D
  8
0
 62
     7
 10
33.845500000000001
 20
178.91300000000001
 30
0.0
 11
33.450699999999998
 21
177.43899999999999
 31
0.0
  0
LINE
  5
35E
  8
0
 62
     7
 10
33.450699999999998
 20
177.43899999999999
 30
0.0
 11
34.240699999999997
 21
177.43899999999999
 31
0.0
  0
LINE
  5
35F
  8
0
 62
     7
 10
34.233400000000003
 20
189.52199999999999
 30
0.0
 11
33.838299999999997
 21
190.99600000000001
 31
0.0
  0
LINE
  5
360
  8
0
 62
     7
 10
33.838299999999997
 20
190.99600000000001
 30
0.0
 11
33.443100000000001
 21
189.52199999999999
 31
0.0
  0
LINE
  5
361
  8
0
 62
     7
 10
33.443100000000001
 20
189.52199999999999
 30
0.0
 11
34.233400000000003
 21
189.52199999999999
 31
0.0
  0
LINE
  5
362
  8
0
 62
     7
 10
33.845500000000001
 20
173.44399999999999
 30
0.0
 11
33.845500000000001
 21
190.99600000000001
 31
0.0
  0
LINE
  5
363
  8
0
 62
     7
 10
38.279400000000003
 20
178.91300000000001
 30
0.0
 11
33.4955
 21
178.91300000000001
 31
0.0
  0
LINE
  5
364
  8
0
 62
     7
 10
38.279400000000003
 20
179.32900000000001
 30
0.0
 11
33.4955
 21
179.32900000000001
 31
0.0
  0
LINE
  5
365
  8
0
 62
     7
 10
53.715600000000002
 20
190.99600000000001
 30
0.0
 11
33.4955
 21
190.99600000000001
 31
0.0
  0
LINE
  5
366
  8
0
 62
     7
 10
111.196
 20
198.11799999999999
 30
0.0
 11
109.721
 21
197.72300000000001
 31
0.0
  0
LINE
  5
367
  8
0
 62
     7
 10
109.721
 20
197.72300000000001
 30
0.0
 11
111.196
 21
197.328
 31
0.0
  0
LINE
  5
368
  8
0
 62
     7
 10
111.196
 20
197.328
 30
0.0
 11
111.196
 21
198.11799999999999
 31
0.0
  0
LINE
  5
369
  8
0
 62
     7
 10
108.247
 20
197.328
 30
0.0
 11
109.721
 21
197.72300000000001
 31
0.0
  0
LINE
  5
36A
  8
0
 62
     7
 10
109.721
 20
197.72300000000001
 30
0.0
 11
108.247
 21
198.11799999999999
 31
0.0
  0
LINE
  5
36B
  8
0
 62
     7
 10
108.247
 20
198.11799999999999
 30
0.0
 11
108.247
 21
197.328
 31
0.0
  0
LINE
  5
36C
  8
0
 62
     7
 10
51.528599999999997
 20
198.11799999999999
 30
0.0
 11
50.054099999999998
 21
197.72300000000001
 31
0.0
  0
LINE
  5
36D
  8
0
 62
     7
 10
50.054099999999998
 20
197.72300000000001
 30
0.0
 11
51.528599999999997
 21
197.328
 31
0.0
  0
LINE
  5
36E
  8
0
 62
     7
 10
51.528599999999997
 20
197.328
 30
0.0
 11
51.528599999999997
 21
198.11799999999999
 31
0.0
  0
LINE
  5
36F
  8
0
 62
     7
 10
40.278199999999998
 20
198.11799999999999
 30
0.0
 11
38.803699999999999
 21
197.72300000000001
 31
0.0
  0
LINE
  5
370
  8
0
 62
     7
 10
38.803699999999999
 20
197.72300000000001
 30
0.0
 11
40.278199999999998
 21
197.328
 31
0.0
  0
LINE
  5
371
  8
0
 62
     7
 10
40.278199999999998
 20
197.328
 30
0.0
 11
40.278199999999998
 21
198.11799999999999
 31
0.0
  0
LINE
  5
372
  8
0
 62
     7
 10
48.580300000000001
 20
197.328
 30
0.0
 11
50.054099999999998
 21
197.72300000000001
 31
0.0
  0
LINE
  5
373
  8
0
 62
     7
 10
50.054099999999998
 20
197.72300000000001
 30
0.0
 11
48.580300000000001
 21
198.11799999999999
 31
0.0
  0
LINE
  5
374
  8
0
 62
     7
 10
48.580300000000001
 20
198.11799999999999
 30
0.0
 11
48.580300000000001
 21
197.328
 31
0.0
  0
LINE
  5
375
  8
0
 62
     7
 10
119.081
 20
197.33500000000001
 30
0.0
 11
120.55500000000001
 21
197.7299999999999
 31
0.0
  0
LINE
  5
376
  8
0
 62
     7
 10
120.55500000000001
 20
197.7299999999999
 30
0.0
 11
119.081
 21
198.125
 31
0.0
  0
LINE
  5
377
  8
0
 62
     7
 10
119.081
 20
198.125
 30
0.0
 11
119.081
 21
197.33500000000001
 31
0.0
  0
LINE
  5
378
  8
0
 62
     7
 10
38.803699999999999
 20
197.72300000000001
 30
0.0
 11
120.55500000000001
 21
197.72300000000001
 31
0.0
  0
LINE
  5
379
  8
0
 62
     7
 10
120.55500000000001
 20
179.85400000000001
 30
0.0
 11
120.55500000000001
 21
198.07300000000001
 31
0.0
  0
LINE
  5
37A
  8
0
 62
     7
 10
109.721
 20
184.35400000000001
 30
0.0
 11
109.721
 21
198.07300000000001
 31
0.0
  0
LINE
  5
37B
  8
0
 62
     7
 10
50.054099999999998
 20
190.60300000000001
 30
0.0
 11
50.054099999999998
 21
198.07300000000001
 31
0.0
  0
LINE
  5
37C
  8
0
 62
     7
 10
38.803699999999999
 20
179.85400000000001
 30
0.0
 11
38.803699999999999
 21
198.07300000000001
 31
0.0
  0
LINE
  5
37D
  8
0
 62
     7
 10
128.43100000000001
 20
179.96899999999999
 30
0.0
 11
128.035
 21
178.49600000000001
 31
0.0
  0
LINE
  5
37E
  8
0
 62
     7
 10
128.035
 20
178.49600000000001
 30
0.0
 11
127.64
 21
179.96899999999999
 31
0.0
  0
LINE
  5
37F
  8
0
 62
     7
 10
127.64
 20
179.96899999999999
 30
0.0
 11
128.43100000000001
 21
179.96899999999999
 31
0.0
  0
LINE
  5
380
  8
0
 62
     7
 10
127.64100000000001
 20
175.35499999999999
 30
0.0
 11
128.035
 21
176.82900000000001
 31
0.0
  0
LINE
  5
381
  8
0
 62
     7
 10
128.035
 20
176.82900000000001
 30
0.0
 11
128.43100000000001
 21
175.35499999999999
 31
0.0
  0
LINE
  5
382
  8
0
 62
     7
 10
128.43100000000001
 20
175.35499999999999
 30
0.0
 11
127.64100000000001
 21
175.35499999999999
 31
0.0
  0
LINE
  5
383
  8
0
 62
     7
 10
127.648
 20
189.52099999999999
 30
0.0
 11
128.04300000000001
 21
190.99600000000001
 31
0.0
  0
LINE
  5
384
  8
0
 62
     7
 10
128.04300000000001
 20
190.99600000000001
 30
0.0
 11
128.43799999999999
 21
189.52099999999999
 31
0.0
  0
LINE
  5
385
  8
0
 62
     7
 10
128.43799999999999
 20
189.52099999999999
 30
0.0
 11
127.648
 21
189.52099999999999
 31
0.0
  0
LINE
  5
386
  8
0
 62
     7
 10
128.035
 20
173.28999999999999
 30
0.0
 11
128.035
 21
190.99600000000001
 31
0.0
  0
LINE
  5
387
  8
0
 62
     7
 10
135.34200000000001
 20
172.11500000000001
 30
0.0
 11
157.084
 21
172.11500000000001
 31
0.0
  0
LINE
  5
388
  8
0
 62
     7
 10
123.913
 20
176.82900000000001
 30
0.0
 11
128.38499999999999
 21
176.82900000000001
 31
0.0
  0
LINE
  5
389
  8
0
 62
     7
 10
123.913
 20
178.49600000000001
 30
0.0
 11
128.38499999999999
 21
178.49600000000001
 31
0.0
  0
LINE
  5
38A
  8
0
 62
     7
 10
105.795
 20
190.99600000000001
 30
0.0
 11
128.38499999999999
 21
190.99600000000001
 31
0.0
  0
LINE
  5
38B
  8
0
 62
     7
 10
128.035
 20
177.762
 30
0.0
 11
135.34200000000001
 21
172.11500000000001
 31
0.0
  0
LINE
  5
38C
  8
0
  6
AIGENLINE002
 62
     7
 10
123.913
 20
178.49600000000001
 30
0.0
 11
51.37769999999999
 21
178.49600000000001
 31
0.0
  0
LINE
  5
38D
  8
0
  6
AIGENLINE002
 62
     7
 10
123.913
 20
176.82900000000001
 30
0.0
 11
51.37769999999999
 21
176.82900000000001
 31
0.0
  0
LINE
  5
38E
  8
0
 62
     7
 10
62.466999999999999
 20
205.161
 30
0.0
 11
50.952300000000001
 21
205.161
 31
0.0
  0
LINE
  5
38F
  8
0
 62
     7
 10
66.571200000000005
 20
186.721
 30
0.0
 11
66.474699999999999
 21
185.19800000000001
 31
0.0
  0
LINE
  5
390
  8
0
 62
     7
 10
66.474699999999999
 20
185.19800000000001
 30
0.0
 11
65.7971
 21
186.565
 31
0.0
  0
LINE
  5
391
  8
0
 62
     7
 10
65.7971
 20
186.565
 30
0.0
 11
66.571200000000005
 21
186.721
 31
0.0
  0
LINE
  5
392
  8
0
 62
     7
 10
62.466999999999999
 20
205.161
 30
0.0
 11
66.481999999999999
 21
185.19900000000001
 31
0.0
  0
LINE
  5
393
  8
0
 62
     7
 10
157.94800000000001
 20
80.660899999999998
 30
0.0
 11
156.47399999999999
 21
80.2654
 31
0.0
  0
LINE
  5
394
  8
0
 62
     7
 10
156.47399999999999
 20
80.2654
 30
0.0
 11
157.94800000000001
 21
79.870599999999996
 31
0.0
  0
LINE
  5
395
  8
0
 62
     7
 10
157.94800000000001
 20
79.870599999999996
 30
0.0
 11
157.94800000000001
 21
80.660899999999998
 31
0.0
  0
LINE
  5
396
  8
0
 62
     7
 10
167.666
 20
79.870599999999996
 30
0.0
 11
169.14099999999999
 21
80.2654
 31
0.0
  0
LINE
  5
397
  8
0
 62
     7
 10
169.14099999999999
 20
80.2654
 30
0.0
 11
167.666
 21
80.660199999999989
 31
0.0
  0
LINE
  5
398
  8
0
 62
     7
 10
167.666
 20
80.660199999999989
 30
0.0
 11
167.666
 21
79.870599999999996
 31
0.0
  0
LINE
  5
399
  8
0
 62
     7
 10
166.447
 20
87.349900000000005
 30
0.0
 11
164.97300000000001
 21
86.954400000000007
 31
0.0
  0
LINE
  5
39A
  8
0
 62
     7
 10
164.97300000000001
 20
86.954400000000007
 30
0.0
 11
166.447
 21
86.559600000000003
 31
0.0
  0
LINE
  5
39B
  8
0
 62
     7
 10
166.447
 20
86.559600000000003
 30
0.0
 11
166.447
 21
87.349900000000005
 31
0.0
  0
LINE
  5
39C
  8
0
 62
     7
 10
167.666
 20
86.559600000000003
 30
0.0
 11
169.14099999999999
 21
86.954400000000007
 31
0.0
  0
LINE
  5
39D
  8
0
 62
     7
 10
169.14099999999999
 20
86.954400000000007
 30
0.0
 11
167.666
 21
87.349199999999996
 31
0.0
  0
LINE
  5
39E
  8
0
 62
     7
 10
167.666
 20
87.349199999999996
 30
0.0
 11
167.666
 21
86.559600000000003
 31
0.0
  0
LINE
  5
39F
  8
0
 62
     7
 10
164.97300000000001
 20
86.954400000000007
 30
0.0
 11
179.11699999999999
 21
86.954400000000007
 31
0.0
  0
LINE
  5
3A0
  8
0
 62
     7
 10
156.47399999999999
 20
79.761700000000005
 30
0.0
 11
156.47399999999999
 21
90.571399999999997
 31
0.0
  0
LINE
  5
3A1
  8
0
 62
     7
 10
164.97300000000001
 20
86.498999999999995
 30
0.0
 11
164.97300000000001
 21
91.511600000000001
 31
0.0
  0
LINE
  5
3A2
  8
0
 62
     7
 10
169.14099999999999
 20
95.915499999999994
 30
0.0
 11
169.14099999999999
 21
79.761700000000005
 31
0.0
  0
LINE
  5
3A3
  8
0
 62
     7
 10
154.80699999999999
 20
108.011
 30
0.0
 11
154.55699999999999
 21
108.011
 31
0.0
  0
LINE
  5
3A4
  8
0
 62
     7
 10
154.80699999999999
 20
108.011
 30
0.0
 11
154.80699999999999
 21
98.010800000000003
 31
0.0
  0
LINE
  5
3A5
  8
0
 62
     7
 10
154.80699999999999
 20
98.010800000000003
 30
0.0
 11
154.55699999999999
 21
98.010800000000003
 31
0.0
  0
LINE
  5
3A6
  8
0
 62
     7
 10
154.55699999999999
 20
108.011
 30
0.0
 11
154.55699999999999
 21
98.010800000000003
 31
0.0
  0
LINE
  5
3A7
  8
0
 62
     7
 10
137.446
 20
93.318600000000004
 30
0.0
 11
137.84100000000001
 21
91.844099999999983
 31
0.0
  0
LINE
  5
3A8
  8
0
 62
     7
 10
137.84100000000001
 20
91.844099999999983
 30
0.0
 11
138.23599999999999
 21
93.318600000000004
 31
0.0
  0
LINE
  5
3A9
  8
0
 62
     7
 10
138.23599999999999
 20
93.318600000000004
 30
0.0
 11
137.446
 21
93.318600000000004
 31
0.0
  0
LINE
  5
3AA
  8
0
 62
     7
 10
138.23599999999999
 20
101.53700000000001
 30
0.0
 11
137.84100000000001
 21
103.011
 31
0.0
  0
LINE
  5
3AB
  8
0
 62
     7
 10
137.84100000000001
 20
103.011
 30
0.0
 11
137.446
 21
101.53700000000001
 31
0.0
  0
LINE
  5
3AC
  8
0
 62
     7
 10
137.446
 20
101.53700000000001
 30
0.0
 11
138.23599999999999
 21
101.53700000000001
 31
0.0
  0
LINE
  5
3AD
  8
0
 62
     7
 10
153.333
 20
79.870599999999996
 30
0.0
 11
154.80699999999999
 21
80.2654
 31
0.0
  0
LINE
  5
3AE
  8
0
 62
     7
 10
154.80699999999999
 20
80.2654
 30
0.0
 11
153.333
 21
80.660199999999989
 31
0.0
  0
LINE
  5
3AF
  8
0
 62
     7
 10
153.333
 20
80.660199999999989
 30
0.0
 11
153.333
 21
79.870599999999996
 31
0.0
  0
LINE
  5
3B0
  8
0
 62
     7
 10
129.61500000000001
 20
80.660199999999989
 30
0.0
 11
128.13999999999999
 21
80.2654
 31
0.0
  0
LINE
  5
3B1
  8
0
 62
     7
 10
128.13999999999999
 20
80.2654
 30
0.0
 11
129.61500000000001
 21
79.870599999999996
 31
0.0
  0
LINE
  5
3B2
  8
0
 62
     7
 10
129.61500000000001
 20
79.870599999999996
 30
0.0
 11
129.61500000000001
 21
80.660199999999989
 31
0.0
  0
LINE
  5
3B3
  8
0
 62
     7
 10
144.52199999999999
 20
106.069
 30
0.0
 11
144.917
 21
104.59399999999999
 31
0.0
  0
LINE
  5
3B4
  8
0
 62
     7
 10
144.917
 20
104.59399999999999
 30
0.0
 11
145.31200000000001
 21
106.069
 31
0.0
  0
LINE
  5
3B5
  8
0
 62
     7
 10
145.31200000000001
 20
106.069
 30
0.0
 11
144.52199999999999
 21
106.069
 31
0.0
  0
LINE
  5
3B6
  8
0
 62
     7
 10
145.31200000000001
 20
99.953199999999995
 30
0.0
 11
144.917
 21
101.428
 31
0.0
  0
LINE
  5
3B7
  8
0
 62
     7
 10
144.917
 20
101.428
 30
0.0
 11
144.52199999999999
 21
99.953199999999995
 31
0.0
  0
LINE
  5
3B8
  8
0
 62
     7
 10
144.52199999999999
 20
99.953199999999995
 30
0.0
 11
145.31200000000001
 21
99.953199999999995
 31
0.0
  0
LINE
  5
3B9
  8
0
 62
     7
 10
155.679
 20
80.2654
 30
0.0
 11
154.27199999999999
 21
76.220100000000002
 31
0.0
  0
ARC
  5
3BA
  8
0
 62
     7
 10
79.470931999999991
 20
103.011073
 30
0.0
 40
1.5833759999999999
 50
90.0
 51
179.99996999999999
  0
ARC
  5
3BB
  8
0
 62
     7
 10
79.410287999999994
 20
102.95043
 30
0.0
 40
1.645138
 50
2.1125359999999991
 51
87.887454000000005
  0
ARC
  5
3BC
  8
0
 62
     7
 10
79.531793999999991
 20
103.044113
 30
0.0
 40
3.0610490000000001
 50
180.61846
 51
237.50261699999999
  0
ARC
  5
3BD
  8
0
 62
     7
 10
79.586055999999999
 20
102.895949
 30
0.0
 40
3.1172589999999998
 50
92.116477999999987
 51
177.88349199999999
  0
ARC
  5
3BE
  8
0
 62
     7
 10
79.355811000000003
 20
102.89595300000001
 30
0.0
 40
3.1172550000000001
 50
2.1164160000000001
 51
87.883573999999996
  0
ARC
  5
3BF
  8
0
 62
     7
 10
79.412582999999998
 20
103.042716
 30
0.0
 40
3.0585200000000001
 50
302.47173800000002
 51
359.40722399999999
  0
LINE
  5
3C0
  8
0
 62
     7
 10
77.887600000000006
 20
91.844099999999983
 30
0.0
 11
77.887600000000006
 21
103.011
 31
0.0
  0
LINE
  5
3C1
  8
0
 62
     7
 10
81.054299999999998
 20
91.844099999999983
 30
0.0
 11
81.054299999999998
 21
103.011
 31
0.0
  0
LINE
  5
3C2
  8
0
 62
     7
 10
77.887600000000006
 20
94.844099999999997
 30
0.0
 11
81.054299999999998
 21
94.844099999999997
 31
0.0
  0
LINE
  5
3C3
  8
0
 62
     7
 10
77.887600000000006
 20
91.844099999999983
 30
0.0
 11
81.054299999999998
 21
91.844099999999983
 31
0.0
  0
ARC
  5
3C4
  8
0
 62
     7
 10
79.605586000000002
 20
103.105998
 30
0.0
 40
5.1354430000000004
 50
181.066834
 51
250.45522099999999
  0
ARC
  5
3C5
  8
0
 62
     7
 10
79.470931999999991
 20
103.010728
 30
0.0
 40
4.9999000000000002
 50
90.003947999999994
 51
180.00395800000001
  0
ARC
  5
3C6
  8
0
 62
     7
 10
79.470585999999997
 20
103.010383
 30
0.0
 40
5.0002440000000004
 50
0.00001
 51
89.999980000000008
  0
ARC
  5
3C7
  8
0
 62
     7
 10
79.332771999999991
 20
103.10852300000001
 30
0.0
 40
5.1389959999999988
 50
289.57221699999991
 51
358.90576800000002
  0
ARC
  5
3C8
  8
0
 62
     7
 10
92.882093999999995
 20
110.338159
 30
0.0
 40
0.173046
 50
2.0503309999999999
 51
87.949658999999997
  0
ARC
  5
3C9
  8
0
 62
     7
 10
92.061102000000005
 20
110.338159
 30
0.0
 40
0.173046
 50
92.050303999999997
 51
177.94966599999989
  0
ARC
  5
3CA
  8
0
 62
     7
 10
92.471424999999996
 20
103.01107399999999
 30
0.0
 40
3.3334959999999989
 50
270.00002000000001
 51
359.99999000000003
  0
ARC
  5
3CB
  8
0
 62
     7
 10
92.471598
 20
103.01090000000001
 30
0.0
 40
3.333323
 50
179.99700899999999
 51
269.99705899999998
  0
ARC
  5
3CC
  8
0
 62
     7
 10
92.598931999999976
 20
102.88320899999999
 30
0.0
 40
3.4630190000000001
 50
92.110064000000023
 51
177.883984
  0
ARC
  5
3CD
  8
0
 62
     7
 10
92.343995000000007
 20
102.882927
 30
0.0
 40
3.463298
 50
2.120495
 51
87.891339000000016
  0
LINE
  5
3CE
  8
0
 62
     7
 10
91.888199999999983
 20
110.34399999999999
 30
0.0
 11
91.888199999999983
 21
106.29300000000001
 31
0.0
  0
LINE
  5
3CF
  8
0
 62
     7
 10
93.055000000000007
 20
110.34399999999999
 30
0.0
 11
93.055000000000007
 21
106.29300000000001
 31
0.0
  0
LINE
  5
3D0
  8
0
 62
     7
 10
92.054900000000004
 20
110.511
 30
0.0
 11
92.888300000000001
 21
110.511
 31
0.0
  0
ARC
  5
3D1
  8
0
 62
     7
 10
92.306692999999996
 20
102.864659
 30
0.0
 40
5.1666879999999988
 50
1.6162289999999999
 51
81.672052000000008
  0
ARC
  5
3D2
  8
0
 62
     7
 10
92.471597000000003
 20
103.01055700000001
 30
0.0
 40
4.999727
 50
269.99804599999999
 51
359.99801600000001
  0
ARC
  5
3D3
  8
0
 62
     7
 10
92.471081000000012
 20
103.010728
 30
0.0
 40
4.9998979999999991
 50
180.00395800000001
 51
270.0039680000001
  0
ARC
  5
3D4
  8
0
 62
     7
 10
92.644931000000014
 20
102.857158
 30
0.0
 40
5.1760159999999997
 50
98.40709200000002
 51
178.30360400000001
  0
ARC
  5
3D5
  8
0
 62
     7
 10
66.881743999999998
 20
110.33776400000001
 30
0.0
 40
0.173454
 50
2.1758459999999991
 51
87.824143999999976
  0
ARC
  5
3D6
  8
0
 62
     7
 10
66.061541000000005
 20
110.33776400000001
 30
0.0
 40
0.173454
 50
92.175836000000004
 51
177.82413399999999
  0
ARC
  5
3D7
  8
0
 62
     7
 10
66.471469999999997
 20
103.01107399999999
 30
0.0
 40
3.3334959999999989
 50
270.00002000000001
 51
359.99999000000003
  0
ARC
  5
3D8
  8
0
 62
     7
 10
66.471642000000003
 20
103.01090000000001
 30
0.0
 40
3.333323
 50
179.99700899999999
 51
269.99705899999998
  0
ARC
  5
3D9
  8
0
 62
     7
 10
66.598977000000005
 20
102.88320899999999
 30
0.0
 40
3.4630190000000001
 50
92.110064000000023
 51
177.883984
  0
ARC
  5
3DA
  8
0
 62
     7
 10
66.344040000000007
 20
102.882927
 30
0.0
 40
3.463298
 50
2.120495
 51
87.891339000000016
  0
LINE
  5
3DB
  8
0
 62
     7
 10
65.888199999999998
 20
110.34399999999999
 30
0.0
 11
65.888199999999998
 21
106.29300000000001
 31
0.0
  0
LINE
  5
3DC
  8
0
 62
     7
 10
67.055099999999996
 20
110.34399999999999
 30
0.0
 11
67.055099999999996
 21
106.29300000000001
 31
0.0
  0
LINE
  5
3DD
  8
0
 62
     7
 10
66.055000000000007
 20
110.511
 30
0.0
 11
66.888300000000001
 21
110.511
 31
0.0
  0
ARC
  5
3DE
  8
0
 62
     7
 10
66.306736999999998
 20
102.864659
 30
0.0
 40
5.1666879999999988
 50
1.6162289999999999
 51
81.672052000000008
  0
ARC
  5
3DF
  8
0
 62
     7
 10
66.471642000000003
 20
103.01055700000001
 30
0.0
 40
4.999727
 50
269.99804599999999
 51
359.99801600000001
  0
ARC
  5
3E0
  8
0
 62
     7
 10
66.471125000000001
 20
103.010728
 30
0.0
 40
4.9998979999999991
 50
180.00395800000001
 51
270.0039680000001
  0
ARC
  5
3E1
  8
0
 62
     7
 10
66.644975000000002
 20
102.857158
 30
0.0
 40
5.1760159999999997
 50
98.40709200000002
 51
178.30360400000001
  0
LINE
  5
3E2
  8
0
 62
     7
 10
156.80699999999999
 20
106.511
 30
0.0
 11
156.80699999999999
 21
99.510800000000003
 31
0.0
  0
LINE
  5
3E3
  8
0
 62
     7
 10
154.80699999999999
 20
100.161
 30
0.0
 11
156.80699999999999
 21
100.161
 31
0.0
  0
LINE
  5
3E4
  8
0
 62
     7
 10
154.80699999999999
 20
100.036
 30
0.0
 11
156.80699999999999
 21
100.036
 31
0.0
  0
LINE
  5
3E5
  8
0
 62
     7
 10
156.80699999999999
 20
99.510800000000003
 30
0.0
 11
156.88999999999999
 21
99.510800000000003
 31
0.0
  0
LINE
  5
3E6
  8
0
 62
     7
 10
154.80699999999999
 20
105.861
 30
0.0
 11
156.80699999999999
 21
105.861
 31
0.0
  0
LINE
  5
3E7
  8
0
 62
     7
 10
154.80699999999999
 20
105.986
 30
0.0
 11
156.80699999999999
 21
105.986
 31
0.0
  0
LINE
  5
3E8
  8
0
 62
     7
 10
156.80699999999999
 20
106.511
 30
0.0
 11
156.88999999999999
 21
106.511
 31
0.0
  0
LINE
  5
3E9
  8
0
  6
AIGENLINE002
 62
     7
 10
156.47399999999999
 20
114.379
 30
0.0
 11
156.47399999999999
 21
91.250799999999998
 31
0.0
  0
LINE
  5
3EA
  8
0
  6
AIGENLINE002
 62
     7
 10
154.80699999999999
 20
114.379
 30
0.0
 11
154.80699999999999
 21
91.250799999999998
 31
0.0
  0
LINE
  5
3EB
  8
0
 62
     7
 10
154.80699999999999
 20
105.011
 30
0.0
 11
156.80699999999999
 21
105.011
 31
0.0
  0
LINE
  5
3EC
  8
0
 62
     7
 10
154.80699999999999
 20
101.011
 30
0.0
 11
156.80699999999999
 21
101.011
 31
0.0
  0
LINE
  5
3ED
  8
0
 62
     7
 10
154.80699999999999
 20
100.84399999999999
 30
0.0
 11
156.80699999999999
 21
100.84399999999999
 31
0.0
  0
LINE
  5
3EE
  8
0
 62
     7
 10
154.80699999999999
 20
105.17700000000001
 30
0.0
 11
156.80699999999999
 21
105.17700000000001
 31
0.0
  0
ARC
  5
3EF
  8
0
 62
     7
 10
135.640469
 20
95.511050999999995
 30
0.0
 40
9.0833979999999972
 50
90.0
 51
179.99996999999999
  0
ARC
  5
3F0
  8
0
 62
     7
 10
135.640469
 20
95.511052000000007
 30
0.0
 40
5.916644999999999
 50
90.0
 51
179.99996999999999
  0
ARC
  5
3F1
  8
0
  6
AIGENLINE001
 62
     7
 10
135.640469
 20
95.511052000000007
 30
0.0
 40
7.5000220000000004
 50
90.0
 51
179.99996999999999
  0
LINE
  5
3F2
  8
0
 62
     7
 10
154.22300000000001
 20
100.011
 30
0.0
 11
154.55699999999999
 21
100.011
 31
0.0
  0
LINE
  5
3F3
  8
0
 62
     7
 10
154.22300000000001
 20
106.011
 30
0.0
 11
154.55699999999999
 21
106.011
 31
0.0
  0
LINE
  5
3F4
  8
0
 62
     7
 10
154.55699999999999
 20
106.011
 30
0.0
 11
154.55699999999999
 21
100.011
 31
0.0
  0
LINE
  5
3F5
  8
0
 62
     7
 10
129.72399999999999
 20
91.844099999999983
 30
0.0
 11
129.72399999999999
 21
95.511099999999985
 31
0.0
  0
LINE
  5
3F6
  8
0
 62
     7
 10
126.557
 20
91.844099999999983
 30
0.0
 11
126.557
 21
95.511099999999985
 31
0.0
  0
LINE
  5
3F7
  8
0
  6
AIGENLINE001
 62
     7
 10
128.13999999999999
 20
90.500500000000002
 30
0.0
 11
128.13999999999999
 21
95.511099999999985
 31
0.0
  0
LINE
  5
3F8
  8
0
 62
     7
 10
135.63999999999999
 20
101.428
 30
0.0
 11
147.97399999999999
 21
101.428
 31
0.0
  0
LINE
  5
3F9
  8
0
 62
     7
 10
135.63999999999999
 20
104.59399999999999
 30
0.0
 11
147.97399999999999
 21
104.59399999999999
 31
0.0
  0
LINE
  5
3FA
  8
0
 62
     7
 10
126.557
 20
94.844099999999997
 30
0.0
 11
129.72399999999999
 21
94.844099999999997
 31
0.0
  0
LINE
  5
3FB
  8
0
 62
     7
 10
126.557
 20
91.844099999999983
 30
0.0
 11
129.72399999999999
 21
91.844099999999983
 31
0.0
  0
LINE
  5
3FC
  8
0
  6
AIGENLINE001
 62
     7
 10
135.63999999999999
 20
103.011
 30
0.0
 11
170.61799999999999
 21
103.011
 31
0.0
  0
LINE
  5
3FD
  8
0
 62
     7
 10
144.917
 20
98.896199999999993
 30
0.0
 11
144.917
 21
111.253
 31
0.0
  0
LINE
  5
3FE
  8
0
 62
     7
 10
137.84100000000001
 20
91.844099999999983
 30
0.0
 11
137.84100000000001
 21
103.011
 31
0.0
  0
LINE
  5
3FF
  8
0
 62
     7
 10
138.49199999999999
 20
91.844099999999983
 30
0.0
 11
130.518
 21
91.844099999999983
 31
0.0
  0
LINE
  5
400
  8
0
 62
     7
 10
128.13999999999999
 20
80.2654
 30
0.0
 11
169.14099999999999
 21
80.2654
 31
0.0
  0
LINE
  5
401
  8
0
 62
     7
 10
154.80699999999999
 20
90.772599999999997
 30
0.0
 11
154.80699999999999
 21
79.761700000000005
 31
0.0
  0
LINE
  5
402
  8
0
 62
     7
 10
128.13999999999999
 20
89.9375
 30
0.0
 11
128.13999999999999
 21
79.761700000000005
 31
0.0
  0
TEXT
  5
403
  8
_________2
 62
     7
 10
149.3418593333333
 20
254.06200000000001
 30
0.0
 40
3.3734599999999988
  1
数
 41
0.5
 72
     1
 11
150.12899999999999
 21
254.06200000000001
 31
0.0
  0
LINE
  5
404
  8
_________2
 62
     7
 10
127.57599999999999
 20
258.911
 30
0.0
 11
127.57599999999999
 21
223.911
 31
0.0
  0
LINE
  5
405
  8
_________2
 62
     7
 10
146.768
 20
258.911
 30
0.0
 11
146.768
 21
223.911
 31
0.0
  0
LINE
  5
406
  8
_________2
 62
     7
 10
153.41999999999999
 20
258.911
 30
0.0
 11
153.41999999999999
 21
223.911
 31
0.0
  0
TEXT
  5
407
  8
_________2
 62
     7
 10
164.75096966666661
 20
226.06200000000001
 30
0.0
 40
3.3734599999999988
  1
スパウト
 41
0.5
 72
     1
 11
168.518
 21
226.06200000000001
 31
0.0
  0
TEXT
  5
408
  8
_________2
 62
     7
 10
128.88200000000001
 20
218.50299999999999
 30
0.0
 40
3.3734599999999988
  1
注：色番号はカタログを参照ください
 41
0.5
  0
TEXT
  5
409
  8
_________2
 62
     7
 10
133.34441833333329
 20
226.06200000000001
 30
0.0
 40
3.3734599999999988
  1
VL010
 41
0.5
 72
     1
 11
136.999
 21
226.06200000000001
 31
0.0
  0
LINE
  5
40A
  8
_________2
 62
     7
 10
127.57599999999999
 20
223.911
 30
0.0
 11
183.55099999999999
 21
223.911
 31
0.0
  0
TEXT
  5
40B
  8
_________2
 62
     7
 10
166.7188213333333
 20
233.06100000000001
 30
0.0
 40
3.3734599999999988
  1
台座
 41
0.5
 72
     1
 11
168.518
 21
233.06100000000001
 31
0.0
  0
TEXT
  5
40C
  8
_________2
 62
     7
 10
133.34441833333329
 20
233.06100000000001
 30
0.0
 40
3.3734599999999988
  1
VL001
 41
0.5
 72
     1
 11
136.999
 21
233.06100000000001
 31
0.0
  0
TEXT
  5
40D
  8
_________2
 62
     7
 10
161.77108000000001
 20
240.06100000000001
 30
0.0
 40
3.3734599999999988
  1
単水栓ハンドル
 41
0.5
 72
     1
 11
168.518
 21
240.06100000000001
 31
0.0
  0
TEXT
  5
40E
  8
_________2
 62
     7
 10
160.6465933333333
 20
247.06100000000001
 30
0.0
 40
3.3734599999999988
  1
埋込型混合栓本体
 41
0.5
 72
     1
 11
168.518
 21
247.06100000000001
 31
0.0
  0
TEXT
  5
40F
  8
_________2
 62
     7
 10
166.7188213333333
 20
254.06200000000001
 30
0.0
 40
3.3734599999999988
  1
名称
 41
0.5
 72
     1
 11
168.518
 21
254.06200000000001
 31
0.0
  0
TEXT
  5
410
  8
_________2
 62
     7
 10
133.2038575
 20
240.06200000000001
 30
0.0
 40
3.3734599999999988
  1
VL017
 41
0.5
 72
     1
 11
136.999
 21
240.06200000000001
 31
0.0
  0
TEXT
  5
411
  8
_________2
 62
     7
 10
131.65768833333331
 20
247.06200000000001
 30
0.0
 40
3.3734599999999988
  1
VL1500R
 41
0.5
 72
     1
 11
136.999
 21
247.06200000000001
 31
0.0
  0
TEXT
  5
412
  8
_________2
 62
     7
 10
149.84787833333331
 20
226.06200000000001
 30
0.0
 40
3.3734599999999988
  1
1
 41
0.5
 72
     1
 11
150.12899999999999
 21
226.06200000000001
 31
0.0
  0
TEXT
  5
413
  8
_________2
 62
     7
 10
149.56675666666661
 20
233.06100000000001
 30
0.0
 40
3.3734599999999988
  1
3
 41
0.5
 72
     1
 11
150.12899999999999
 21
233.06100000000001
 31
0.0
  0
TEXT
  5
414
  8
_________2
 62
     7
 10
149.56675666666661
 20
240.06200000000001
 30
0.0
 40
3.3734599999999988
  1
2
 41
0.5
 72
     1
 11
150.12899999999999
 21
240.06200000000001
 31
0.0
  0
TEXT
  5
415
  8
_________2
 62
     7
 10
149.84787833333331
 20
247.06200000000001
 30
0.0
 40
3.3734599999999988
  1
1
 41
0.5
 72
     1
 11
150.12899999999999
 21
247.06200000000001
 31
0.0
  0
TEXT
  5
416
  8
_________2
 62
     7
 10
135.19982133333329
 20
254.06200000000001
 30
0.0
 40
3.3734599999999988
  1
品番
 41
0.5
 72
     1
 11
136.999
 21
254.06200000000001
 31
0.0
  0
LINE
  5
417
  8
_________2
 62
     7
 10
127.57599999999999
 20
230.911
 30
0.0
 11
183.55099999999999
 21
230.911
 31
0.0
  0
LINE
  5
418
  8
_________2
 62
     7
 10
127.57599999999999
 20
237.911
 30
0.0
 11
183.55099999999999
 21
237.911
 31
0.0
  0
LINE
  5
419
  8
_________2
 62
     7
 10
127.57599999999999
 20
244.911
 30
0.0
 11
183.55099999999999
 21
244.911
 31
0.0
  0
LINE
  5
41A
  8
_________2
 62
     7
 10
127.57599999999999
 20
251.911
 30
0.0
 11
183.55099999999999
 21
251.911
 31
0.0
  0
LINE
  5
41B
  8
_________2
 62
     7
 10
205.30099999999999
 20
127.411
 30
0.0
 11
183.55000000000001
 21
127.411
 31
0.0
  0
LINE
  5
41C
  8
_________2
 62
     7
 10
100.3
 20
-4.0910799999999998
 30
0.0
 11
100.3
 21
-21.071400000000001
 31
0.0
  0
LINE
  5
41D
  8
_________2
 62
     7
 10
100.3
 20
275.93099999999998
 30
0.0
 11
100.3
 21
258.911
 31
0.0
  0
LINE
  5
41E
  8
_________2
 62
     7
 10
17.049499999999998
 20
127.411
 30
0.0
 11
-4.70052
 21
127.411
 31
0.0
  0
LINE
  5
41F
  8
_________2
 62
     7
 10
76.741
 20
29.8047
 30
0.0
 11
74.554699999999997
 21
29.8047
 31
0.0
  0
LINE
  5
420
  8
_________2
 62
     7
 10
77.233699999999999
 20
29.8047
 30
0.0
 11
76.981499999999997
 21
29.8047
 31
0.0
  0
LINE
  5
421
  8
_________2
 62
     7
 10
77.726299999999995
 20
29.8047
 30
0.0
 11
80.651200000000003
 21
29.8047
 31
0.0
  0
LINE
  5
422
  8
_________2
 62
     7
 10
77.233699999999999
 20
29.8047
 30
0.0
 11
77.485500000000002
 21
29.8047
 31
0.0
  0
LINE
  5
423
  8
_________2
 62
     7
 10
70.837100000000007
 20
29.8047
 30
0.0
 11
68.650499999999994
 21
29.8047
 31
0.0
  0
LINE
  5
424
  8
_________2
 62
     7
 10
71.329400000000007
 20
29.8047
 30
0.0
 11
71.077600000000004
 21
29.8047
 31
0.0
  0
LINE
  5
425
  8
_________2
 62
     7
 10
71.329400000000007
 20
30.2974
 30
0.0
 11
71.329400000000007
 21
32.484400000000001
 31
0.0
  0
LINE
  5
426
  8
_________2
 62
     7
 10
71.329400000000007
 20
29.8047
 30
0.0
 11
71.329400000000007
 21
30.056899999999999
 31
0.0
  0
LINE
  5
427
  8
_________2
 62
     7
 10
71.822100000000006
 20
29.8047
 30
0.0
 11
74.009
 21
29.8047
 31
0.0
  0
LINE
  5
428
  8
_________2
 62
     7
 10
71.329400000000007
 20
29.8047
 30
0.0
 11
71.581599999999995
 21
29.8047
 31
0.0
  0
LINE
  5
429
  8
_________2
 62
     7
 10
71.329400000000007
 20
29.312799999999999
 30
0.0
 11
71.329400000000007
 21
27.125800000000002
 31
0.0
  0
LINE
  5
42A
  8
_________2
 62
     7
 10
71.329400000000007
 20
29.8047
 30
0.0
 11
71.329400000000007
 21
29.5532
 31
0.0
  0
LINE
  5
42B
  8
_________2
 62
     7
 10
75.040499999999994
 20
28.5852
 30
0.0
 11
80.218500000000006
 21
27.720400000000001
 31
0.0
  0
LINE
  5
42C
  8
_________2
 62
     7
 10
75.040499999999994
 20
31.0243
 30
0.0
 11
80.218500000000006
 21
31.889700000000001
 31
0.0
  0
LINE
  5
42D
  8
_________2
 62
     7
 10
80.218500000000006
 20
27.720400000000001
 30
0.0
 11
80.218500000000006
 21
31.889700000000001
 31
0.0
  0
LINE
  5
42E
  8
_________2
 62
     7
 10
75.040499999999994
 20
28.5852
 30
0.0
 11
75.040499999999994
 21
31.0243
 31
0.0
  0
ARC
  5
42F
  8
_________2
 62
     7
 10
71.28285600000001
 20
29.757811
 30
0.0
 40
1.2673589999999999
 50
2.122214
 51
87.893958999999995
  0
ARC
  5
430
  8
_________2
 62
     7
 10
71.375959999999992
 20
29.758213000000001
 30
0.0
 40
1.2669559999999991
 50
92.104701000000006
 51
177.89526900000001
  0
ARC
  5
431
  8
_________2
 62
     7
 10
71.376357999999996
 20
29.851671
 30
0.0
 40
1.2673680000000001
 50
182.12203600000001
 51
267.877993
  0
ARC
  5
432
  8
_________2
 62
     7
 10
71.282531999999989
 20
29.851998999999999
 30
0.0
 40
1.267695999999999
 50
272.12015300000002
 51
357.863674
  0
ARC
  5
433
  8
_________2
 62
     7
 10
71.329430000000002
 20
29.804742999999998
 30
0.0
 40
2.0849849999999992
 50
0.00001
 51
89.999980000000008
  0
ARC
  5
434
  8
_________2
 62
     7
 10
71.329603000000006
 20
29.804915000000001
 30
0.0
 40
2.084813
 50
90.004733999999999
 51
180.00474399999999
  0
ARC
  5
435
  8
_________2
 62
     7
 10
71.409106000000008
 20
29.884775999999999
 30
0.0
 40
2.1657950000000001
 50
182.11776599999999
 51
267.89173399999999
  0
ARC
  5
436
  8
_________2
 62
     7
 10
71.249459000000002
 20
29.885429999999999
 30
0.0
 40
2.1664590000000001
 50
272.11546800000002
 51
357.86560400000002
  0
TEXT
  5
437
  8
_________2
 62
     7
 10
104.605
 20
1.6794899999999999
 30
0.0
 40
3.0923400000000001
  1
図番
 41
0.5
  0
LINE
  5
438
  8
_________2
 62
     7
 10
103.55
 20
5.9087199999999989
 30
0.0
 11
183.55099999999999
 21
5.9087199999999989
 31
0.0
  0
TEXT
  5
439
  8
_________2
 62
     7
 10
104.605
 20
11.6793
 30
0.0
 40
3.0923400000000001
  1
品番
 41
0.5
  0
TEXT
  5
43A
  8
_________2
 62
     7
 10
104.605
 20
31.818100000000001
 30
0.0
 40
3.0923400000000001
  1
名称
 41
0.5
  0
TEXT
  5
43B
  8
_________2
 62
     7
 10
91.845058333333341
 20
26.821999999999999
 30
0.0
 40
3.6545800000000002
  1
mm
 41
0.5
 72
     1
 11
93.367800000000003
 21
26.821999999999999
 31
0.0
  0
TEXT
  5
43C
  8
_________2
 62
     7
 10
85.643199999999993
 20
31.818100000000001
 30
0.0
 40
3.0923400000000001
  1
単位
 41
0.5
  0
TEXT
  5
43D
  8
_________2
 62
     7
 10
85.643199999999993
 20
19.410799999999998
 30
0.0
 40
3.0923400000000001
  1
尺度
 41
0.5
  0
TEXT
  5
43E
  8
_________2
 62
     7
 10
90.548758666666686
 20
13.2179
 30
0.0
 40
3.6545800000000002
  1
1 ： 6
 41
0.5
 72
     1
 11
93.959699999999998
 21
13.2179
 31
0.0
  0
TEXT
  5
43F
  8
_________2
 62
     7
 10
136.66252499999999
 20
9.1078600000000005
 30
0.0
 40
3.9357000000000002
  1
図中の表参照
 41
0.5
 72
     1
 11
143.55000000000001
 21
9.1078600000000005
 31
0.0
  0
TEXT
  5
440
  8
_________2
 62
     7
 10
136.006575
 20
-0.8926299999999999
 30
0.0
 40
3.9357000000000002
  1
VL1500R11
 41
0.5
 72
     1
 11
143.55000000000001
 21
-0.8926299999999999
 31
0.0
  0
TEXT
  5
441
  8
_________2
 62
     7
 10
24.5868
 20
0.707283
 30
0.0
 40
3.9357000000000002
  1
（社）日本水道協会認証品
 41
0.5
  0
TEXT
  5
442
  8
_________2
 62
     7
 10
109.179
 20
24.2257
 30
0.0
 40
3.9357000000000002
  1
ボラ　湯水混合栓
 41
0.5
  0
TEXT
  5
443
  8
_________2
 62
     7
 10
39.425300333333333
 20
13.603
 30
0.0
 40
3.6545800000000002
  1
早川
 41
0.5
 72
     1
 11
41.313499999999998
 21
13.603
 31
0.0
  0
TEXT
  5
444
  8
_________2
 62
     7
 10
20.790090666666661
 20
13.603
 30
0.0
 40
3.6545800000000002
  1
石原
 41
0.5
 72
     1
 11
22.7392
 21
13.603
 31
0.0
  0
TEXT
  5
445
  8
_________2
 62
     7
 10
67.785399999999996
 20
13.2179
 30
0.0
 40
3.6545800000000002
  1
16.01.25
 41
0.5
  0
TEXT
  5
446
  8
_________2
 62
     7
 10
66.593100000000007
 20
19.410799999999998
 30
0.0
 40
3.0923400000000001
  1
日付
 41
0.5
  0
TEXT
  5
447
  8
_________2
 62
     7
 10
29.639399999999998
 20
19.410799999999998
 30
0.0
 40
3.0923400000000001
  1
検図
 41
0.5
  0
TEXT
  5
448
  8
_________2
 62
     7
 10
18.021100000000001
 20
5.21143
 30
0.0
 40
3.0923400000000001
  1
備考
 41
0.5
  0
TEXT
  5
449
  8
_________2
 62
     7
 10
18.021100000000001
 20
19.410799999999998
 30
0.0
 40
3.0923400000000001
  1
製図
 41
0.5
  0
TEXT
  5
44A
  8
_________2
 62
     7
 10
23.788465333333338
 20
27.936800000000002
 30
0.0
 40
4.4979399999999989
  1
セラトレーディング株式会社
 41
0.5
 72
     1
 11
41.180500000000002
 21
27.936800000000002
 31
0.0
  0
LINE
  5
44B
  8
_________2
 62
     7
 10
183.55099999999999
 20
-4.0910799999999998
 30
0.0
 11
17.049499999999998
 21
-4.0910799999999998
 31
0.0
  0
LINE
  5
44C
  8
_________2
 62
     7
 10
17.049499999999998
 20
-4.0910799999999998
 30
0.0
 11
17.049499999999998
 21
258.911
 31
0.0
  0
LINE
  5
44D
  8
_________2
 62
     7
 10
17.049499999999998
 20
258.911
 30
0.0
 11
183.55099999999999
 21
258.911
 31
0.0
  0
LINE
  5
44E
  8
_________2
 62
     7
 10
183.55099999999999
 20
258.911
 30
0.0
 11
183.55099999999999
 21
-4.0910799999999998
 31
0.0
  0
LINE
  5
44F
  8
_________2
 62
     7
 10
65.549599999999998
 20
9.4089600000000004
 30
0.0
 11
65.549599999999998
 21
35.908799999999999
 31
0.0
  0
LINE
  5
450
  8
_________2
 62
     7
 10
84.549700000000016
 20
9.4089600000000004
 30
0.0
 11
84.549700000000016
 21
35.908799999999999
 31
0.0
  0
LINE
  5
451
  8
_________2
 62
     7
 10
103.55
 20
-4.0910799999999998
 30
0.0
 11
103.55
 21
35.908799999999999
 31
0.0
  0
LINE
  5
452
  8
_________2
 62
     7
 10
28.549299999999999
 20
9.4089600000000004
 30
0.0
 11
28.549299999999999
 21
23.409199999999998
 31
0.0
  0
LINE
  5
453
  8
_________2
 62
     7
 10
17.049499999999998
 20
9.4089600000000004
 30
0.0
 11
103.55
 21
9.4089600000000004
 31
0.0
  0
LINE
  5
454
  8
_________2
 62
     7
 10
17.049499999999998
 20
23.409199999999998
 30
0.0
 11
103.55
 21
23.409199999999998
 31
0.0
  0
LINE
  5
455
  8
_________2
 62
     7
 10
103.55
 20
15.9085
 30
0.0
 11
183.55099999999999
 21
15.9085
 31
0.0
  0
LINE
  5
456
  8
_________2
 62
     7
 10
17.049499999999998
 20
35.908799999999999
 30
0.0
 11
183.55099999999999
 21
35.908799999999999
 31
0.0
  0
ENDSEC
  0
EOF
