  0
SECTION
  2
HEADER
  9
$ACADVER
  1
AC1009
  9
$INSBASE
 10
0.0
 20
0.0
 30
0.0
  9
$EXTMIN
 10
-4.70052
 20
-21.071400000000001
 30
0.0
  9
$EXTMAX
 10
205.30099999999999
 20
275.93099999999998
 30
0.0
  9
$LIMMIN
 10
0.0
 20
0.0
  9
$LIMMAX
 10
12.0
 20
9.0
  9
$ORTHOMODE
 70
     0
  9
$REGENMODE
 70
     1
  9
$FILLMODE
 70
     1
  9
$QTEXTMODE
 70
     0
  9
$MIRRTEXT
 70
     1
  9
$DRAGMODE
 70
     2
  9
$LTSCALE
 40
1.0
  9
$OSMODE
 70
    37
  9
$ATTMODE
 70
     1
  9
$TEXTSIZE
 40
0.0
  9
$TRACEWID
 40
0.05
  9
$TEXTSTYLE
  7
STANDARD
  9
$CLAYER
  8
0
  9
$CELTYPE
  6
CONTINUOUS
  9
$CECOLOR
 62
   256
  9
$DIMSCALE
 40
1.0
  9
$DIMASZ
 40
0.18
  9
$DIMEXO
 40
0.0625
  9
$DIMDLI
 40
0.38
  9
$DIMRND
 40
0.0
  9
$DIMDLE
 40
0.0
  9
$DIMEXE
 40
0.18
  9
$DIMTP
 40
0.0
  9
$DIMTM
 40
0.0
  9
$DIMTXT
 40
0.18
  9
$DIMCEN
 40
0.09
  9
$DIMTSZ
 40
0.0
  9
$DIMTOL
 70
     0
  9
$DIMLIM
 70
     0
  9
$DIMTIH
 70
     1
  9
$DIMTOH
 70
     1
  9
$DIMSE1
 70
     0
  9
$DIMSE2
 70
     0
  9
$DIMTAD
 70
     0
  9
$DIMZIN
 70
     0
  9
$DIMBLK
  1

  9
$DIMASO
 70
     1
  9
$DIMSHO
 70
     1
  9
$DIMPOST
  1

  9
$DIMAPOST
  1

  9
$DIMALT
 70
     0
  9
$DIMALTD
 70
     2
  9
$DIMALTF
 40
25.399999999999999
  9
$DIMLFAC
 40
1.0
  9
$DIMTOFL
 70
     0
  9
$DIMTVP
 40
0.0
  9
$DIMTIX
 70
     0
  9
$DIMSOXD
 70
     0
  9
$DIMSAH
 70
     0
  9
$DIMBLK1
  1

  9
$DIMBLK2
  1

  9
$DIMSTYLE
  2
STANDARD
  9
$DIMCLRD
 70
     0
  9
$DIMCLRE
 70
     0
  9
$DIMCLRT
 70
     0
  9
$DIMTFAC
 40
1.0
  9
$DIMGAP
 40
0.09
  9
$LUNITS
 70
     2
  9
$LUPREC
 70
     4
  9
$SKETCHINC
 40
0.1
  9
$FILLETRAD
 40
0.0
  9
$AUNITS
 70
     0
  9
$AUPREC
 70
     0
  9
$MENU
  1
.
  9
$ELEVATION
 40
0.0
  9
$PELEVATION
 40
0.0
  9
$THICKNESS
 40
0.0
  9
$LIMCHECK
 70
     0
  9
$BLIPMODE
 70
     0
  9
$CHAMFERA
 40
0.0
  9
$CHAMFERB
 40
0.0
  9
$SKPOLY
 70
     0
  9
$TDCREATE
 40
2444972.375
  9
$TDUPDATE
 40
2457478.2549461811
  9
$TDINDWG
 40
0.0000300231
  9
$TDUSRTIMER
 40
0.0000300231
  9
$USRTIMER
 70
     1
  9
$ANGBASE
 50
0.0
  9
$ANGDIR
 70
     0
  9
$PDMODE
 70
     0
  9
$PDSIZE
 40
0.0
  9
$PLINEWID
 40
0.0
  9
$COORDS
 70
     1
  9
$SPLFRAME
 70
     0
  9
$SPLINETYPE
 70
     6
  9
$SPLINESEGS
 70
     8
  9
$ATTDIA
 70
     1
  9
$ATTREQ
 70
     1
  9
$HANDLING
 70
     1
  9
$HANDSEED
  5
60B
  9
$SURFTAB1
 70
     6
  9
$SURFTAB2
 70
     6
  9
$SURFTYPE
 70
     6
  9
$SURFU
 70
     6
  9
$SURFV
 70
     6
  9
$UCSNAME
  2

  9
$UCSORG
 10
0.0
 20
0.0
 30
0.0
  9
$UCSXDIR
 10
1.0
 20
0.0
 30
0.0
  9
$UCSYDIR
 10
0.0
 20
1.0
 30
0.0
  9
$PUCSNAME
  2

  9
$PUCSORG
 10
0.0
 20
0.0
 30
0.0
  9
$PUCSXDIR
 10
1.0
 20
0.0
 30
0.0
  9
$PUCSYDIR
 10
0.0
 20
1.0
 30
0.0
  9
$USERI1
 70
     0
  9
$USERI2
 70
     0
  9
$USERI3
 70
     0
  9
$USERI4
 70
     0
  9
$USERI5
 70
     0
  9
$USERR1
 40
0.0
  9
$USERR2
 40
0.0
  9
$USERR3
 40
0.0
  9
$USERR4
 40
0.0
  9
$USERR5
 40
0.0
  9
$WORLDVIEW
 70
     1
  9
$SHADEDGE
 70
     3
  9
$SHADEDIF
 70
    70
  9
$TILEMODE
 70
     1
  9
$MAXACTVP
 70
    48
  9
$PLIMCHECK
 70
     0
  9
$PEXTMIN
 10
1.0000000000000000E+020
 20
1.0000000000000000E+020
 30
1.0000000000000000E+020
  9
$PEXTMAX
 10
-1.0000000000000000E+020
 20
-1.0000000000000000E+020
 30
-1.0000000000000000E+020
  9
$PLIMMIN
 10
0.0
 20
0.0
  9
$PLIMMAX
 10
12.0
 20
9.0
  9
$UNITMODE
 70
     0
  9
$VISRETAIN
 70
     1
  9
$PLINEGEN
 70
     0
  9
$PSLTSCALE
 70
     1
  0
ENDSEC
  0
SECTION
  2
TABLES
  0
TABLE
  2
VPORT
 70
     1
  0
VPORT
  2
*ACTIVE
 70
     0
 10
0.0
 20
0.0
 11
1.0
 21
1.0
 12
173.0589517274982
 22
127.4298
 13
0.0
 23
0.0
 14
1.0
 24
1.0
 15
0.0
 25
0.0
 16
0.0
 26
0.0
 36
1.0
 17
0.0
 27
0.0
 37
0.0
 40
289.64168420534031
 41
2.1063583815028899
 42
50.0
 43
0.0
 44
0.0
 50
0.0
 51
0.0
 71
     0
 72
   100
 73
     1
 74
     1
 75
     0
 76
     0
 77
     0
 78
     0
  0
ENDTAB
  0
TABLE
  2
LTYPE
 70
     3
  0
LTYPE
  2
CONTINUOUS
 70
     0
  3
Solid line
 72
    65
 73
     0
 40
0.0
  0
LTYPE
  2
AIGENLINE001
 70
     0
  3
generate AI->DXF Converter
 72
    65
 73
     6
 40
7.4083750000000004
 49
3.5278
 49
-0.776115
 49
0.776115
 49
-0.776115
 49
0.776115
 49
-0.776115
  0
LTYPE
  2
AIGENLINE002
 70
     0
  3
generate AI->DXF Converter
 72
    65
 73
     4
 40
5.8561449999999988
 49
3.5278
 49
-0.776115
 49
0.776115
 49
-0.776115
  0
ENDTAB
  0
TABLE
  2
LAYER
 70
     2
  0
LAYER
  2
0
 70
     0
 62
     7
  6
CONTINUOUS
  0
LAYER
  2
_________2
 70
     0
 62
     7
  6
CONTINUOUS
  0
ENDTAB
  0
TABLE
  2
STYLE
 70
     1
  0
STYLE
  2
STANDARD
 70
     0
 40
0.0
 41
0.0
 50
0.0
 71
     0
 42
0.0
  3
TXT
  4
EXTFONT.SHX
  0
ENDTAB
  0
TABLE
  2
VIEW
 70
     0
  0
ENDTAB
  0
TABLE
  2
UCS
 70
     0
  0
ENDTAB
  0
TABLE
  2
APPID
 70
     3
  0
APPID
  2
ACAD
 70
     0
  0
APPID
  2
ACAD_NAV_VCDISPLAY
 70
     0
  0
APPID
  2
ACAD_MLEADERVER
 70
     0
  0
ENDTAB
  0
TABLE
  2
DIMSTYLE
 70
     1
  0
DIMSTYLE
  2
STANDARD
 70
     0
  3

  4

  5

  6

  7

 40
1.0
 41
0.18
 42
0.0625
 43
0.38
 44
0.18
 45
0.0
 46
0.0
 47
0.0
 48
0.0
140
0.18
141
0.09
142
0.0
143
25.399999999999999
144
1.0
145
0.0
146
1.0
147
0.09
 71
     0
 72
     0
 73
     1
 74
     1
 75
     0
 76
     0
 77
     0
 78
     0
170
     0
171
     2
172
     0
173
     0
174
     0
175
     0
176
     0
177
     0
178
     0
  0
ENDTAB
  0
ENDSEC
  0
SECTION
  2
BLOCKS
  0
BLOCK
  8
0
  2
$MODEL_SPACE
 70
     0
 10
0.0
 20
0.0
 30
0.0
  3
$MODEL_SPACE
  1

  0
ENDBLK
  5
1A
  8
0
  0
BLOCK
 67
     1
  8
0
  2
$PAPER_SPACE
 70
     0
 10
0.0
 20
0.0
 30
0.0
  3
$PAPER_SPACE
  1

  0
ENDBLK
  5
17
 67
     1
  8
0
  0
ENDSEC
  0
SECTION
  2
ENTITIES
  0
TEXT
  5
23
  8
0
 62
     7
 10
53.483199999999997
 20
216.477
 30
0.0
 40
3.0923400000000001
  1
VL300T
 41
0.5
  0
TEXT
  5
24
  8
0
 62
     7
 10
60.263199999999998
 20
177.565
 30
0.0
 40
3.0923400000000001
  1
VL028
 41
0.5
  0
TEXT
  5
25
  8
0
 62
     7
 10
34.140099999999997
 20
186.494
 30
0.0
 40
3.0923400000000001
  1
2.5
 50
90.0
 41
0.5
  0
TEXT
  5
26
  8
0
 62
     7
 10
34.140099999999997
 20
196.65937249999999
 30
0.0
 40
3.0923400000000001
  1
70
 50
90.0
 41
0.5
 72
     1
 11
34.140099999999997
 21
197.81899999999999
 31
0.0
  0
TEXT
  5
27
  8
0
 62
     7
 10
165.15830600000001
 20
83.357399999999984
 30
0.0
 40
3.0923400000000001
  1
28～54
 41
0.5
 72
     2
 11
172.68299999999999
 21
83.357399999999984
 31
0.0
  0
TEXT
  5
28
  8
0
 62
     7
 10
84.780597999999998
 20
82.482299999999995
 30
0.0
 40
3.0923400000000001
  1
G 1/2
 41
0.5
 72
     2
 11
90.862200000000001
 21
82.482299999999995
 31
0.0
  0
TEXT
  5
29
  8
0
 62
     7
 10
30.832599999999999
 20
105.747135
 30
0.0
 40
3.0923400000000001
  1
241
 50
90.0
 41
0.5
 72
     1
 11
30.832599999999999
 21
107.551
 31
0.0
  0
TEXT
  5
2A
  8
0
 62
     7
 10
64.912899999999993
 20
94.777900000000002
 30
0.0
 40
3.0923400000000001
  1
8.5
 50
90.0
 41
0.5
  0
TEXT
  5
2B
  8
0
 62
     7
 10
64.841200000000001
 20
119.27366000000001
 30
0.0
 40
3.0923400000000001
  1
8.5
 50
90.0
 41
0.5
 72
     2
 11
64.841200000000001
 21
122.366
 31
0.0
  0
TEXT
  5
2C
  8
0
 62
     7
 10
64.841200000000001
 20
107.429525
 30
0.0
 40
3.0923400000000001
  1
78
 50
90.0
 41
0.5
 72
     1
 11
64.841200000000001
 21
108.718
 31
0.0
  0
TEXT
  5
2D
  8
0
 62
     7
 10
36.470500000000001
 20
120.84552499999999
 30
0.0
 40
3.0923400000000001
  1
66
 50
90.0
 41
0.5
 72
     1
 11
36.470500000000001
 21
122.134
 31
0.0
  0
TEXT
  5
2E
  8
0
 62
     7
 10
36.470500000000001
 20
107.429525
 30
0.0
 40
3.0923400000000001
  1
95
 50
90.0
 41
0.5
 72
     1
 11
36.470500000000001
 21
108.718
 31
0.0
  0
TEXT
  5
2F
  8
0
 62
     7
 10
36.470500000000001
 20
92.974072500000005
 30
0.0
 40
3.0923400000000001
  1
80
 50
90.0
 41
0.5
 72
     1
 11
36.470500000000001
 21
94.133700000000005
 31
0.0
  0
TEXT
  5
30
  8
0
 62
     7
 10
46.485145000000003
 20
210.518
 30
0.0
 40
3.0923400000000001
  1
67.5
 41
0.5
 72
     1
 11
48.804400000000001
 21
210.518
 31
0.0
  0
TEXT
  5
31
  8
0
 62
     7
 10
74.163687500000009
 20
210.518
 30
0.0
 40
3.0923400000000001
  1
260
 41
0.5
 72
     1
 11
76.096400000000003
 21
210.518
 31
0.0
  0
TEXT
  5
32
  8
0
 62
     7
 10
101.891525
 20
210.518
 30
0.0
 40
3.0923400000000001
  1
65
 41
0.5
 72
     1
 11
103.18000000000001
 21
210.518
 31
0.0
  0
TEXT
  5
33
  8
0
 62
     7
 10
72.795659999999984
 20
138.16399999999999
 30
0.0
 40
3.0923400000000001
  1
392.5
 41
0.5
 72
     1
 11
75.888000000000005
 21
138.16399999999999
 31
0.0
  0
TEXT
  5
34
  8
0
 62
     7
 10
89.303254999999993
 20
132.89500000000001
 30
0.0
 40
3.0923400000000001
  1
197.5
 41
0.5
 72
     1
 11
92.137900000000016
 21
132.89500000000001
 31
0.0
  0
TEXT
  5
35
  8
0
 62
     7
 10
57.625834999999988
 20
132.89500000000001
 30
0.0
 40
3.0923400000000001
  1
195
 41
0.5
 72
     1
 11
59.42969999999999
 21
132.89500000000001
 31
0.0
  0
TEXT
  5
36
  8
0
 62
     7
 10
74.391124999999988
 20
77.706699999999984
 30
0.0
 40
3.0923400000000001
  1
54
 41
0.5
 72
     1
 11
75.679599999999994
 21
77.706699999999984
 31
0.0
  0
TEXT
  5
37
  8
0
 62
     7
 10
145.09426999999999
 20
70.342399999999998
 30
0.0
 40
3.0923400000000001
  1
max.15
 41
0.5
 72
     1
 11
148.702
 21
70.342399999999998
 31
0.0
  0
TEXT
  5
38
  8
0
 62
     7
 10
152.7418055
 20
77.801400000000001
 30
0.0
 40
3.0923400000000001
  1
75～101
 41
0.5
 72
     1
 11
156.6329999999999
 21
77.801400000000001
 31
0.0
  0
TEXT
  5
39
  8
0
 62
     7
 10
139.05983000000001
 20
77.801400000000001
 30
0.0
 40
3.0923400000000001
  1
100
 41
0.5
 72
     1
 11
140.60599999999999
 21
77.801400000000001
 31
0.0
  0
TEXT
  5
3A
  8
0
 62
     7
 10
141.233
 20
106.85127
 30
0.0
 40
3.0923400000000001
  1
%%c19
 50
90.0
 41
0.5
 72
     2
 11
141.233
 21
110.459
 31
0.0
  0
TEXT
  5
3B
  8
0
 62
     7
 10
125.205
 20
95.280225000000002
 30
0.0
 40
3.0923400000000001
  1
67
 50
90.0
 41
0.5
 72
     1
 11
125.205
 21
96.568700000000007
 31
0.0
  0
TEXT
  5
3C
  8
0
 62
     7
 10
117.443
 20
193.5818055
 30
0.0
 40
3.0923400000000001
  1
75～101
 50
90.0
 41
0.5
 72
     1
 11
117.443
 21
197.47300000000001
 31
0.0
  0
TEXT
  5
3D
  8
0
 62
     7
 10
129.90152
 20
185.541
 30
0.0
 40
3.0923400000000001
  1
壁仕上厚：max.15
 41
0.5
 72
     2
 11
146.39400000000001
 21
185.541
 31
0.0
  0
TEXT
  5
3E
  8
0
 62
     7
 10
84.141159999999985
 20
172.626
 30
0.0
 40
3.0923400000000001
  1
VL010P
 41
0.5
 72
     2
 11
92.387399999999985
 21
172.626
 31
0.0
  0
TEXT
  5
3F
  8
0
 62
     7
 10
137.14699999999999
 20
92.582700000000017
 30
0.0
 40
3.0923400000000001
  1
VL001
 41
0.5
  0
TEXT
  5
40
  8
0
 62
     7
 10
134.34999999999999
 20
128.572
 30
0.0
 40
3.0923400000000001
  1
VL3001
 41
0.5
  0
TEXT
  5
41
  8
0
 62
     7
 10
64.360500000000002
 20
185.376
 30
0.0
 40
3.0923400000000001
  1
%%c60
 41
0.5
  0
LINE
  5
42
  8
0
 62
     7
 10
73.846299999999999
 20
196.33500000000001
 30
0.0
 11
74.152900000000002
 21
194.84
 31
0.0
  0
LINE
  5
43
  8
0
 62
     7
 10
74.152900000000002
 20
194.84
 30
0.0
 11
73.140000000000001
 21
195.982
 31
0.0
  0
LINE
  5
44
  8
0
 62
     7
 10
73.140000000000001
 20
195.982
 30
0.0
 11
73.846299999999999
 21
196.33500000000001
 31
0.0
  0
LINE
  5
45
  8
0
 62
     7
 10
63.694499999999998
 20
215.761
 30
0.0
 11
74.159400000000005
 21
194.84299999999999
 31
0.0
  0
LINE
  5
46
  8
0
 62
     7
 10
63.694499999999998
 20
215.761
 30
0.0
 11
53.440800000000003
 21
215.761
 31
0.0
  0
ARC
  5
47
  8
0
 62
     7
 10
106.997434
 20
102.44123500000001
 30
0.0
 40
0.432636
 50
272.097148
 51
357.90286200000003
  0
ARC
  5
48
  8
0
 62
     7
 10
106.996737
 20
102.40958999999999
 30
0.0
 40
0.4333330000000001
 50
2.091345
 51
87.813941999999983
  0
ARC
  5
49
  8
0
 62
     7
 10
102.029239
 20
102.40989
 30
0.0
 40
0.433008
 50
92.100544999999997
 51
177.94675799999999
  0
ARC
  5
4A
  8
0
 62
     7
 10
102.028876
 20
102.44126900000001
 30
0.0
 40
0.4326590000000001
 50
182.10155700000001
 51
267.94584400000002
  0
LINE
  5
4B
  8
0
 62
     7
 10
102.01300000000001
 20
102.009
 30
0.0
 11
107.01300000000001
 21
102.009
 31
0.0
  0
LINE
  5
4C
  8
0
 62
     7
 10
102.01300000000001
 20
102.843
 30
0.0
 11
107.01300000000001
 21
102.843
 31
0.0
  0
ARC
  5
4D
  8
0
 62
     7
 10
102.696156
 20
111.242499
 30
0.0
 40
0.4333330000000001
 50
92.091335000000015
 51
177.81393199999999
  0
ARC
  5
4E
  8
0
 62
     7
 10
102.66451000000001
 20
111.243197
 30
0.0
 40
0.432636
 50
2.0971380000000002
 51
87.902851999999996
  0
ARC
  5
4F
  8
0
 62
     7
 10
102.695508
 20
106.27500999999999
 30
0.0
 40
0.432661
 50
182.10347999999991
 51
267.99125299999997
  0
ARC
  5
50
  8
0
 62
     7
 10
102.6645
 20
106.27497099999999
 30
0.0
 40
0.432646
 50
272.09839499999998
 51
357.90161499999999
  0
LINE
  5
51
  8
0
 62
     7
 10
102.26300000000001
 20
106.259
 30
0.0
 11
102.26300000000001
 21
111.259
 31
0.0
  0
LINE
  5
52
  8
0
 62
     7
 10
103.09699999999999
 20
106.259
 30
0.0
 11
103.09699999999999
 21
111.259
 31
0.0
  0
ARC
  5
53
  8
0
 62
     7
 10
106.02898
 20
111.243197
 30
0.0
 40
0.432636
 50
92.097110999999984
 51
177.90285900000001
  0
ARC
  5
54
  8
0
 62
     7
 10
105.99764999999999
 20
111.243172
 30
0.0
 40
0.432649
 50
2.1003080000000001
 51
87.947054000000009
  0
ARC
  5
55
  8
0
 62
     7
 10
106.02898
 20
106.274962
 30
0.0
 40
0.432636
 50
182.09714099999999
 51
267.90288900000002
  0
ARC
  5
56
  8
0
 62
     7
 10
105.997326
 20
106.27531
 30
0.0
 40
0.4329840000000001
 50
272.09424899999999
 51
357.85838999999999
  0
LINE
  5
57
  8
0
 62
     7
 10
105.59699999999999
 20
106.259
 30
0.0
 11
105.59699999999999
 21
111.259
 31
0.0
  0
LINE
  5
58
  8
0
 62
     7
 10
106.43000000000001
 20
106.259
 30
0.0
 11
106.43000000000001
 21
111.259
 31
0.0
  0
ARC
  5
59
  8
0
 62
     7
 10
106.997086
 20
115.076588
 30
0.0
 40
0.4329840000000001
 50
2.0942389999999991
 51
87.858380000000011
  0
ARC
  5
5A
  8
0
 62
     7
 10
106.99741
 20
115.10790900000001
 30
0.0
 40
0.432649
 50
272.10031800000002
 51
357.94706400000001
  0
ARC
  5
5B
  8
0
 62
     7
 10
102.029214
 20
115.076564
 30
0.0
 40
0.432996
 50
92.097378000000006
 51
177.902592
  0
ARC
  5
5C
  8
0
 62
     7
 10
102.029214
 20
115.10825699999999
 30
0.0
 40
0.432996
 50
182.097408
 51
267.90262200000001
  0
LINE
  5
5D
  8
0
 62
     7
 10
102.01300000000001
 20
115.509
 30
0.0
 11
107.01300000000001
 21
115.509
 31
0.0
  0
LINE
  5
5E
  8
0
 62
     7
 10
102.01300000000001
 20
114.676
 30
0.0
 11
107.01300000000001
 21
114.676
 31
0.0
  0
LINE
  5
5F
  8
0
 62
     7
 10
108.59699999999999
 20
101.676
 30
0.0
 11
107.76300000000001
 21
100.843
 31
0.0
  0
LINE
  5
60
  8
0
 62
     7
 10
108.59699999999999
 20
103.759
 30
0.0
 11
108.59699999999999
 21
101.676
 31
0.0
  0
LINE
  5
61
  8
0
 62
     7
 10
108.59699999999999
 20
103.759
 30
0.0
 11
107.26300000000001
 21
105.009
 31
0.0
  0
LINE
  5
62
  8
0
 62
     7
 10
108.59699999999999
 20
113.759
 30
0.0
 11
107.26300000000001
 21
112.509
 31
0.0
  0
LINE
  5
63
  8
0
 62
     7
 10
108.59699999999999
 20
115.842
 30
0.0
 11
107.76300000000001
 21
116.676
 31
0.0
  0
LINE
  5
64
  8
0
 62
     7
 10
107.26300000000001
 20
105.009
 30
0.0
 11
107.26300000000001
 21
112.509
 31
0.0
  0
LINE
  5
65
  8
0
 62
     7
 10
108.59699999999999
 20
113.759
 30
0.0
 11
108.59699999999999
 21
115.842
 31
0.0
  0
LINE
  5
66
  8
0
 62
     7
 10
44.012799999999991
 20
104.55
 30
0.0
 11
43.679399999999987
 21
104.55
 31
0.0
  0
ARC
  5
67
  8
0
 62
     7
 10
43.993425999999992
 20
105.069908
 30
0.0
 40
0.5199150000000001
 50
272.13017400000001
 51
357.86983600000002
  0
LINE
  5
68
  8
0
 62
     7
 10
43.179400000000001
 20
104.051
 30
0.0
 11
43.179400000000001
 21
101.634
 31
0.0
  0
ARC
  5
69
  8
0
 62
     7
 10
44.04440499999999
 20
115.768715
 30
0.0
 40
0.86562
 50
92.095660999999993
 51
177.880619
  0
ARC
  5
6A
  8
0
 62
     7
 10
44.045150999999997
 20
101.66610900000001
 30
0.0
 40
0.8660219999999999
 50
182.12083100000001
 51
267.86735499999998
  0
ARC
  5
6B
  8
0
 62
     7
 10
43.698721999999989
 20
104.030987
 30
0.0
 40
0.5197230000000001
 50
92.126634999999993
 51
177.81409400000001
  0
LINE
  5
6C
  8
0
 62
     7
 10
44.512999999999998
 20
105.051
 30
0.0
 11
44.512999999999998
 21
112.384
 31
0.0
  0
LINE
  5
6D
  8
0
 62
     7
 10
44.012900000000002
 20
112.884
 30
0.0
 11
43.679399999999987
 21
112.884
 31
0.0
  0
ARC
  5
6E
  8
0
 62
     7
 10
44.01283699999999
 20
112.383945
 30
0.0
 40
0.500145
 50
359.99014299999999
 51
89.990113000000008
  0
LINE
  5
6F
  8
0
 62
     7
 10
43.179400000000001
 20
113.384
 30
0.0
 11
43.179400000000001
 21
115.801
 31
0.0
  0
ARC
  5
70
  8
0
 62
     7
 10
43.698573999999986
 20
113.403294
 30
0.0
 40
0.5195560000000001
 50
182.13073399999999
 51
267.88903599999998
  0
ARC
  5
71
  8
0
 62
     7
 10
44.778976999999998
 20
102.399941
 30
0.0
 40
0.433043
 50
182.14711800000001
 51
267.852912
  0
ARC
  5
72
  8
0
 62
     7
 10
44.778633999999997
 20
102.36855199999999
 30
0.0
 40
0.432661
 50
92.103450999999993
 51
177.99122299999999
  0
ARC
  5
73
  8
0
 62
     7
 10
49.747002000000002
 20
102.399719
 30
0.0
 40
0.4328050000000001
 50
272.09507500000001
 51
357.88124399999998
  0
ARC
  5
74
  8
0
 62
     7
 10
49.746462000000001
 20
102.367892
 30
0.0
 40
0.433338
 50
2.092925999999999
 51
87.836050999999998
  0
LINE
  5
75
  8
0
 62
     7
 10
49.763000000000012
 20
101.967
 30
0.0
 11
44.762799999999999
 21
101.967
 31
0.0
  0
LINE
  5
76
  8
0
 62
     7
 10
49.763000000000012
 20
102.801
 30
0.0
 11
44.762799999999999
 21
102.801
 31
0.0
  0
ARC
  5
77
  8
0
 62
     7
 10
49.080528999999999
 20
111.201499
 30
0.0
 40
0.4326420000000001
 50
2.0987230000000001
 51
87.92495799999999
  0
ARC
  5
78
  8
0
 62
     7
 10
49.112015999999997
 20
111.201342
 30
0.0
 40
0.4328050000000001
 50
92.095038000000002
 51
177.88124099999999
  0
ARC
  5
79
  8
0
 62
     7
 10
49.111859000000003
 20
106.233288
 30
0.0
 40
0.4326420000000001
 50
182.098726
 51
267.92499500000002
  0
ARC
  5
7A
  8
0
 62
     7
 10
49.08037199999999
 20
106.233445
 30
0.0
 40
0.4328050000000001
 50
272.09507500000001
 51
357.88124399999998
  0
LINE
  5
7B
  8
0
 62
     7
 10
49.512900000000002
 20
106.217
 30
0.0
 11
49.512900000000002
 21
111.217
 31
0.0
  0
LINE
  5
7C
  8
0
 62
     7
 10
48.679499999999997
 20
106.217
 30
0.0
 11
48.679499999999997
 21
111.217
 31
0.0
  0
ARC
  5
7D
  8
0
 62
     7
 10
45.747039000000001
 20
111.201511
 30
0.0
 40
0.432636
 50
2.0971380000000002
 51
87.902851999999996
  0
ARC
  5
7E
  8
0
 62
     7
 10
45.77869299999999
 20
111.201342
 30
0.0
 40
0.4328050000000001
 50
92.095038000000002
 51
177.88124099999999
  0
ARC
  5
7F
  8
0
 62
     7
 10
45.778536000000003
 20
106.233288
 30
0.0
 40
0.4326420000000001
 50
182.098726
 51
267.92499500000002
  0
ARC
  5
80
  8
0
 62
     7
 10
45.747039000000001
 20
106.233276
 30
0.0
 40
0.432636
 50
272.097148
 51
357.90286200000003
  0
LINE
  5
81
  8
0
 62
     7
 10
46.179399999999987
 20
106.217
 30
0.0
 11
46.179399999999987
 21
111.217
 31
0.0
  0
LINE
  5
82
  8
0
 62
     7
 10
45.346200000000003
 20
106.217
 30
0.0
 11
45.346200000000003
 21
111.217
 31
0.0
  0
ARC
  5
83
  8
0
 62
     7
 10
44.778584999999993
 20
115.034893
 30
0.0
 40
0.432636
 50
92.097110999999984
 51
177.90285900000001
  0
ARC
  5
84
  8
0
 62
     7
 10
44.77932599999999
 20
115.06694
 30
0.0
 40
0.433391
 50
182.144226
 51
267.80843299999998
  0
ARC
  5
85
  8
0
 62
     7
 10
49.746977000000001
 20
115.06639300000001
 30
0.0
 40
0.432817
 50
272.09824300000002
 51
357.92544700000002
  0
ARC
  5
86
  8
0
 62
     7
 10
49.747159000000003
 20
115.034881
 30
0.0
 40
0.4326420000000001
 50
2.0987230000000001
 51
87.92495799999999
  0
LINE
  5
87
  8
0
 62
     7
 10
49.763000000000012
 20
115.467
 30
0.0
 11
44.762799999999999
 21
115.467
 31
0.0
  0
LINE
  5
88
  8
0
 62
     7
 10
49.763000000000012
 20
114.634
 30
0.0
 11
44.762799999999999
 21
114.634
 31
0.0
  0
LINE
  5
89
  8
0
 62
     7
 10
150.77000000000001
 20
104.926
 30
0.0
 11
151.18600000000001
 21
104.926
 31
0.0
  0
LINE
  5
8A
  8
0
 62
     7
 10
150.77000000000001
 20
103.675
 30
0.0
 11
151.18600000000001
 21
103.675
 31
0.0
  0
LINE
  5
8B
  8
0
 62
     7
 10
150.77000000000001
 20
101.592
 30
0.0
 11
151.18600000000001
 21
101.592
 31
0.0
  0
LINE
  5
8C
  8
0
 62
     7
 10
150.77000000000001
 20
112.509
 30
0.0
 11
151.18600000000001
 21
112.509
 31
0.0
  0
LINE
  5
8D
  8
0
 62
     7
 10
150.77000000000001
 20
113.759
 30
0.0
 11
151.18600000000001
 21
113.759
 31
0.0
  0
LINE
  5
8E
  8
0
 62
     7
 10
150.77000000000001
 20
115.842
 30
0.0
 11
151.18600000000001
 21
115.842
 31
0.0
  0
LINE
  5
8F
  8
0
 62
     7
 10
68.205100000000002
 20
176.86500000000001
 30
0.0
 11
60.263199999999998
 21
176.86500000000001
 31
0.0
  0
LINE
  5
90
  8
0
 62
     7
 10
72.049800000000005
 20
181.80799999999999
 30
0.0
 11
73.321100000000001
 21
182.65199999999999
 31
0.0
  0
LINE
  5
91
  8
0
 62
     7
 10
73.321100000000001
 20
182.65199999999999
 30
0.0
 11
72.641999999999996
 21
181.285
 31
0.0
  0
LINE
  5
92
  8
0
 62
     7
 10
72.641999999999996
 20
181.285
 30
0.0
 11
72.049800000000005
 21
181.80799999999999
 31
0.0
  0
LINE
  5
93
  8
0
 62
     7
 10
72.838000000000008
 20
189.48500000000001
 30
0.0
 11
72.838000000000008
 21
191.452
 31
0.0
  0
LINE
  5
94
  8
0
 62
     7
 10
72.712999999999994
 20
189.48500000000001
 30
0.0
 11
72.712999999999994
 21
191.452
 31
0.0
  0
LINE
  5
95
  8
0
 62
     7
 10
78.537999999999997
 20
189.48500000000001
 30
0.0
 11
78.537999999999997
 21
191.452
 31
0.0
  0
LINE
  5
96
  8
0
 62
     7
 10
78.6631
 20
189.48500000000001
 30
0.0
 11
78.6631
 21
191.452
 31
0.0
  0
ARC
  5
97
  8
0
 62
     7
 10
78.839363000000006
 20
182.82556199999999
 30
0.0
 40
0.173852
 50
272.29735199999999
 51
357.70265799999999
  0
ARC
  5
98
  8
0
 62
     7
 10
72.519796999999997
 20
182.82556199999999
 30
0.0
 40
0.173852
 50
182.29736199999999
 51
267.70266800000002
  0
LINE
  5
99
  8
0
 62
     7
 10
72.346100000000007
 20
188.90199999999999
 30
0.0
 11
79.013099999999994
 21
188.90199999999999
 31
0.0
  0
LINE
  5
9A
  8
0
 62
     7
 10
74.637799999999984
 20
184.31899999999999
 30
0.0
 11
76.721400000000003
 21
184.31899999999999
 31
0.0
  0
LINE
  5
9B
  8
0
 62
     7
 10
72.512799999999999
 20
182.65199999999999
 30
0.0
 11
78.846299999999999
 21
182.65199999999999
 31
0.0
  0
LINE
  5
9C
  8
0
  6
AIGENLINE002
 62
     7
 10
74.114099999999993
 20
183.48500000000001
 30
0.0
 11
77.150300000000001
 21
183.48500000000001
 31
0.0
  0
LINE
  5
9D
  8
0
 62
     7
 10
79.013099999999994
 20
182.81899999999999
 30
0.0
 11
79.013099999999994
 21
188.90199999999999
 31
0.0
  0
LINE
  5
9E
  8
0
 62
     7
 10
72.346100000000007
 20
182.81899999999999
 30
0.0
 11
72.346100000000007
 21
188.90199999999999
 31
0.0
  0
ARC
  5
9F
  8
0
 62
     7
 10
75.657681999999994
 20
183.507485
 30
0.0
 40
0.605917
 50
272.07117499999998
 51
357.87807900000001
  0
ARC
  5
A0
  8
0
 62
     7
 10
75.701582000000002
 20
183.50723099999999
 30
0.0
 40
0.6056660000000002
 50
182.098737
 51
267.91821599999997
  0
ARC
  5
A1
  8
0
 62
     7
 10
75.702159999999992
 20
183.46265
 30
0.0
 40
0.6062520000000001
 50
92.134481000000022
 51
177.882408
  0
ARC
  5
A2
  8
0
 62
     7
 10
75.657562999999996
 20
183.46285499999999
 30
0.0
 40
0.6060260000000001
 50
2.098916
 51
87.917987999999994
  0
LINE
  5
A3
  8
0
 62
     7
 10
74.637799999999984
 20
184.31899999999999
 30
0.0
 11
74.637799999999984
 21
182.65199999999999
 31
0.0
  0
LINE
  5
A4
  8
0
 62
     7
 10
76.721400000000003
 20
184.31899999999999
 30
0.0
 11
76.721400000000003
 21
182.65199999999999
 31
0.0
  0
LINE
  5
A5
  8
0
 62
     7
 10
70.679299999999998
 20
189.48500000000001
 30
0.0
 11
70.679299999999998
 21
189.23500000000001
 31
0.0
  0
LINE
  5
A6
  8
0
 62
     7
 10
70.679299999999998
 20
189.48500000000001
 30
0.0
 11
80.679500000000004
 21
189.48500000000001
 31
0.0
  0
LINE
  5
A7
  8
0
 62
     7
 10
80.679500000000004
 20
189.48500000000001
 30
0.0
 11
80.679500000000004
 21
189.23500000000001
 31
0.0
  0
LINE
  5
A8
  8
0
 62
     7
 10
70.679299999999998
 20
189.23500000000001
 30
0.0
 11
80.679500000000004
 21
189.23500000000001
 31
0.0
  0
LINE
  5
A9
  8
0
 62
     7
 10
78.476299999999995
 20
189.23500000000001
 30
0.0
 11
78.476299999999995
 21
188.90199999999999
 31
0.0
  0
LINE
  5
AA
  8
0
 62
     7
 10
72.814599999999999
 20
189.23500000000001
 30
0.0
 11
72.814599999999999
 21
188.90199999999999
 31
0.0
  0
LINE
  5
AB
  8
0
 62
     7
 10
68.205100000000002
 20
176.86500000000001
 30
0.0
 11
60.263199999999998
 21
176.86500000000001
 31
0.0
  0
LINE
  5
AC
  8
0
 62
     7
 10
72.049800000000005
 20
181.80799999999999
 30
0.0
 11
73.321100000000001
 21
182.65199999999999
 31
0.0
  0
LINE
  5
AD
  8
0
 62
     7
 10
73.321100000000001
 20
182.65199999999999
 30
0.0
 11
72.641999999999996
 21
181.285
 31
0.0
  0
LINE
  5
AE
  8
0
 62
     7
 10
72.641999999999996
 20
181.285
 30
0.0
 11
72.049800000000005
 21
181.80799999999999
 31
0.0
  0
LINE
  5
AF
  8
0
 62
     7
 10
68.205100000000002
 20
176.86500000000001
 30
0.0
 11
73.3155
 21
182.65700000000001
 31
0.0
  0
LINE
  5
B0
  8
0
 62
     7
 10
72.838000000000008
 20
189.48500000000001
 30
0.0
 11
72.838000000000008
 21
191.23500000000001
 31
0.0
  0
LINE
  5
B1
  8
0
 62
     7
 10
72.712999999999994
 20
189.48500000000001
 30
0.0
 11
72.712999999999994
 21
191.23500000000001
 31
0.0
  0
LINE
  5
B2
  8
0
 62
     7
 10
78.537999999999997
 20
189.48500000000001
 30
0.0
 11
78.537999999999997
 21
191.23500000000001
 31
0.0
  0
LINE
  5
B3
  8
0
 62
     7
 10
78.6631
 20
189.48500000000001
 30
0.0
 11
78.6631
 21
191.23500000000001
 31
0.0
  0
ARC
  5
B4
  8
0
 62
     7
 10
78.839363000000006
 20
182.82556199999999
 30
0.0
 40
0.173852
 50
272.29735199999999
 51
357.70265799999999
  0
ARC
  5
B5
  8
0
 62
     7
 10
72.519796999999997
 20
182.82556199999999
 30
0.0
 40
0.173852
 50
182.29736199999999
 51
267.70266800000002
  0
LINE
  5
B6
  8
0
 62
     7
 10
72.346100000000007
 20
188.90199999999999
 30
0.0
 11
79.013099999999994
 21
188.90199999999999
 31
0.0
  0
LINE
  5
B7
  8
0
 62
     7
 10
74.637799999999984
 20
184.31899999999999
 30
0.0
 11
76.721400000000003
 21
184.31899999999999
 31
0.0
  0
LINE
  5
B8
  8
0
 62
     7
 10
72.512799999999999
 20
182.65199999999999
 30
0.0
 11
78.846299999999999
 21
182.65199999999999
 31
0.0
  0
LINE
  5
B9
  8
0
  6
AIGENLINE002
 62
     7
 10
74.114099999999993
 20
183.48500000000001
 30
0.0
 11
77.150300000000001
 21
183.48500000000001
 31
0.0
  0
LINE
  5
BA
  8
0
 62
     7
 10
79.013099999999994
 20
182.81899999999999
 30
0.0
 11
79.013099999999994
 21
188.90199999999999
 31
0.0
  0
LINE
  5
BB
  8
0
 62
     7
 10
72.346100000000007
 20
182.81899999999999
 30
0.0
 11
72.346100000000007
 21
188.90199999999999
 31
0.0
  0
ARC
  5
BC
  8
0
 62
     7
 10
75.657681999999994
 20
183.507485
 30
0.0
 40
0.605917
 50
272.07117499999998
 51
357.87807900000001
  0
ARC
  5
BD
  8
0
 62
     7
 10
75.701582000000002
 20
183.50723099999999
 30
0.0
 40
0.6056660000000002
 50
182.098737
 51
267.91821599999997
  0
ARC
  5
BE
  8
0
 62
     7
 10
75.702159999999992
 20
183.46265
 30
0.0
 40
0.6062520000000001
 50
92.134481000000022
 51
177.882408
  0
ARC
  5
BF
  8
0
 62
     7
 10
75.657562999999996
 20
183.46285499999999
 30
0.0
 40
0.6060260000000001
 50
2.098916
 51
87.917987999999994
  0
LINE
  5
C0
  8
0
 62
     7
 10
74.637799999999984
 20
184.31899999999999
 30
0.0
 11
74.637799999999984
 21
182.65199999999999
 31
0.0
  0
LINE
  5
C1
  8
0
 62
     7
 10
76.721400000000003
 20
184.31899999999999
 30
0.0
 11
76.721400000000003
 21
182.65199999999999
 31
0.0
  0
LINE
  5
C2
  8
0
 62
     7
 10
70.679299999999998
 20
189.48500000000001
 30
0.0
 11
70.679299999999998
 21
189.23500000000001
 31
0.0
  0
LINE
  5
C3
  8
0
 62
     7
 10
70.679299999999998
 20
189.48500000000001
 30
0.0
 11
80.679500000000004
 21
189.48500000000001
 31
0.0
  0
LINE
  5
C4
  8
0
 62
     7
 10
80.679500000000004
 20
189.48500000000001
 30
0.0
 11
80.679500000000004
 21
189.23500000000001
 31
0.0
  0
LINE
  5
C5
  8
0
 62
     7
 10
70.679299999999998
 20
189.23500000000001
 30
0.0
 11
80.679500000000004
 21
189.23500000000001
 31
0.0
  0
LINE
  5
C6
  8
0
 62
     7
 10
78.476299999999995
 20
189.23500000000001
 30
0.0
 11
78.476299999999995
 21
188.90199999999999
 31
0.0
  0
LINE
  5
C7
  8
0
 62
     7
 10
72.814599999999999
 20
189.23500000000001
 30
0.0
 11
72.814599999999999
 21
188.90199999999999
 31
0.0
  0
LINE
  5
C8
  8
0
 62
     7
 10
34.445
 20
193.459
 30
0.0
 11
34.8401
 21
191.98500000000001
 31
0.0
  0
LINE
  5
C9
  8
0
 62
     7
 10
34.8401
 20
191.98500000000001
 30
0.0
 11
35.235300000000002
 21
193.459
 31
0.0
  0
LINE
  5
CA
  8
0
 62
     7
 10
35.235300000000002
 20
193.459
 30
0.0
 11
34.445
 21
193.459
 31
0.0
  0
LINE
  5
CB
  8
0
 62
     7
 10
35.235300000000002
 20
190.09399999999999
 30
0.0
 11
34.8401
 21
191.56899999999999
 31
0.0
  0
LINE
  5
CC
  8
0
 62
     7
 10
34.8401
 20
191.56899999999999
 30
0.0
 11
34.445
 21
190.09399999999999
 31
0.0
  0
LINE
  5
CD
  8
0
 62
     7
 10
34.445
 20
190.09399999999999
 30
0.0
 11
35.235300000000002
 21
190.09399999999999
 31
0.0
  0
LINE
  5
CE
  8
0
 62
     7
 10
35.227699999999999
 20
202.178
 30
0.0
 11
34.832900000000002
 21
203.65199999999999
 31
0.0
  0
LINE
  5
CF
  8
0
 62
     7
 10
34.832900000000002
 20
203.65199999999999
 30
0.0
 11
34.4377
 21
202.178
 31
0.0
  0
LINE
  5
D0
  8
0
 62
     7
 10
34.4377
 20
202.178
 30
0.0
 11
35.227699999999999
 21
202.178
 31
0.0
  0
LINE
  5
D1
  8
0
 62
     7
 10
34.8401
 20
186.494
 30
0.0
 11
34.8401
 21
203.65199999999999
 31
0.0
  0
LINE
  5
D2
  8
0
 62
     7
 10
42.530000000000001
 20
191.98500000000001
 30
0.0
 11
34.490099999999998
 21
191.98500000000001
 31
0.0
  0
LINE
  5
D3
  8
0
 62
     7
 10
42.530000000000001
 20
191.56899999999999
 30
0.0
 11
34.490099999999998
 21
191.56899999999999
 31
0.0
  0
LINE
  5
D4
  8
0
  6
AIGENLINE001
 62
     7
 10
113.31999999999999
 20
191.15199999999999
 30
0.0
 11
56.198799999999999
 21
191.15199999999999
 31
0.0
  0
LINE
  5
D5
  8
0
  6
AIGENLINE001
 62
     7
 10
113.31999999999999
 20
189.48500000000001
 30
0.0
 11
56.198799999999999
 21
189.48500000000001
 31
0.0
  0
LINE
  5
D6
  8
0
 62
     7
 10
57.080399999999997
 20
203.65199999999999
 30
0.0
 11
34.490099999999998
 21
203.65199999999999
 31
0.0
  0
ARC
  5
D7
  8
0
 62
     7
 10
76.089854000000003
 20
122.543815
 30
0.0
 40
0.173454
 50
2.1758459999999991
 51
87.824143999999976
  0
ARC
  5
D8
  8
0
 62
     7
 10
75.269650999999996
 20
122.543815
 30
0.0
 40
0.173454
 50
92.175836000000004
 51
177.82413399999999
  0
ARC
  5
D9
  8
0
 62
     7
 10
75.679579000000004
 20
115.217124
 30
0.0
 40
3.3334959999999989
 50
270.00002000000001
 51
359.99999000000003
  0
ARC
  5
DA
  8
0
 62
     7
 10
75.679752000000008
 20
115.21695099999999
 30
0.0
 40
3.333323
 50
179.99700899999999
 51
269.99705899999998
  0
ARC
  5
DB
  8
0
 62
     7
 10
75.807085999999998
 20
115.08926
 30
0.0
 40
3.4630190000000001
 50
92.110064000000023
 51
177.883984
  0
ARC
  5
DC
  8
0
 62
     7
 10
75.552149
 20
115.088978
 30
0.0
 40
3.463298
 50
2.120495
 51
87.891339000000016
  0
LINE
  5
DD
  8
0
 62
     7
 10
74.638099999999994
 20
118.384
 30
0.0
 11
74.638099999999994
 21
112.05
 31
0.0
  0
LINE
  5
DE
  8
0
 62
     7
 10
76.721400000000003
 20
118.384
 30
0.0
 11
76.721400000000003
 21
112.05
 31
0.0
  0
LINE
  5
DF
  8
0
 62
     7
 10
75.096299999999999
 20
122.55
 30
0.0
 11
75.096299999999999
 21
118.499
 31
0.0
  0
LINE
  5
E0
  8
0
 62
     7
 10
76.263199999999983
 20
122.55
 30
0.0
 11
76.263199999999983
 21
118.499
 31
0.0
  0
LINE
  5
E1
  8
0
 62
     7
 10
75.263099999999994
 20
122.717
 30
0.0
 11
76.096400000000003
 21
122.717
 31
0.0
  0
ARC
  5
E2
  8
0
 62
     7
 10
75.514847000000003
 20
115.07070899999999
 30
0.0
 40
5.1666879999999988
 50
1.6162289999999999
 51
81.672052000000008
  0
ARC
  5
E3
  8
0
 62
     7
 10
75.679750999999996
 20
115.21660799999999
 30
0.0
 40
4.999727
 50
269.99804599999999
 51
359.99801600000001
  0
ARC
  5
E4
  8
0
 62
     7
 10
75.679234999999991
 20
115.21677800000001
 30
0.0
 40
4.9998979999999991
 50
180.00395800000001
 51
270.0039680000001
  0
ARC
  5
E5
  8
0
 62
     7
 10
75.853084999999993
 20
115.063209
 30
0.0
 40
5.1760159999999997
 50
98.40709200000002
 51
178.30360400000001
  0
ARC
  5
E6
  8
0
 62
     7
 10
142.025623
 20
112.05654800000001
 30
0.0
 40
0.172686
 50
182.04966899999999
 51
267.95036099999999
  0
ARC
  5
E7
  8
0
 62
     7
 10
143.097114
 20
122.544578
 30
0.0
 40
0.172677
 50
2.0467930000000001
 51
87.953197000000003
  0
ARC
  5
E8
  8
0
 62
     7
 10
142.275397
 20
122.54455299999999
 30
0.0
 40
0.172689
 50
91.936216999999985
 51
177.94525100000001
  0
ARC
  5
E9
  8
0
 62
     7
 10
142.02596199999999
 20
118.377718
 30
0.0
 40
0.173024
 50
92.158004000000005
 51
177.96046899999999
  0
LINE
  5
EA
  8
0
 62
     7
 10
148.10300000000001
 20
118.551
 30
0.0
 11
148.10300000000001
 21
111.884
 31
0.0
  0
LINE
  5
EB
  8
0
 62
     7
 10
143.51900000000001
 20
118.551
 30
0.0
 11
143.51900000000001
 21
118.38500000000001
 31
0.0
  0
LINE
  5
EC
  8
0
 62
     7
 10
141.85300000000001
 20
118.384
 30
0.0
 11
141.85300000000001
 21
112.05
 31
0.0
  0
LINE
  5
ED
  8
0
 62
     7
 10
142.10300000000001
 20
122.551
 30
0.0
 11
142.10300000000001
 21
118.551
 31
0.0
  0
LINE
  5
EE
  8
0
 62
     7
 10
143.27000000000001
 20
122.551
 30
0.0
 11
143.27000000000001
 21
118.551
 31
0.0
  0
LINE
  5
EF
  8
0
  6
AIGENLINE002
 62
     7
 10
142.68600000000001
 20
123.233
 30
0.0
 11
142.68600000000001
 21
117.45399999999999
 31
0.0
  0
LINE
  5
F0
  8
0
 62
     7
 10
142.27000000000001
 20
122.717
 30
0.0
 11
143.10299999999989
 21
122.717
 31
0.0
  0
LINE
  5
F1
  8
0
 62
     7
 10
142.01900000000001
 20
111.884
 30
0.0
 11
148.10300000000001
 21
111.884
 31
0.0
  0
LINE
  5
F2
  8
0
 62
     7
 10
141.85300000000001
 20
118.38500000000001
 30
0.0
 11
143.51900000000001
 21
118.38500000000001
 31
0.0
  0
LINE
  5
F3
  8
0
 62
     7
 10
142.01900000000001
 20
118.551
 30
0.0
 11
148.10300000000001
 21
118.551
 31
0.0
  0
LINE
  5
F4
  8
0
  6
AIGENLINE002
 62
     7
 10
140.702
 20
115.217
 30
0.0
 11
152.608
 21
115.217
 31
0.0
  0
LINE
  5
F5
  8
0
 62
     7
 10
148.10300000000001
 20
118.087
 30
0.0
 11
148.43600000000001
 21
118.087
 31
0.0
  0
LINE
  5
F6
  8
0
 62
     7
 10
148.10300000000001
 20
118.212
 30
0.0
 11
148.43600000000001
 21
118.212
 31
0.0
  0
LINE
  5
F7
  8
0
 62
     7
 10
148.10300000000001
 20
112.387
 30
0.0
 11
148.43600000000001
 21
112.387
 31
0.0
  0
LINE
  5
F8
  8
0
 62
     7
 10
148.10300000000001
 20
112.262
 30
0.0
 11
148.43600000000001
 21
112.262
 31
0.0
  0
LINE
  5
F9
  8
0
 62
     7
 10
148.68600000000001
 20
118.087
 30
0.0
 11
150.65299999999999
 21
118.087
 31
0.0
  0
LINE
  5
FA
  8
0
 62
     7
 10
148.68600000000001
 20
118.212
 30
0.0
 11
150.65299999999999
 21
118.212
 31
0.0
  0
LINE
  5
FB
  8
0
 62
     7
 10
148.68600000000001
 20
112.387
 30
0.0
 11
150.65299999999999
 21
112.387
 31
0.0
  0
LINE
  5
FC
  8
0
 62
     7
 10
148.68600000000001
 20
112.262
 30
0.0
 11
150.65299999999999
 21
112.262
 31
0.0
  0
LINE
  5
FD
  8
0
 62
     7
 10
151.48699999999999
 20
116.634
 30
0.0
 11
151.48699999999999
 21
118.73699999999999
 31
0.0
  0
LINE
  5
FE
  8
0
 62
     7
 10
150.65299999999999
 20
111.73699999999999
 30
0.0
 11
150.65299999999999
 21
118.73699999999999
 31
0.0
  0
LINE
  5
FF
  8
0
 62
     7
 10
151.48699999999999
 20
118.73699999999999
 30
0.0
 11
158.31999999999999
 21
118.857
 31
0.0
  0
LINE
  5
100
  8
0
 62
     7
 10
150.65299999999999
 20
118.73699999999999
 30
0.0
 11
151.48699999999999
 21
118.73699999999999
 31
0.0
  0
LINE
  5
101
  8
0
 62
     7
 10
150.65299999999999
 20
111.73699999999999
 30
0.0
 11
150.77000000000001
 21
111.73699999999999
 31
0.0
  0
ARC
  5
102
  8
0
 62
     7
 10
92.888412999999986
 20
196.836792
 30
0.0
 40
0.9503530000000001
 50
235.249855
 51
269.99231800000001
  0
ARC
  5
103
  8
0
 62
     7
 10
92.883826999999997
 20
196.850629
 30
0.0
 40
0.9642
 50
270.26494500000001
 51
304.49292100000002
  0
ARC
  5
104
  8
0
 62
     7
 10
91.805854000000011
 20
196.84949900000001
 30
0.0
 40
0.9616819999999998
 50
235.62485799999999
 51
269.95751999999999
  0
ARC
  5
105
  8
0
 62
     7
 10
91.805233000000001
 20
196.844675
 30
0.0
 40
0.9568569999999999
 50
269.99446399999999
 51
304.46439500000002
  0
LINE
  5
106
  8
0
 62
     7
 10
93.512900000000002
 20
201.59700000000001
 30
0.0
 11
91.179900000000004
 21
201.59700000000001
 31
0.0
  0
ARC
  5
107
  8
0
 62
     7
 10
93.266676000000004
 20
197.009581
 30
0.0
 40
0.087015
 50
92.118980000000036
 51
177.526219
  0
ARC
  5
108
  8
0
 62
     7
 10
93.266379999999998
 20
196.849873
 30
0.0
 40
0.0867
 50
182.167563
 51
268.068738
  0
LINE
  5
109
  8
0
 62
     7
 10
93.179699999999997
 20
196.84700000000001
 30
0.0
 11
93.179699999999997
 21
197.01300000000001
 31
0.0
  0
LINE
  5
10A
  8
0
 62
     7
 10
93.387799999999984
 20
195.84700000000001
 30
0.0
 11
93.429900000000004
 21
195.88800000000001
 31
0.0
  0
ARC
  5
10B
  8
0
 62
     7
 10
93.093397999999993
 20
194.932862
 30
0.0
 40
0.086395
 50
272.20002699999998
 51
358.0372319999999
  0
LINE
  5
10C
  8
0
 62
     7
 10
93.179699999999997
 20
194.93000000000001
 30
0.0
 11
93.179699999999997
 21
195.84700000000001
 31
0.0
  0
LINE
  5
10D
  8
0
 62
     7
 10
93.429900000000004
 20
195.88800000000001
 30
0.0
 11
93.429900000000004
 21
196.76300000000001
 31
0.0
  0
LINE
  5
10E
  8
0
 62
     7
 10
91.513299999999987
 20
197.01300000000001
 30
0.0
 11
91.513299999999987
 21
196.84700000000001
 31
0.0
  0
ARC
  5
10F
  8
0
 62
     7
 10
91.426856000000001
 20
197.01003499999999
 30
0.0
 40
0.086546
 50
2.186799999999999
 51
88.167961000000005
  0
ARC
  5
110
  8
0
 62
     7
 10
91.426688999999996
 20
196.849885
 30
0.0
 40
0.086713
 50
271.93899900000002
 51
357.82473999999991
  0
LINE
  5
111
  8
0
 62
     7
 10
92.346699999999984
 20
196.76300000000001
 30
0.0
 11
91.262900000000002
 21
196.76300000000001
 31
0.0
  0
ARC
  5
112
  8
0
 62
     7
 10
91.599954999999994
 20
194.933133
 30
0.0
 40
0.086677
 50
182.13597999999999
 51
267.626801
  0
LINE
  5
113
  8
0
 62
     7
 10
92.543099999999995
 20
194.84700000000001
 30
0.0
 11
91.596400000000017
 21
194.84700000000001
 31
0.0
  0
LINE
  5
114
  8
0
 62
     7
 10
91.513299999999987
 20
194.93000000000001
 30
0.0
 11
92.564800000000005
 21
194.93000000000001
 31
0.0
  0
LINE
  5
115
  8
0
 62
     7
 10
91.513299999999987
 20
195.84700000000001
 30
0.0
 11
91.513299999999987
 21
194.93000000000001
 31
0.0
  0
LINE
  5
116
  8
0
 62
     7
 10
91.262900000000002
 20
195.88800000000001
 30
0.0
 11
91.304899999999989
 21
195.84700000000001
 31
0.0
  0
LINE
  5
117
  8
0
 62
     7
 10
92.346699999999984
 20
196.05600000000001
 30
0.0
 11
92.346699999999984
 21
196.76300000000001
 31
0.0
  0
LINE
  5
118
  8
0
 62
     7
 10
91.262900000000002
 20
195.88800000000001
 30
0.0
 11
91.262900000000002
 21
196.76300000000001
 31
0.0
  0
LINE
  5
119
  8
0
 62
     7
 10
93.096699999999998
 20
194.84700000000001
 30
0.0
 11
92.543099999999995
 21
194.84700000000001
 31
0.0
  0
LINE
  5
11A
  8
0
 62
     7
 10
93.429900000000004
 20
196.76300000000001
 30
0.0
 11
92.346699999999984
 21
196.76300000000001
 31
0.0
  0
LINE
  5
11B
  8
0
 62
     7
 10
91.304899999999989
 20
195.84700000000001
 30
0.0
 11
93.387799999999984
 21
195.84700000000001
 31
0.0
  0
LINE
  5
11C
  8
0
 62
     7
 10
91.346599999999995
 20
197.09700000000001
 30
0.0
 11
93.346100000000007
 21
197.09700000000001
 31
0.0
  0
LINE
  5
11D
  8
0
 62
     7
 10
92.564800000000005
 20
194.93000000000001
 30
0.0
 11
93.179699999999997
 21
194.93000000000001
 31
0.0
  0
LINE
  5
11E
  8
0
 62
     7
 10
93.179699999999997
 20
197.01300000000001
 30
0.0
 11
91.513299999999987
 21
197.01300000000001
 31
0.0
  0
LINE
  5
11F
  8
0
 62
     7
 10
91.513299999999987
 20
196.84700000000001
 30
0.0
 11
93.179699999999997
 21
196.84700000000001
 31
0.0
  0
LINE
  5
120
  8
0
 62
     7
 10
91.179900000000004
 20
201.59700000000001
 30
0.0
 11
91.179900000000004
 21
202.48500000000001
 31
0.0
  0
LINE
  5
121
  8
0
 62
     7
 10
93.512900000000002
 20
201.59700000000001
 30
0.0
 11
93.512900000000002
 21
202.48500000000001
 31
0.0
  0
LINE
  5
122
  8
0
 62
     7
 10
91.346599999999995
 20
201.59700000000001
 30
0.0
 11
91.346599999999995
 21
197.09700000000001
 31
0.0
  0
LINE
  5
123
  8
0
 62
     7
 10
93.346100000000007
 20
197.09700000000001
 30
0.0
 11
93.346100000000007
 21
201.59700000000001
 31
0.0
  0
LINE
  5
124
  8
0
 62
     7
 10
91.846500000000006
 20
203.56899999999999
 30
0.0
 11
91.846500000000006
 21
203.31899999999999
 31
0.0
  0
LINE
  5
125
  8
0
 62
     7
 10
92.846299999999985
 20
203.56899999999999
 30
0.0
 11
92.846299999999985
 21
203.31899999999999
 31
0.0
  0
LINE
  5
126
  8
0
 62
     7
 10
91.846500000000006
 20
203.56899999999999
 30
0.0
 11
91.929899999999989
 21
203.65199999999999
 31
0.0
  0
LINE
  5
127
  8
0
 62
     7
 10
92.763199999999998
 20
203.65199999999999
 30
0.0
 11
92.846299999999985
 21
203.56899999999999
 31
0.0
  0
LINE
  5
128
  8
0
 62
     7
 10
92.763199999999998
 20
203.65199999999999
 30
0.0
 11
91.929899999999989
 21
203.65199999999999
 31
0.0
  0
LINE
  5
129
  8
0
 62
     7
 10
92.846299999999985
 20
203.56899999999999
 30
0.0
 11
91.846500000000006
 21
203.56899999999999
 31
0.0
  0
LINE
  5
12A
  8
0
 62
     7
 10
162.77000000000001
 20
102.884
 30
0.0
 11
162.52000000000001
 21
102.884
 31
0.0
  0
LINE
  5
12B
  8
0
 62
     7
 10
162.77000000000001
 20
101.88500000000001
 30
0.0
 11
162.52000000000001
 21
101.88500000000001
 31
0.0
  0
LINE
  5
12C
  8
0
 62
     7
 10
162.77000000000001
 20
102.884
 30
0.0
 11
162.85300000000001
 21
102.801
 31
0.0
  0
LINE
  5
12D
  8
0
 62
     7
 10
162.85300000000001
 20
101.967
 30
0.0
 11
162.77000000000001
 21
101.88500000000001
 31
0.0
  0
LINE
  5
12E
  8
0
 62
     7
 10
162.85300000000001
 20
101.967
 30
0.0
 11
162.85300000000001
 21
102.801
 31
0.0
  0
LINE
  5
12F
  8
0
 62
     7
 10
162.77000000000001
 20
101.88500000000001
 30
0.0
 11
162.77000000000001
 21
102.884
 31
0.0
  0
LINE
  5
130
  8
0
 62
     7
 10
162.77000000000001
 20
115.551
 30
0.0
 11
162.52000000000001
 21
115.551
 31
0.0
  0
LINE
  5
131
  8
0
 62
     7
 10
162.77000000000001
 20
114.551
 30
0.0
 11
162.52000000000001
 21
114.551
 31
0.0
  0
LINE
  5
132
  8
0
 62
     7
 10
162.77000000000001
 20
115.551
 30
0.0
 11
162.85300000000001
 21
115.468
 31
0.0
  0
LINE
  5
133
  8
0
 62
     7
 10
162.85300000000001
 20
114.634
 30
0.0
 11
162.77000000000001
 21
114.551
 31
0.0
  0
LINE
  5
134
  8
0
 62
     7
 10
162.85300000000001
 20
114.634
 30
0.0
 11
162.85300000000001
 21
115.468
 31
0.0
  0
LINE
  5
135
  8
0
 62
     7
 10
162.77000000000001
 20
114.551
 30
0.0
 11
162.77000000000001
 21
115.551
 31
0.0
  0
LINE
  5
136
  8
0
 62
     7
 10
58.512900000000002
 20
203.56899999999999
 30
0.0
 11
58.512900000000002
 21
203.31899999999999
 31
0.0
  0
LINE
  5
137
  8
0
 62
     7
 10
59.512999999999998
 20
203.56899999999999
 30
0.0
 11
59.512999999999998
 21
203.31899999999999
 31
0.0
  0
LINE
  5
138
  8
0
 62
     7
 10
58.512900000000002
 20
203.56899999999999
 30
0.0
 11
58.596299999999999
 21
203.65199999999999
 31
0.0
  0
LINE
  5
139
  8
0
 62
     7
 10
59.42969999999999
 20
203.65199999999999
 30
0.0
 11
59.512999999999998
 21
203.56899999999999
 31
0.0
  0
LINE
  5
13A
  8
0
 62
     7
 10
59.42969999999999
 20
203.65199999999999
 30
0.0
 11
58.596299999999999
 21
203.65199999999999
 31
0.0
  0
LINE
  5
13B
  8
0
 62
     7
 10
59.512999999999998
 20
203.56899999999999
 30
0.0
 11
58.512900000000002
 21
203.56899999999999
 31
0.0
  0
LINE
  5
13C
  8
0
 62
     7
 10
99.237300000000005
 20
210.21299999999999
 30
0.0
 11
97.763099999999994
 21
209.81800000000001
 31
0.0
  0
LINE
  5
13D
  8
0
 62
     7
 10
97.763099999999994
 20
209.81800000000001
 30
0.0
 11
99.237300000000005
 21
209.423
 31
0.0
  0
LINE
  5
13E
  8
0
 62
     7
 10
99.237300000000005
 20
209.423
 30
0.0
 11
99.237300000000005
 21
210.21299999999999
 31
0.0
  0
LINE
  5
13F
  8
0
 62
     7
 10
55.903700000000001
 20
210.21299999999999
 30
0.0
 11
54.429600000000001
 21
209.81800000000001
 31
0.0
  0
LINE
  5
140
  8
0
 62
     7
 10
54.429600000000001
 20
209.81800000000001
 30
0.0
 11
55.903700000000001
 21
209.423
 31
0.0
  0
LINE
  5
141
  8
0
 62
     7
 10
55.903700000000001
 20
209.423
 30
0.0
 11
55.903700000000001
 21
210.21299999999999
 31
0.0
  0
LINE
  5
142
  8
0
 62
     7
 10
44.653499999999987
 20
210.20599999999999
 30
0.0
 11
43.17969999999999
 21
209.81100000000001
 31
0.0
  0
LINE
  5
143
  8
0
 62
     7
 10
43.17969999999999
 20
209.81100000000001
 30
0.0
 11
44.653499999999987
 21
209.416
 31
0.0
  0
LINE
  5
144
  8
0
 62
     7
 10
44.653499999999987
 20
209.416
 30
0.0
 11
44.653499999999987
 21
210.20599999999999
 31
0.0
  0
LINE
  5
145
  8
0
 62
     7
 10
52.955100000000002
 20
209.423
 30
0.0
 11
54.429600000000001
 21
209.81800000000001
 31
0.0
  0
LINE
  5
146
  8
0
 62
     7
 10
54.429600000000001
 20
209.81800000000001
 30
0.0
 11
52.955100000000002
 21
210.21299999999999
 31
0.0
  0
LINE
  5
147
  8
0
 62
     7
 10
52.955100000000002
 20
210.21299999999999
 30
0.0
 11
52.955100000000002
 21
209.423
 31
0.0
  0
LINE
  5
148
  8
0
 62
     7
 10
96.288600000000017
 20
209.423
 30
0.0
 11
97.763099999999994
 21
209.81800000000001
 31
0.0
  0
LINE
  5
149
  8
0
 62
     7
 10
97.763099999999994
 20
209.81800000000001
 30
0.0
 11
96.288600000000017
 21
210.21299999999999
 31
0.0
  0
LINE
  5
14A
  8
0
 62
     7
 10
96.288600000000017
 20
210.21299999999999
 30
0.0
 11
96.288600000000017
 21
209.423
 31
0.0
  0
LINE
  5
14B
  8
0
 62
     7
 10
107.122
 20
209.423
 30
0.0
 11
108.59699999999999
 21
209.81800000000001
 31
0.0
  0
LINE
  5
14C
  8
0
 62
     7
 10
108.59699999999999
 20
209.81800000000001
 30
0.0
 11
107.122
 21
210.21299999999999
 31
0.0
  0
LINE
  5
14D
  8
0
 62
     7
 10
107.122
 20
210.21299999999999
 30
0.0
 11
107.122
 21
209.423
 31
0.0
  0
LINE
  5
14E
  8
0
 62
     7
 10
43.17969999999999
 20
209.81800000000001
 30
0.0
 11
108.59699999999999
 21
209.81800000000001
 31
0.0
  0
LINE
  5
14F
  8
0
 62
     7
 10
43.17969999999999
 20
210.16800000000001
 30
0.0
 11
43.17969999999999
 21
192.33500000000001
 31
0.0
  0
LINE
  5
150
  8
0
 62
     7
 10
54.429600000000001
 20
210.16800000000001
 30
0.0
 11
54.429600000000001
 21
203.40600000000001
 31
0.0
  0
LINE
  5
151
  8
0
 62
     7
 10
97.763099999999994
 20
210.16800000000001
 30
0.0
 11
97.763099999999994
 21
196.83500000000001
 31
0.0
  0
LINE
  5
152
  8
0
 62
     7
 10
108.59699999999999
 20
210.16800000000001
 30
0.0
 11
108.59699999999999
 21
192.33500000000001
 31
0.0
  0
LINE
  5
153
  8
0
 62
     7
 10
161.37799999999999
 20
82.261799999999994
 30
0.0
 11
162.85300000000001
 21
82.657300000000006
 31
0.0
  0
LINE
  5
154
  8
0
 62
     7
 10
162.85300000000001
 20
82.657300000000006
 30
0.0
 11
161.37799999999999
 21
83.052099999999996
 31
0.0
  0
LINE
  5
155
  8
0
 62
     7
 10
161.37799999999999
 20
83.052099999999996
 30
0.0
 11
161.37799999999999
 21
82.261799999999994
 31
0.0
  0
LINE
  5
156
  8
0
 62
     7
 10
159.661
 20
83.045199999999994
 30
0.0
 11
158.18600000000001
 21
82.649699999999996
 31
0.0
  0
LINE
  5
157
  8
0
 62
     7
 10
158.18600000000001
 20
82.649699999999996
 30
0.0
 11
159.661
 21
82.254900000000006
 31
0.0
  0
LINE
  5
158
  8
0
 62
     7
 10
159.661
 20
82.254900000000006
 30
0.0
 11
159.661
 21
83.045199999999994
 31
0.0
  0
LINE
  5
159
  8
0
 62
     7
 10
172.68299999999999
 20
82.657300000000006
 30
0.0
 11
158.18600000000001
 21
82.657300000000006
 31
0.0
  0
LINE
  5
15A
  8
0
 62
     7
 10
162.85300000000001
 20
76.404399999999995
 30
0.0
 11
162.85300000000001
 21
101.492
 31
0.0
  0
LINE
  5
15B
  8
0
 62
     7
 10
158.18600000000001
 20
82.307299999999984
 30
0.0
 11
158.18600000000001
 21
85.832300000000004
 31
0.0
  0
LINE
  5
15C
  8
0
  6
AIGENLINE002
 62
     7
 10
158.18600000000001
 20
102.27500000000001
 30
0.0
 11
158.18600000000001
 21
86.182400000000001
 31
0.0
  0
LINE
  5
15D
  8
0
 62
     7
 10
65.052800000000005
 20
118.108
 30
0.0
 11
65.447800000000001
 21
116.634
 31
0.0
  0
LINE
  5
15E
  8
0
 62
     7
 10
65.447800000000001
 20
116.634
 30
0.0
 11
65.842699999999994
 21
118.108
 31
0.0
  0
LINE
  5
15F
  8
0
 62
     7
 10
65.842699999999994
 20
118.108
 30
0.0
 11
65.052800000000005
 21
118.108
 31
0.0
  0
LINE
  5
160
  8
0
 62
     7
 10
65.052800000000005
 20
103.691
 30
0.0
 11
65.447800000000001
 21
102.217
 31
0.0
  0
LINE
  5
161
  8
0
 62
     7
 10
65.447800000000001
 20
102.217
 30
0.0
 11
65.842699999999994
 21
103.691
 31
0.0
  0
LINE
  5
162
  8
0
 62
     7
 10
65.842699999999994
 20
103.691
 30
0.0
 11
65.052800000000005
 21
103.691
 31
0.0
  0
LINE
  5
163
  8
0
 62
     7
 10
65.842699999999994
 20
99.326899999999995
 30
0.0
 11
65.447800000000001
 21
100.801
 31
0.0
  0
LINE
  5
164
  8
0
 62
     7
 10
65.447800000000001
 20
100.801
 30
0.0
 11
65.052800000000005
 21
99.326899999999995
 31
0.0
  0
LINE
  5
165
  8
0
 62
     7
 10
65.052800000000005
 20
99.326899999999995
 30
0.0
 11
65.842699999999994
 21
99.326899999999995
 31
0.0
  0
LINE
  5
166
  8
0
 62
     7
 10
65.842699999999994
 20
113.74299999999999
 30
0.0
 11
65.447800000000001
 21
115.217
 31
0.0
  0
LINE
  5
167
  8
0
 62
     7
 10
65.447800000000001
 20
115.217
 30
0.0
 11
65.052800000000005
 21
113.74299999999999
 31
0.0
  0
LINE
  5
168
  8
0
 62
     7
 10
65.052800000000005
 20
113.74299999999999
 30
0.0
 11
65.842699999999994
 21
113.74299999999999
 31
0.0
  0
LINE
  5
169
  8
0
 62
     7
 10
65.447800000000001
 20
94.777900000000002
 30
0.0
 11
65.447800000000001
 21
122.366
 31
0.0
  0
LINE
  5
16A
  8
0
  6
AIGENLINE002
 62
     7
 10
70.065100000000001
 20
115.217
 30
0.0
 11
81.800899999999984
 21
115.217
 31
0.0
  0
LINE
  5
16B
  8
0
 62
     7
 10
69.715000000000003
 20
115.217
 30
0.0
 11
65.097700000000003
 21
115.217
 31
0.0
  0
LINE
  5
16C
  8
0
  6
AIGENLINE002
 62
     7
 10
68.942300000000003
 20
102.217
 30
0.0
 11
82.022000000000006
 21
102.217
 31
0.0
  0
LINE
  5
16D
  8
0
 62
     7
 10
68.592299999999994
 20
102.217
 30
0.0
 11
65.097700000000003
 21
102.217
 31
0.0
  0
LINE
  5
16E
  8
0
 62
     7
 10
72.653700000000001
 20
77.464799999999997
 30
0.0
 11
71.179699999999997
 21
77.069999999999993
 31
0.0
  0
LINE
  5
16F
  8
0
 62
     7
 10
71.179699999999997
 20
77.069999999999993
 30
0.0
 11
72.653700000000001
 21
76.674499999999995
 31
0.0
  0
LINE
  5
170
  8
0
 62
     7
 10
72.653700000000001
 20
76.674499999999995
 30
0.0
 11
72.653700000000001
 21
77.464799999999997
 31
0.0
  0
LINE
  5
171
  8
0
 62
     7
 10
78.705399999999997
 20
76.682100000000005
 30
0.0
 11
80.179599999999994
 21
77.076899999999995
 31
0.0
  0
LINE
  5
172
  8
0
 62
     7
 10
80.179599999999994
 20
77.076899999999995
 30
0.0
 11
78.705399999999997
 21
77.472399999999993
 31
0.0
  0
LINE
  5
173
  8
0
 62
     7
 10
78.705399999999997
 20
77.472399999999993
 30
0.0
 11
78.705399999999997
 21
76.682100000000005
 31
0.0
  0
LINE
  5
174
  8
0
 62
     7
 10
71.179699999999997
 20
77.076899999999995
 30
0.0
 11
80.179599999999994
 21
77.076899999999995
 31
0.0
  0
LINE
  5
175
  8
0
 62
     7
 10
71.179699999999997
 20
76.726900000000001
 30
0.0
 11
71.179699999999997
 21
86.038399999999996
 31
0.0
  0
LINE
  5
176
  8
0
 62
     7
 10
80.179599999999994
 20
76.726900000000001
 30
0.0
 11
80.179599999999994
 21
86.038399999999996
 31
0.0
  0
LINE
  5
177
  8
0
 62
     7
 10
79.903800000000004
 20
82.170199999999994
 30
0.0
 11
78.4298
 21
81.775400000000005
 31
0.0
  0
LINE
  5
178
  8
0
 62
     7
 10
78.4298
 20
81.775400000000005
 30
0.0
 11
79.903800000000004
 21
81.380600000000015
 31
0.0
  0
LINE
  5
179
  8
0
 62
     7
 10
79.903800000000004
 20
81.380600000000015
 30
0.0
 11
79.903800000000004
 21
82.170199999999994
 31
0.0
  0
LINE
  5
17A
  8
0
 62
     7
 10
80.455200000000005
 20
81.387499999999989
 30
0.0
 11
81.929500000000004
 21
81.782300000000006
 31
0.0
  0
LINE
  5
17B
  8
0
 62
     7
 10
81.929500000000004
 20
81.782300000000006
 30
0.0
 11
80.455200000000005
 21
82.177800000000005
 31
0.0
  0
LINE
  5
17C
  8
0
 62
     7
 10
80.455200000000005
 20
82.177800000000005
 30
0.0
 11
80.455200000000005
 21
81.387499999999989
 31
0.0
  0
LINE
  5
17D
  8
0
 62
     7
 10
78.4298
 20
81.782300000000006
 30
0.0
 11
90.862200000000001
 21
81.782300000000006
 31
0.0
  0
LINE
  5
17E
  8
0
 62
     7
 10
78.4298
 20
81.432199999999995
 30
0.0
 11
78.4298
 21
87.117400000000004
 31
0.0
  0
LINE
  5
17F
  8
0
 62
     7
 10
81.929500000000004
 20
81.432199999999995
 30
0.0
 11
81.929500000000004
 21
87.117400000000004
 31
0.0
  0
LINE
  5
180
  8
0
  6
AIGENLINE002
 62
     7
 10
80.179599999999994
 20
101.68600000000001
 30
0.0
 11
80.179599999999994
 21
86.388400000000004
 31
0.0
  0
LINE
  5
181
  8
0
  6
AIGENLINE002
 62
     7
 10
71.179699999999997
 20
101.68600000000001
 30
0.0
 11
71.179699999999997
 21
86.388400000000004
 31
0.0
  0
LINE
  5
182
  8
0
 62
     7
 10
31.124199999999998
 20
127.634
 30
0.0
 11
77.619900000000001
 21
127.634
 31
0.0
  0
LINE
  5
183
  8
0
 62
     7
 10
31.124199999999998
 20
87.467399999999998
 30
0.0
 11
68.312899999999999
 21
87.467399999999998
 31
0.0
  0
LINE
  5
184
  8
0
 62
     7
 10
31.869199999999999
 20
126.16
 30
0.0
 11
31.4742
 21
127.634
 31
0.0
  0
LINE
  5
185
  8
0
 62
     7
 10
31.4742
 20
127.634
 30
0.0
 11
31.0791
 21
126.16
 31
0.0
  0
LINE
  5
186
  8
0
 62
     7
 10
31.0791
 20
126.16
 30
0.0
 11
31.869199999999999
 21
126.16
 31
0.0
  0
LINE
  5
187
  8
0
 62
     7
 10
31.086500000000001
 20
88.941199999999995
 30
0.0
 11
31.4815
 21
87.467399999999998
 31
0.0
  0
LINE
  5
188
  8
0
 62
     7
 10
31.4815
 20
87.467399999999998
 30
0.0
 11
31.8766
 21
88.941199999999995
 31
0.0
  0
LINE
  5
189
  8
0
 62
     7
 10
31.8766
 20
88.941199999999995
 30
0.0
 11
31.086500000000001
 21
88.941199999999995
 31
0.0
  0
LINE
  5
18A
  8
0
 62
     7
 10
31.4742
 20
127.634
 30
0.0
 11
31.4742
 21
87.467399999999998
 31
0.0
  0
LINE
  5
18B
  8
0
 62
     7
 10
37.542099999999998
 20
99.326899999999995
 30
0.0
 11
37.146999999999998
 21
100.801
 31
0.0
  0
LINE
  5
18C
  8
0
 62
     7
 10
37.146999999999998
 20
100.801
 30
0.0
 11
36.752000000000002
 21
99.326899999999995
 31
0.0
  0
LINE
  5
18D
  8
0
 62
     7
 10
36.752000000000002
 20
99.326899999999995
 30
0.0
 11
37.542099999999998
 21
99.326899999999995
 31
0.0
  0
LINE
  5
18E
  8
0
 62
     7
 10
37.542099999999998
 20
115.16
 30
0.0
 11
37.146999999999998
 21
116.634
 31
0.0
  0
LINE
  5
18F
  8
0
 62
     7
 10
37.146999999999998
 20
116.634
 30
0.0
 11
36.752000000000002
 21
115.16
 31
0.0
  0
LINE
  5
190
  8
0
 62
     7
 10
36.752000000000002
 20
115.16
 30
0.0
 11
37.542099999999998
 21
115.16
 31
0.0
  0
LINE
  5
191
  8
0
 62
     7
 10
37.542099999999998
 20
126.16
 30
0.0
 11
37.146999999999998
 21
127.634
 31
0.0
  0
LINE
  5
192
  8
0
 62
     7
 10
37.146999999999998
 20
127.634
 30
0.0
 11
36.752000000000002
 21
126.16
 31
0.0
  0
LINE
  5
193
  8
0
 62
     7
 10
36.752000000000002
 20
126.16
 30
0.0
 11
37.542099999999998
 21
126.16
 31
0.0
  0
LINE
  5
194
  8
0
 62
     7
 10
36.752000000000002
 20
118.108
 30
0.0
 11
37.146999999999998
 21
116.634
 31
0.0
  0
LINE
  5
195
  8
0
 62
     7
 10
37.146999999999998
 20
116.634
 30
0.0
 11
37.542099999999998
 21
118.108
 31
0.0
  0
LINE
  5
196
  8
0
 62
     7
 10
37.542099999999998
 20
118.108
 30
0.0
 11
36.752000000000002
 21
118.108
 31
0.0
  0
LINE
  5
197
  8
0
 62
     7
 10
36.752000000000002
 20
102.27500000000001
 30
0.0
 11
37.146999999999998
 21
100.801
 31
0.0
  0
LINE
  5
198
  8
0
 62
     7
 10
37.146999999999998
 20
100.801
 30
0.0
 11
37.542099999999998
 21
102.27500000000001
 31
0.0
  0
LINE
  5
199
  8
0
 62
     7
 10
37.542099999999998
 20
102.27500000000001
 30
0.0
 11
36.752000000000002
 21
102.27500000000001
 31
0.0
  0
LINE
  5
19A
  8
0
 62
     7
 10
36.759399999999999
 20
88.941199999999995
 30
0.0
 11
37.154400000000003
 21
87.467399999999998
 31
0.0
  0
LINE
  5
19B
  8
0
 62
     7
 10
37.154400000000003
 20
87.467399999999998
 30
0.0
 11
37.549399999999999
 21
88.941199999999995
 31
0.0
  0
LINE
  5
19C
  8
0
 62
     7
 10
37.549399999999999
 20
88.941199999999995
 30
0.0
 11
36.759399999999999
 21
88.941199999999995
 31
0.0
  0
LINE
  5
19D
  8
0
 62
     7
 10
37.146999999999998
 20
127.634
 30
0.0
 11
37.146999999999998
 21
87.467399999999998
 31
0.0
  0
LINE
  5
19E
  8
0
 62
     7
 10
36.796999999999997
 20
100.801
 30
0.0
 11
42.762999999999998
 21
100.801
 31
0.0
  0
LINE
  5
19F
  8
0
 62
     7
 10
36.796999999999997
 20
116.634
 30
0.0
 11
42.762999999999998
 21
116.634
 31
0.0
  0
LINE
  5
1A0
  8
0
  6
AIGENLINE002
 62
     7
 10
75.679599999999994
 20
168.48400000000001
 30
0.0
 11
75.679599999999994
 21
204.649
 31
0.0
  0
LINE
  5
1A1
  8
0
  6
AIGENLINE002
 62
     7
 10
75.679599999999994
 20
89.421499999999995
 30
0.0
 11
75.679599999999994
 21
124.039
 31
0.0
  0
LINE
  5
1A2
  8
0
 62
     7
 10
75.679599999999994
 20
132.428
 30
0.0
 11
75.679599999999994
 21
124.49299999999999
 31
0.0
  0
LINE
  5
1A3
  8
0
 62
     7
 10
107.122
 20
136.952
 30
0.0
 11
108.59699999999999
 21
137.34700000000001
 31
0.0
  0
LINE
  5
1A4
  8
0
 62
     7
 10
108.59699999999999
 20
137.34700000000001
 30
0.0
 11
107.122
 21
137.74199999999999
 31
0.0
  0
LINE
  5
1A5
  8
0
 62
     7
 10
107.122
 20
137.74199999999999
 30
0.0
 11
107.122
 21
136.952
 31
0.0
  0
LINE
  5
1A6
  8
0
 62
     7
 10
44.653499999999987
 20
137.73500000000001
 30
0.0
 11
43.17969999999999
 21
137.34
 31
0.0
  0
LINE
  5
1A7
  8
0
 62
     7
 10
43.17969999999999
 20
137.34
 30
0.0
 11
44.653499999999987
 21
136.94499999999999
 31
0.0
  0
LINE
  5
1A8
  8
0
 62
     7
 10
44.653499999999987
 20
136.94499999999999
 30
0.0
 11
44.653499999999987
 21
137.73500000000001
 31
0.0
  0
LINE
  5
1A9
  8
0
 62
     7
 10
108.59699999999999
 20
137.34700000000001
 30
0.0
 11
43.17969999999999
 21
137.34700000000001
 31
0.0
  0
LINE
  5
1AA
  8
0
 62
     7
 10
74.204899999999995
 20
131.68299999999999
 30
0.0
 11
75.679599999999994
 21
132.078
 31
0.0
  0
LINE
  5
1AB
  8
0
 62
     7
 10
75.679599999999994
 20
132.078
 30
0.0
 11
74.204899999999995
 21
132.47300000000001
 31
0.0
  0
LINE
  5
1AC
  8
0
 62
     7
 10
74.204899999999995
 20
132.47300000000001
 30
0.0
 11
74.204899999999995
 21
131.68299999999999
 31
0.0
  0
LINE
  5
1AD
  8
0
 62
     7
 10
107.122
 20
131.68299999999999
 30
0.0
 11
108.59699999999999
 21
132.078
 31
0.0
  0
LINE
  5
1AE
  8
0
 62
     7
 10
108.59699999999999
 20
132.078
 30
0.0
 11
107.122
 21
132.47300000000001
 31
0.0
  0
LINE
  5
1AF
  8
0
 62
     7
 10
107.122
 20
132.47300000000001
 30
0.0
 11
107.122
 21
131.68299999999999
 31
0.0
  0
LINE
  5
1B0
  8
0
 62
     7
 10
77.1541
 20
132.47300000000001
 30
0.0
 11
75.679599999999994
 21
132.078
 31
0.0
  0
LINE
  5
1B1
  8
0
 62
     7
 10
75.679599999999994
 20
132.078
 30
0.0
 11
77.1541
 21
131.68299999999999
 31
0.0
  0
LINE
  5
1B2
  8
0
 62
     7
 10
77.1541
 20
131.68299999999999
 30
0.0
 11
77.1541
 21
132.47300000000001
 31
0.0
  0
LINE
  5
1B3
  8
0
 62
     7
 10
44.653499999999987
 20
132.46600000000001
 30
0.0
 11
43.17969999999999
 21
132.071
 31
0.0
  0
LINE
  5
1B4
  8
0
 62
     7
 10
43.17969999999999
 20
132.071
 30
0.0
 11
44.653499999999987
 21
131.67599999999999
 31
0.0
  0
LINE
  5
1B5
  8
0
 62
     7
 10
44.653499999999987
 20
131.67599999999999
 30
0.0
 11
44.653499999999987
 21
132.46600000000001
 31
0.0
  0
LINE
  5
1B6
  8
0
 62
     7
 10
108.59699999999999
 20
132.078
 30
0.0
 11
43.17969999999999
 21
132.078
 31
0.0
  0
LINE
  5
1B7
  8
0
 62
     7
 10
108.59699999999999
 20
137.697
 30
0.0
 11
108.59699999999999
 21
116.98
 31
0.0
  0
ARC
  5
1B8
  8
0
 62
     7
 10
80.229954000000006
 20
106.54580900000001
 30
0.0
 40
0.5133830000000001
 50
175.30905000000001
 51
261.07520899999997
  0
LINE
  5
1B9
  8
0
 62
     7
 10
80.150300000000016
 20
106.039
 30
0.0
 11
80.208899999999986
 21
106.035
 31
0.0
  0
ARC
  5
1BA
  8
0
 62
     7
 10
80.280082999999991
 20
106.560186
 30
0.0
 40
0.4132439999999999
 50
176.073621
 51
258.131865
  0
ARC
  5
1BB
  8
0
 62
     7
 10
80.212227999999996
 20
106.650243
 30
0.0
 40
0.353284
 50
92.164547000000013
 51
177.83542299999999
  0
ARC
  5
1BC
  8
0
 62
     7
 10
80.188672999999994
 20
106.663325
 30
0.0
 40
0.329477
 50
179.95449400000001
 51
193.129581
  0
LINE
  5
1BD
  8
0
 62
     7
 10
80.491699999999994
 20
106.42400000000001
 30
0.0
 11
80.640900000000002
 21
106.389
 31
0.0
  0
LINE
  5
1BE
  8
0
 62
     7
 10
80.464500000000001
 20
106.783
 30
0.0
 11
80.61399999999999
 21
106.815
 31
0.0
  0
ARC
  5
1BF
  8
0
 62
     7
 10
158.31907200000001
 20
126.38782999999999
 30
0.0
 40
1.250146999999999
 50
359.98816799999997
 51
89.988138000000006
  0
ARC
  5
1C0
  8
0
 62
     7
 10
158.31958900000001
 20
126.38782999999999
 30
0.0
 40
1.250146999999999
 50
90.011842000000016
 51
180.011852
  0
ARC
  5
1C1
  8
0
 62
     7
 10
156.33258599999999
 20
121.874771
 30
0.0
 40
0.346525
 50
92.174198000000004
 51
177.88499200000001
  0
LINE
  5
1C2
  8
0
 62
     7
 10
157.06899999999999
 20
122.221
 30
0.0
 11
157.06899999999999
 21
122.63800000000001
 31
0.0
  0
LINE
  5
1C3
  8
0
 62
     7
 10
159.56899999999999
 20
122.63800000000001
 30
0.0
 11
159.56899999999999
 21
122.221
 31
0.0
  0
LINE
  5
1C4
  8
0
 62
     7
 10
161.02000000000001
 20
121.55500000000001
 30
0.0
 11
160.72800000000001
 21
121.56
 31
0.0
  0
LINE
  5
1C5
  8
0
 62
     7
 10
161.02000000000001
 20
121.221
 30
0.0
 11
161.02000000000001
 21
121.55500000000001
 31
0.0
  0
LINE
  5
1C6
  8
0
 62
     7
 10
160.65299999999999
 20
121.806
 30
0.0
 11
160.65299999999999
 21
121.88800000000001
 31
0.0
  0
ARC
  5
1C7
  8
0
 62
     7
 10
160.912069
 20
121.815651
 30
0.0
 40
0.259186
 50
182.07759899999991
 51
266.96486400000009
  0
ARC
  5
1C8
  8
0
 62
     7
 10
160.30642700000001
 20
121.874422
 30
0.0
 40
0.3468739999999999
 50
2.170609999999999
 51
87.829379999999986
  0
ARC
  5
1C9
  8
0
 62
     7
 10
160.780866
 20
121.189637
 30
0.0
 40
0.373684
 50
98.108845000000002
 51
171.95330200000001
  0
LINE
  5
1CA
  8
0
 62
     7
 10
161.02000000000001
 20
121.221
 30
0.0
 11
161.02000000000001
 21
120.221
 31
0.0
  0
LINE
  5
1CB
  8
0
 62
     7
 10
160.411
 20
120.20999999999999
 30
0.0
 11
160.411
 21
121.232
 31
0.0
  0
LINE
  5
1CC
  8
0
 62
     7
 10
160.72800000000001
 20
119.883
 30
0.0
 11
161.02000000000001
 21
119.88800000000001
 31
0.0
  0
LINE
  5
1CD
  8
0
 62
     7
 10
161.02000000000001
 20
119.88800000000001
 30
0.0
 11
161.02000000000001
 21
120.221
 31
0.0
  0
ARC
  5
1CE
  8
0
 62
     7
 10
160.779349
 20
120.252546
 30
0.0
 40
0.373569
 50
189.13292899999999
 51
262.123537
  0
LINE
  5
1CF
  8
0
 62
     7
 10
160.31999999999999
 20
122.221
 30
0.0
 11
156.31899999999999
 21
122.221
 31
0.0
  0
ARC
  5
1D0
  8
0
 62
     7
 10
163.94609299999999
 20
119.00197900000001
 30
0.0
 40
5.8896069999999989
 50
197.181985
 51
203.709667
  0
LINE
  5
1D1
  8
0
 62
     7
 10
158.31899999999999
 20
116.634
 30
0.0
 11
158.31899999999999
 21
119.50700000000001
 31
0.0
  0
LINE
  5
1D2
  8
0
 62
     7
 10
154.995
 20
117.379
 30
0.0
 11
154.995
 21
116.634
 31
0.0
  0
ARC
  5
1D3
  8
0
 62
     7
 10
155.29486600000001
 20
119.47925600000001
 30
0.0
 40
0.69187
 50
272.99668800000001
 51
357.959225
  0
LINE
  5
1D4
  8
0
 62
     7
 10
158.31899999999999
 20
117.437
 30
0.0
 11
154.995
 21
117.379
 31
0.0
  0
LINE
  5
1D5
  8
0
 62
     7
 10
155.98599999999999
 20
119.455
 30
0.0
 11
158.31899999999999
 21
119.50700000000001
 31
0.0
  0
ARC
  5
1D6
  8
0
 62
     7
 10
161.5047459999999
 20
117.755897
 30
0.0
 40
1.1794480000000001
 50
215.729264
 51
252.06606500000001
  0
ARC
  5
1D7
  8
0
 62
     7
 10
160.25348399999999
 20
116.895557
 30
0.0
 40
0.34054
 50
30.257659000000011
 51
88.387768000000008
  0
LINE
  5
1D8
  8
0
 62
     7
 10
160.65299999999999
 20
116.95399999999999
 30
0.0
 11
160.65299999999999
 21
119.636
 31
0.0
  0
LINE
  5
1D9
  8
0
 62
     7
 10
162.52000000000001
 20
116.634
 30
0.0
 11
161.77000000000001
 21
116.634
 31
0.0
  0
LINE
  5
1DA
  8
0
 62
     7
 10
160.26300000000001
 20
117.236
 30
0.0
 11
158.31899999999999
 21
117.262
 31
0.0
  0
ARC
  5
1DB
  8
0
 62
     7
 10
160.912959
 20
119.626276
 30
0.0
 40
0.2600820000000001
 50
93.221149999999994
 51
177.894419
  0
LINE
  5
1DC
  8
0
 62
     7
 10
155.98599999999999
 20
121.88800000000001
 30
0.0
 11
155.98599999999999
 21
119.455
 31
0.0
  0
LINE
  5
1DD
  8
0
 62
     7
 10
150.77000000000001
 20
116.634
 30
0.0
 11
161.77000000000001
 21
116.634
 31
0.0
  0
LINE
  5
1DE
  8
0
 62
     7
 10
150.81999999999999
 20
100.801
 30
0.0
 11
150.81999999999999
 21
99.636899999999983
 31
0.0
  0
LINE
  5
1DF
  8
0
 62
     7
 10
150.98599999999999
 20
99.470200000000006
 30
0.0
 11
150.98599999999999
 21
100.801
 31
0.0
  0
LINE
  5
1E0
  8
0
 62
     7
 10
150.98599999999999
 20
99.470200000000006
 30
0.0
 11
150.81999999999999
 21
99.636899999999983
 31
0.0
  0
LINE
  5
1E1
  8
0
 62
     7
 10
153.48599999999999
 20
99.303400000000011
 30
0.0
 11
153.48599999999999
 21
100.801
 31
0.0
  0
LINE
  5
1E2
  8
0
 62
     7
 10
153.48599999999999
 20
99.470200000000006
 30
0.0
 11
150.98599999999999
 21
99.470200000000006
 31
0.0
  0
ARC
  5
1E3
  8
0
 62
     7
 10
156.11743899999999
 20
100.98025
 30
0.0
 40
0.4932000000000001
 50
314.72050899999999
 51
338.64901700000001
  0
LINE
  5
1E4
  8
0
 62
     7
 10
155.85300000000001
 20
100.018
 30
0.0
 11
156.464
 21
100.63
 31
0.0
  0
ARC
  5
1E5
  8
0
 62
     7
 10
160.25511
 20
100.978753
 30
0.0
 40
0.492519
 50
201.19502399999999
 51
225.11222000000009
  0
LINE
  5
1E6
  8
0
 62
     7
 10
159.90799999999999
 20
100.63
 30
0.0
 11
160.52000000000001
 21
100.018
 31
0.0
  0
LINE
  5
1E7
  8
0
 62
     7
 10
160.90299999999999
 20
100.801
 30
0.0
 11
160.90299999999999
 21
99.864999999999995
 31
0.0
  0
LINE
  5
1E8
  8
0
 62
     7
 10
160.90299999999999
 20
99.553600000000003
 30
0.0
 11
160.90299999999999
 21
99.864999999999995
 31
0.0
  0
LINE
  5
1E9
  8
0
 62
     7
 10
160.90299999999999
 20
99.864999999999995
 30
0.0
 11
160.52000000000001
 21
99.864999999999995
 31
0.0
  0
LINE
  5
1EA
  8
0
 62
     7
 10
160.90299999999999
 20
99.553600000000003
 30
0.0
 11
160.52000000000001
 21
99.553600000000003
 31
0.0
  0
LINE
  5
1EB
  8
0
 62
     7
 10
161.77000000000001
 20
100.801
 30
0.0
 11
162.52000000000001
 21
100.801
 31
0.0
  0
LINE
  5
1EC
  8
0
 62
     7
 10
155.85300000000001
 20
100.018
 30
0.0
 11
160.52000000000001
 21
100.018
 31
0.0
  0
LINE
  5
1ED
  8
0
 62
     7
 10
156.464
 20
100.63
 30
0.0
 11
159.90799999999999
 21
100.63
 31
0.0
  0
LINE
  5
1EE
  8
0
 62
     7
 10
155.85300000000001
 20
99.303400000000011
 30
0.0
 11
153.48599999999999
 21
99.303400000000011
 31
0.0
  0
LINE
  5
1EF
  8
0
 62
     7
 10
150.77000000000001
 20
100.801
 30
0.0
 11
161.77000000000001
 21
100.801
 31
0.0
  0
ARC
  5
1F0
  8
0
 62
     7
 10
156.02554799999999
 20
87.641002999999998
 30
0.0
 40
0.173032
 50
182.04603499999999
 51
267.95399500000002
  0
ARC
  5
1F1
  8
0
 62
     7
 10
160.34640899999999
 20
87.641400000000004
 30
0.0
 40
0.173443
 50
272.17236100000002
 51
357.82764900000001
  0
LINE
  5
1F2
  8
0
 62
     7
 10
160.52000000000001
 20
87.634799999999984
 30
0.0
 11
155.85300000000001
 21
87.634799999999984
 31
0.0
  0
LINE
  5
1F3
  8
0
 62
     7
 10
156.01900000000001
 20
87.468100000000007
 30
0.0
 11
160.35300000000001
 21
87.468100000000007
 31
0.0
  0
LINE
  5
1F4
  8
0
 62
     7
 10
160.52000000000001
 20
100.018
 30
0.0
 11
160.52000000000001
 21
87.634799999999984
 31
0.0
  0
LINE
  5
1F5
  8
0
 62
     7
 10
155.85300000000001
 20
87.634799999999984
 30
0.0
 11
155.85300000000001
 21
100.018
 31
0.0
  0
LINE
  5
1F6
  8
0
 62
     7
 10
162.52000000000001
 20
100.801
 30
0.0
 11
162.52000000000001
 21
116.634
 31
0.0
  0
LINE
  5
1F7
  8
0
 62
     7
 10
150.77000000000001
 20
100.801
 30
0.0
 11
150.77000000000001
 21
116.634
 31
0.0
  0
LINE
  5
1F8
  8
0
 62
     7
 10
151.18600000000001
 20
100.801
 30
0.0
 11
151.18600000000001
 21
116.634
 31
0.0
  0
LINE
  5
1F9
  8
0
 62
     7
 10
157.06899999999999
 20
122.63800000000001
 30
0.0
 11
157.06899999999999
 21
126.38800000000001
 31
0.0
  0
LINE
  5
1FA
  8
0
 62
     7
 10
156.57300000000001
 20
122.221
 30
0.0
 11
157.078
 21
126.53400000000001
 31
0.0
  0
LINE
  5
1FB
  8
0
 62
     7
 10
159.56899999999999
 20
126.38800000000001
 30
0.0
 11
159.56899999999999
 21
122.63800000000001
 31
0.0
  0
ARC
  5
1FC
  8
0
 62
     7
 10
59.555929999999996
 20
196.840836
 30
0.0
 40
0.9543979999999999
 50
235.32581500000001
 51
269.916359
  0
ARC
  5
1FD
  8
0
 62
     7
 10
59.550086
 20
196.85060300000001
 30
0.0
 40
0.964174
 50
270.26446800000002
 51
304.49339800000013
  0
ARC
  5
1FE
  8
0
 62
     7
 10
58.472275000000003
 20
196.84949399999999
 30
0.0
 40
0.961677
 50
235.62474399999999
 51
269.94734399999999
  0
ARC
  5
1FF
  8
0
 62
     7
 10
58.471483999999997
 20
196.844675
 30
0.0
 40
0.9568569999999999
 50
269.99446399999999
 51
304.46439500000002
  0
LINE
  5
200
  8
0
 62
     7
 10
91.262900000000002
 20
114.425
 30
0.0
 11
91.262900000000002
 21
115.676
 31
0.0
  0
LINE
  5
201
  8
0
 62
     7
 10
92.346699999999984
 20
113.8
 30
0.0
 11
91.262900000000002
 21
114.425
 31
0.0
  0
LINE
  5
202
  8
0
 62
     7
 10
93.429900000000004
 20
114.425
 30
0.0
 11
92.346699999999984
 21
113.8
 31
0.0
  0
LINE
  5
203
  8
0
 62
     7
 10
93.429900000000004
 20
115.676
 30
0.0
 11
93.429900000000004
 21
114.425
 31
0.0
  0
LINE
  5
204
  8
0
 62
     7
 10
92.346699999999984
 20
116.30200000000001
 30
0.0
 11
93.429900000000004
 21
115.676
 31
0.0
  0
LINE
  5
205
  8
0
 62
     7
 10
91.262900000000002
 20
115.676
 30
0.0
 11
92.346699999999984
 21
116.30200000000001
 31
0.0
  0
LINE
  5
206
  8
0
 62
     7
 10
91.262900000000002
 20
101.758
 30
0.0
 11
91.262900000000002
 21
103.01000000000001
 31
0.0
  0
LINE
  5
207
  8
0
 62
     7
 10
92.346699999999984
 20
101.133
 30
0.0
 11
91.262900000000002
 21
101.758
 31
0.0
  0
LINE
  5
208
  8
0
 62
     7
 10
93.429900000000004
 20
101.758
 30
0.0
 11
92.346699999999984
 21
101.133
 31
0.0
  0
LINE
  5
209
  8
0
 62
     7
 10
93.429900000000004
 20
103.01000000000001
 30
0.0
 11
93.429900000000004
 21
101.758
 31
0.0
  0
LINE
  5
20A
  8
0
 62
     7
 10
92.346699999999984
 20
103.63500000000001
 30
0.0
 11
93.429900000000004
 21
103.01000000000001
 31
0.0
  0
LINE
  5
20B
  8
0
 62
     7
 10
91.262900000000002
 20
103.01000000000001
 30
0.0
 11
92.346699999999984
 21
103.63500000000001
 31
0.0
  0
LINE
  5
20C
  8
0
 62
     7
 10
57.929299999999998
 20
101.758
 30
0.0
 11
57.929299999999998
 21
103.01000000000001
 31
0.0
  0
LINE
  5
20D
  8
0
 62
     7
 10
59.012999999999998
 20
101.133
 30
0.0
 11
57.929299999999998
 21
101.758
 31
0.0
  0
LINE
  5
20E
  8
0
 62
     7
 10
60.0961
 20
101.758
 30
0.0
 11
59.012999999999998
 21
101.133
 31
0.0
  0
LINE
  5
20F
  8
0
 62
     7
 10
60.0961
 20
103.01000000000001
 30
0.0
 11
60.0961
 21
101.758
 31
0.0
  0
LINE
  5
210
  8
0
 62
     7
 10
59.012999999999998
 20
103.63500000000001
 30
0.0
 11
60.0961
 21
103.01000000000001
 31
0.0
  0
LINE
  5
211
  8
0
 62
     7
 10
57.929299999999998
 20
103.01000000000001
 30
0.0
 11
59.012999999999998
 21
103.63500000000001
 31
0.0
  0
LINE
  5
212
  8
0
 62
     7
 10
57.929299999999998
 20
114.425
 30
0.0
 11
57.929299999999998
 21
115.676
 31
0.0
  0
LINE
  5
213
  8
0
 62
     7
 10
59.012999999999998
 20
113.8
 30
0.0
 11
57.929299999999998
 21
114.425
 31
0.0
  0
LINE
  5
214
  8
0
 62
     7
 10
60.0961
 20
114.425
 30
0.0
 11
59.012999999999998
 21
113.8
 31
0.0
  0
LINE
  5
215
  8
0
 62
     7
 10
60.0961
 20
115.676
 30
0.0
 11
60.0961
 21
114.425
 31
0.0
  0
LINE
  5
216
  8
0
 62
     7
 10
59.012999999999998
 20
116.30200000000001
 30
0.0
 11
60.0961
 21
115.676
 31
0.0
  0
LINE
  5
217
  8
0
 62
     7
 10
57.929299999999998
 20
115.676
 30
0.0
 11
59.012999999999998
 21
116.30200000000001
 31
0.0
  0
ARC
  5
218
  8
0
 62
     7
 10
84.756085999999996
 20
122.45979699999999
 30
0.0
 40
5.1774029999999991
 50
2.2156020000000001
 51
87.990373000000005
  0
LINE
  5
219
  8
0
 62
     7
 10
84.937599999999989
 20
127.634
 30
0.0
 11
84.929400000000001
 21
127.634
 31
0.0
  0
ARC
  5
21A
  8
0
 62
     7
 10
84.756053000000009
 20
106.141319
 30
0.0
 40
5.177397
 50
272.109193
 51
357.79566799999998
  0
ARC
  5
21B
  8
0
 62
     7
 10
75.460755000000006
 20
110.71710400000001
 30
0.0
 40
6.9191149999999988
 50
6.5013469999999991
 51
36.712172000000002
  0
LINE
  5
21C
  8
0
 62
     7
 10
80.846199999999996
 20
112.384
 30
0.0
 11
80.846199999999996
 21
116.218
 31
0.0
  0
LINE
  5
21D
  8
0
 62
     7
 10
87.429800000000014
 20
122.66
 30
0.0
 11
87.429800000000014
 21
105.941
 31
0.0
  0
LINE
  5
21E
  8
0
 62
     7
 10
84.929400000000001
 20
103.467
 30
0.0
 11
84.946600000000004
 21
103.467
 31
0.0
  0
ARC
  5
21F
  8
0
 62
     7
 10
84.851891000000009
 20
106.045517
 30
0.0
 40
2.5800489999999998
 50
272.10373300000009
 51
357.689232
  0
LINE
  5
220
  8
0
 62
     7
 10
82.512999999999977
 20
103.884
 30
0.0
 11
82.512999999999977
 21
109.349
 31
0.0
  0
ARC
  5
221
  8
0
 62
     7
 10
82.166502000000008
 20
103.89704
 30
0.0
 40
0.346711
 50
272.17416800000001
 51
357.85544499999997
  0
LINE
  5
222
  8
0
 62
     7
 10
82.512999999999977
 20
99.967000000000013
 30
0.0
 11
81.9011
 21
100.57899999999999
 31
0.0
  0
ARC
  5
223
  8
0
 62
     7
 10
82.261009999999985
 20
100.935647
 30
0.0
 40
0.5063170000000001
 50
180.302041
 51
224.699603
  0
LINE
  5
224
  8
0
 62
     7
 10
81.7547
 20
100.93300000000001
 30
0.0
 11
81.7547
 21
100.967
 31
0.0
  0
LINE
  5
225
  8
0
 62
     7
 10
81.971199999999996
 20
103.467
 30
0.0
 11
81.971199999999996
 21
103.551
 31
0.0
  0
LINE
  5
226
  8
0
 62
     7
 10
82.3352
 20
111.501
 30
0.0
 11
82.511099999999999
 21
109.349
 31
0.0
  0
ARC
  5
227
  8
0
 62
     7
 10
82.256559999999979
 20
115.724774
 30
0.0
 40
1.5230559999999991
 50
202.21590699999999
 51
214.902063
  0
ARC
  5
228
  8
0
 62
     7
 10
84.945601999999994
 20
122.649996
 30
0.0
 40
2.484256999999999
 50
0.213792
 51
90.199424999999991
  0
LINE
  5
229
  8
0
 62
     7
 10
84.937000000000026
 20
125.134
 30
0.0
 11
84.930099999999996
 21
125.134
 31
0.0
  0
LINE
  5
22A
  8
0
 62
     7
 10
89.929599999999994
 20
105.941
 30
0.0
 11
89.929599999999994
 21
122.66
 31
0.0
  0
ARC
  5
22B
  8
0
 62
     7
 10
93.148411999999993
 20
115.76903900000001
 30
0.0
 40
0.865285
 50
2.0987230000000001
 51
87.92495799999999
  0
LINE
  5
22C
  8
0
 62
     7
 10
93.930099999999996
 20
116.634
 30
0.0
 11
93.179699999999997
 21
116.634
 31
0.0
  0
ARC
  5
22D
  8
0
 62
     7
 10
92.306748999999996
 20
115.090344
 30
0.0
 40
1.081817
 50
272.11707699999999
 51
357.88293299999998
  0
ARC
  5
22E
  8
0
 62
     7
 10
92.346367999999998
 20
115.050724
 30
0.0
 40
1.041458999999999
 50
359.98105700000002
 51
89.981026999999997
  0
ARC
  5
22F
  8
0
 62
     7
 10
92.386696999999998
 20
115.010396
 30
0.0
 40
1.0825260000000001
 50
92.116738999999995
 51
177.88323099999999
  0
ARC
  5
230
  8
0
 62
     7
 10
92.386020000000002
 20
115.090402
 30
0.0
 40
1.0818509999999999
 50
182.12011699999999
 51
267.91781900000001
  0
ARC
  5
231
  8
0
 62
     7
 10
93.148087999999987
 20
101.665728
 30
0.0
 40
0.86562
 50
272.09569800000003
 51
357.88062200000007
  0
LINE
  5
232
  8
0
 62
     7
 10
93.930099999999996
 20
100.801
 30
0.0
 11
93.179699999999997
 21
100.801
 31
0.0
  0
ARC
  5
233
  8
0
 62
     7
 10
92.346367999999998
 20
102.383718
 30
0.0
 40
1.041458999999999
 50
270.01897300000002
 51
0.018943
  0
ARC
  5
234
  8
0
 62
     7
 10
92.346367999999998
 20
102.384406
 30
0.0
 40
1.041458999999999
 50
359.98105700000002
 51
89.981026999999997
  0
ARC
  5
235
  8
0
 62
     7
 10
92.386696999999998
 20
102.344078
 30
0.0
 40
1.0825260000000001
 50
92.116738999999995
 51
177.88323099999999
  0
ARC
  5
236
  8
0
 62
     7
 10
92.386696999999998
 20
102.424046
 30
0.0
 40
1.0825260000000001
 50
182.11676900000001
 51
267.883261
  0
LINE
  5
237
  8
0
 62
     7
 10
90.679599999999994
 20
108.03400000000001
 30
0.0
 11
90.679599999999994
 21
109.40000000000001
 31
0.0
  0
ARC
  5
238
  8
0
 62
     7
 10
90.653585000000007
 20
108.743601
 30
0.0
 40
0.710025
 50
272.10145899999998
 51
357.898551
  0
ARC
  5
239
  8
0
 62
     7
 10
90.654262000000003
 20
108.691492
 30
0.0
 40
0.7093500000000002
 50
2.1065200000000002
 51
87.951257999999996
  0
ARC
  5
23A
  8
0
 62
     7
 10
90.705607999999998
 20
108.69086299999999
 30
0.0
 40
0.7100010000000001
 50
92.097577000000001
 51
177.844606
  0
ARC
  5
23B
  8
0
 62
     7
 10
90.705656000000005
 20
108.743601
 30
0.0
 40
0.710024
 50
182.101451
 51
267.89857799999999
  0
LINE
  5
23C
  8
0
 62
     7
 10
82.070099999999996
 20
100.801
 30
0.0
 11
82.070099999999996
 21
100.967
 31
0.0
  0
LINE
  5
23D
  8
0
 62
     7
 10
83.15100000000001
 20
116.634
 30
0.0
 11
83.15100000000001
 21
103.467
 31
0.0
  0
LINE
  5
23E
  8
0
 62
     7
 10
82.070099999999996
 20
100.801
 30
0.0
 11
81.772400000000005
 21
100.801
 31
0.0
  0
ARC
  5
23F
  8
0
 62
     7
 10
92.320638999999986
 20
107.40966400000001
 30
0.0
 40
0.7093500000000002
 50
272.10652900000002
 51
357.95126699999997
  0
ARC
  5
240
  8
0
 62
     7
 10
92.320688000000004
 20
107.35827999999999
 30
0.0
 40
0.709325
 50
2.1026539999999998
 51
87.89733600000001
  0
ARC
  5
241
  8
0
 62
     7
 10
92.372699999999995
 20
107.357602
 30
0.0
 40
0.7100010000000001
 50
92.097577000000001
 51
177.844606
  0
ARC
  5
242
  8
0
 62
     7
 10
92.372747999999987
 20
107.410341
 30
0.0
 40
0.710024
 50
182.101451
 51
267.89857799999999
  0
LINE
  5
243
  8
0
 62
     7
 10
92.469399999999993
 20
101.919
 30
0.0
 11
92.811099999999996
 21
102.258
 31
0.0
  0
LINE
  5
244
  8
0
 62
     7
 10
92.811099999999996
 20
102.258
 30
0.0
 11
92.687799999999996
 21
102.723
 31
0.0
  0
LINE
  5
245
  8
0
 62
     7
 10
91.882300000000001
 20
102.51000000000001
 30
0.0
 11
92.004999999999995
 21
102.045
 31
0.0
  0
LINE
  5
246
  8
0
 62
     7
 10
92.223399999999998
 20
102.849
 30
0.0
 11
91.882300000000001
 21
102.51000000000001
 31
0.0
  0
ARC
  5
247
  8
0
 62
     7
 10
91.425922000000014
 20
101.549673
 30
0.0
 40
0.746301
 50
179.948489
 51
202.64501200000001
  0
ARC
  5
248
  8
0
 62
     7
 10
90.662447999999983
 20
101.734617
 30
0.0
 40
0.47604
 50
272.06728900000002
 51
357.889658
  0
ARC
  5
249
  8
0
 62
     7
 10
90.662085000000005
 20
101.69990900000001
 30
0.0
 40
0.47639
 50
2.066443
 51
87.890516000000005
  0
ARC
  5
24A
  8
0
 62
     7
 10
90.696841000000006
 20
101.70022400000001
 30
0.0
 40
0.476065
 50
92.073016999999993
 51
177.96998400000001
  0
ARC
  5
24B
  8
0
 62
     7
 10
90.696860000000001
 20
101.734685
 30
0.0
 40
0.4761100000000001
 50
182.11820899999989
 51
267.92488400000002
  0
LINE
  5
24C
  8
0
 62
     7
 10
90.679599999999994
 20
101.55
 30
0.0
 11
90.679599999999994
 21
102.175
 31
0.0
  0
ARC
  5
24D
  8
0
 62
     7
 10
92.314991000000006
 20
102.414711
 30
0.0
 40
0.8649499999999999
 50
272.10177099999999
 51
357.969311
  0
ARC
  5
24E
  8
0
 62
     7
 10
92.314716000000004
 20
102.352423
 30
0.0
 40
0.8652599999999999
 50
2.095553999999999
 51
87.880735999999999
  0
ARC
  5
24F
  8
0
 62
     7
 10
92.378347999999988
 20
102.35171099999999
 30
0.0
 40
0.865958
 50
92.093607000000006
 51
177.858992
  0
ARC
  5
250
  8
0
 62
     7
 10
92.378397000000007
 20
102.415746
 30
0.0
 40
0.8659819999999999
 50
182.09678600000001
 51
267.90324399999997
  0
ARC
  5
251
  8
0
 62
     7
 10
92.317689000000001
 20
102.41237
 30
0.0
 40
0.779196
 50
272.13466899999997
 51
357.91797800000001
  0
ARC
  5
252
  8
0
 62
     7
 10
92.317747999999995
 20
102.355097
 30
0.0
 40
0.7791610000000001
 50
2.130412999999999
 51
87.869577000000007
  0
ARC
  5
253
  8
0
 62
     7
 10
92.375648999999996
 20
102.354409
 30
0.0
 40
0.7798470000000001
 50
92.126459000000011
 51
177.820874
  0
ARC
  5
254
  8
0
 62
     7
 10
92.375707999999975
 20
102.41305699999999
 30
0.0
 40
0.7798810000000001
 50
182.13073
 51
267.86930000000001
  0
LINE
  5
255
  8
0
 62
     7
 10
92.687799999999996
 20
102.723
 30
0.0
 11
92.223399999999998
 21
102.849
 31
0.0
  0
LINE
  5
256
  8
0
 62
     7
 10
92.004999999999995
 20
102.045
 30
0.0
 11
92.469399999999993
 21
101.919
 31
0.0
  0
ARC
  5
257
  8
0
 62
     7
 10
87.317939999999993
 20
100.779689
 30
0.0
 40
1.028516999999999
 50
1.169746999999999
 51
71.853395999999975
  0
LINE
  5
258
  8
0
 62
     7
 10
88.346199999999996
 20
100.801
 30
0.0
 11
93.179699999999997
 21
100.801
 31
0.0
  0
ARC
  5
259
  8
0
 62
     7
 10
89.820241000000024
 20
103.076711
 30
0.0
 40
0.7096630000000002
 50
272.10012899999998
 51
357.87097999999997
  0
ARC
  5
25A
  8
0
 62
     7
 10
89.819877000000005
 20
103.02433600000001
 30
0.0
 40
0.710013
 50
2.0995180000000002
 51
87.871585999999994
  0
ARC
  5
25B
  8
0
 62
     7
 10
89.872281999999998
 20
103.02431199999999
 30
0.0
 40
0.710024
 50
92.101421999999985
 51
177.898549
  0
ARC
  5
25C
  8
0
 62
     7
 10
89.871604999999988
 20
103.076421
 30
0.0
 40
0.709349
 50
182.10652200000001
 51
267.95129500000002
  0
LINE
  5
25D
  8
0
 62
     7
 10
83.15100000000001
 20
100.801
 30
0.0
 11
82.915400000000005
 21
100.801
 31
0.0
  0
LINE
  5
25E
  8
0
 62
     7
 10
82.541600000000003
 20
100.801
 30
0.0
 11
82.070099999999996
 21
100.801
 31
0.0
  0
LINE
  5
25F
  8
0
 62
     7
 10
82.541600000000003
 20
100.801
 30
0.0
 11
82.915400000000005
 21
100.801
 31
0.0
  0
LINE
  5
260
  8
0
 62
     7
 10
83.15100000000001
 20
100.801
 30
0.0
 11
86.346699999999984
 21
100.801
 31
0.0
  0
LINE
  5
261
  8
0
 62
     7
 10
82.070099999999996
 20
116.634
 30
0.0
 11
80.700100000000006
 21
116.634
 31
0.0
  0
ARC
  5
262
  8
0
 62
     7
 10
91.432254
 20
115.883504
 30
0.0
 40
0.7526340000000001
 50
157.451718
 51
179.95474100000001
  0
LINE
  5
263
  8
0
 62
     7
 10
92.687799999999996
 20
115.389
 30
0.0
 11
92.223399999999998
 21
115.51600000000001
 31
0.0
  0
LINE
  5
264
  8
0
 62
     7
 10
92.469399999999993
 20
114.58499999999999
 30
0.0
 11
92.811099999999996
 21
114.92400000000001
 31
0.0
  0
LINE
  5
265
  8
0
 62
     7
 10
91.882300000000001
 20
115.176
 30
0.0
 11
92.004999999999995
 21
114.711
 31
0.0
  0
LINE
  5
266
  8
0
 62
     7
 10
92.004999999999995
 20
114.711
 30
0.0
 11
92.469399999999993
 21
114.58499999999999
 31
0.0
  0
ARC
  5
267
  8
0
 62
     7
 10
90.662447999999983
 20
115.73488500000001
 30
0.0
 40
0.47604
 50
272.06728900000002
 51
357.889658
  0
ARC
  5
268
  8
0
 62
     7
 10
90.662772000000004
 20
115.700149
 30
0.0
 40
0.4757050000000001
 50
2.0728029999999991
 51
87.970249999999993
  0
ARC
  5
269
  8
0
 62
     7
 10
90.696793
 20
115.699825
 30
0.0
 40
0.47604
 50
92.067251999999996
 51
177.889655
  0
ARC
  5
26A
  8
0
 62
     7
 10
90.696860000000001
 20
115.73495200000001
 30
0.0
 40
0.4761100000000001
 50
182.11820899999989
 51
267.92488400000002
  0
ARC
  5
26B
  8
0
 62
     7
 10
92.317738000000006
 20
115.07935500000001
 30
0.0
 40
0.7791710000000001
 50
272.13115199999999
 51
357.86885699999999
  0
ARC
  5
26C
  8
0
 62
     7
 10
92.317070999999984
 20
115.02145400000001
 30
0.0
 40
0.779836
 50
2.1257410000000001
 51
87.821611000000004
  0
ARC
  5
26D
  8
0
 62
     7
 10
92.375698000000014
 20
115.021395
 30
0.0
 40
0.779871
 50
92.129972000000009
 51
177.86999800000001
  0
ARC
  5
26E
  8
0
 62
     7
 10
92.375011000000015
 20
115.079393
 30
0.0
 40
0.7791850000000001
 50
182.13394999999991
 51
267.91871700000002
  0
LINE
  5
26F
  8
0
 62
     7
 10
92.811099999999996
 20
114.92400000000001
 30
0.0
 11
92.687799999999996
 21
115.389
 31
0.0
  0
LINE
  5
270
  8
0
 62
     7
 10
92.223399999999998
 20
115.51600000000001
 30
0.0
 11
91.882300000000001
 21
115.176
 31
0.0
  0
ARC
  5
271
  8
0
 62
     7
 10
92.315039999999996
 20
115.081695
 30
0.0
 40
0.8649250000000001
 50
272.09859999999998
 51
357.92511000000002
  0
ARC
  5
272
  8
0
 62
     7
 10
92.314028000000008
 20
115.01876900000001
 30
0.0
 40
0.8659469999999998
 50
2.0920329999999998
 51
87.836884999999995
  0
ARC
  5
273
  8
0
 62
     7
 10
92.378397000000007
 20
115.01869600000001
 30
0.0
 40
0.8659819999999999
 50
92.096755999999999
 51
177.90321399999999
  0
ARC
  5
274
  8
0
 62
     7
 10
92.377719999999997
 20
115.08210200000001
 30
0.0
 40
0.8653069999999999
 50
182.100933
 51
267.9464680000001
  0
LINE
  5
275
  8
0
 62
     7
 10
90.679599999999994
 20
115.259
 30
0.0
 11
90.679599999999994
 21
115.884
 31
0.0
  0
ARC
  5
276
  8
0
 62
     7
 10
87.384696000000005
 20
116.671969
 30
0.0
 40
1.038702
 50
182.10835399999999
 51
267.87192900000002
  0
LINE
  5
277
  8
0
 62
     7
 10
87.346100000000007
 20
115.634
 30
0.0
 11
87.429800000000014
 21
115.637
 31
0.0
  0
LINE
  5
278
  8
0
 62
     7
 10
89.929599999999994
 20
116.634
 30
0.0
 11
93.179699999999997
 21
116.634
 31
0.0
  0
ARC
  5
279
  8
0
 62
     7
 10
89.818164999999993
 20
114.406666
 30
0.0
 40
0.70938
 50
279.0394490000001
 51
4.9168240000000001
  0
ARC
  5
27A
  8
0
 62
     7
 10
89.827432999999999
 20
114.364473
 30
0.0
 40
0.7050650000000001
 50
8.3996159999999982
 51
81.666727000000009
  0
ARC
  5
27B
  8
0
 62
     7
 10
92.320638999999986
 20
110.076185
 30
0.0
 40
0.7093500000000002
 50
272.10652900000002
 51
357.95126699999997
  0
ARC
  5
27C
  8
0
 62
     7
 10
92.320009999999996
 20
110.024839
 30
0.0
 40
0.7100010000000001
 50
2.097586999999999
 51
87.844616000000002
  0
ARC
  5
27D
  8
0
 62
     7
 10
92.372747999999987
 20
110.02479
 30
0.0
 40
0.710024
 50
92.101421999999985
 51
177.898549
  0
ARC
  5
27E
  8
0
 62
     7
 10
92.372747999999987
 20
110.07686200000001
 30
0.0
 40
0.710024
 50
182.101451
 51
267.89857799999999
  0
LINE
  5
27F
  8
0
 62
     7
 10
82.915400000000005
 20
116.634
 30
0.0
 11
83.15100000000001
 21
116.634
 31
0.0
  0
LINE
  5
280
  8
0
 62
     7
 10
82.070099999999996
 20
116.634
 30
0.0
 11
82.541600000000003
 21
116.634
 31
0.0
  0
LINE
  5
281
  8
0
 62
     7
 10
82.541600000000003
 20
116.634
 30
0.0
 11
82.915400000000005
 21
116.634
 31
0.0
  0
LINE
  5
282
  8
0
 62
     7
 10
83.15100000000001
 20
116.634
 30
0.0
 11
86.346699999999984
 21
116.634
 31
0.0
  0
LINE
  5
283
  8
0
 62
     7
 10
95.346699999999998
 20
111.259
 30
0.0
 11
95.346699999999998
 21
106.259
 31
0.0
  0
LINE
  5
284
  8
0
 62
     7
 10
95.262999999999991
 20
106.343
 30
0.0
 11
95.262999999999991
 21
111.175
 31
0.0
  0
LINE
  5
285
  8
0
 62
     7
 10
94.013099999999994
 20
101.634
 30
0.0
 11
94.013099999999994
 21
115.801
 31
0.0
  0
LINE
  5
286
  8
0
 62
     7
 10
96.93010000000001
 20
101.55
 30
0.0
 11
96.93010000000001
 21
115.884
 31
0.0
  0
LINE
  5
287
  8
0
 62
     7
 10
96.512900000000016
 20
101.55
 30
0.0
 11
96.512900000000016
 21
115.884
 31
0.0
  0
LINE
  5
288
  8
0
 62
     7
 10
95.262999999999991
 20
106.343
 30
0.0
 11
95.346699999999998
 21
106.259
 31
0.0
  0
LINE
  5
289
  8
0
 62
     7
 10
95.346699999999998
 20
106.259
 30
0.0
 11
96.512900000000016
 21
106.259
 31
0.0
  0
ARC
  5
28A
  8
0
 62
     7
 10
95.599762999999996
 20
104.25526499999999
 30
0.0
 40
0.087063
 50
92.153362000000016
 51
177.61033800000001
  0
LINE
  5
28B
  8
0
 62
     7
 10
96.512900000000016
 20
104.342
 30
0.0
 11
95.596500000000006
 21
104.342
 31
0.0
  0
ARC
  5
28C
  8
0
 62
     7
 10
95.599413999999996
 20
102.76217
 30
0.0
 40
0.0867
 50
182.167563
 51
268.068738
  0
LINE
  5
28D
  8
0
 62
     7
 10
95.596500000000006
 20
102.676
 30
0.0
 11
96.512900000000016
 21
102.676
 31
0.0
  0
LINE
  5
28E
  8
0
 62
     7
 10
96.512900000000016
 20
101.55
 30
0.0
 11
96.93010000000001
 21
101.55
 31
0.0
  0
LINE
  5
28F
  8
0
 62
     7
 10
96.93010000000001
 20
101.55
 30
0.0
 11
96.93010000000001
 21
100.992
 31
0.0
  0
LINE
  5
290
  8
0
 62
     7
 10
96.93010000000001
 20
100.801
 30
0.0
 11
96.512900000000016
 21
100.801
 31
0.0
  0
LINE
  5
291
  8
0
 62
     7
 10
96.93010000000001
 20
100.842
 30
0.0
 11
96.93010000000001
 21
100.801
 31
0.0
  0
LINE
  5
292
  8
0
 62
     7
 10
97.679800000000014
 20
100.842
 30
0.0
 11
96.93010000000001
 21
100.842
 31
0.0
  0
LINE
  5
293
  8
0
 62
     7
 10
96.93010000000001
 20
100.842
 30
0.0
 11
96.93010000000001
 21
100.992
 31
0.0
  0
LINE
  5
294
  8
0
 62
     7
 10
96.512900000000016
 20
100.801
 30
0.0
 11
96.512900000000016
 21
101.55
 31
0.0
  0
LINE
  5
295
  8
0
 62
     7
 10
96.179800000000014
 20
100.801
 30
0.0
 11
95.929599999999994
 21
100.801
 31
0.0
  0
LINE
  5
296
  8
0
 62
     7
 10
96.512900000000016
 20
100.801
 30
0.0
 11
96.179800000000014
 21
100.801
 31
0.0
  0
ARC
  5
297
  8
0
 62
     7
 10
94.891231000000005
 20
100.76204199999999
 30
0.0
 40
1.039121999999999
 50
2.1312599999999988
 51
87.888470999999996
  0
ARC
  5
298
  8
0
 62
     7
 10
94.968156000000008
 20
100.762405
 30
0.0
 40
1.0387729999999991
 50
92.131668000000005
 51
177.888049
  0
LINE
  5
299
  8
0
 62
     7
 10
95.512799999999999
 20
104.259
 30
0.0
 11
95.512799999999999
 21
102.759
 31
0.0
  0
LINE
  5
29A
  8
0
 62
     7
 10
95.596500000000006
 20
104.342
 30
0.0
 11
95.596500000000006
 21
102.676
 31
0.0
  0
LINE
  5
29B
  8
0
 62
     7
 10
96.93010000000001
 20
116.443
 30
0.0
 11
96.93010000000001
 21
116.676
 31
0.0
  0
LINE
  5
29C
  8
0
 62
     7
 10
96.512900000000016
 20
116.634
 30
0.0
 11
96.93010000000001
 21
116.634
 31
0.0
  0
LINE
  5
29D
  8
0
 62
     7
 10
96.93010000000001
 20
116.676
 30
0.0
 11
97.679800000000014
 21
116.676
 31
0.0
  0
LINE
  5
29E
  8
0
 62
     7
 10
96.93010000000001
 20
115.884
 30
0.0
 11
96.512900000000016
 21
115.884
 31
0.0
  0
LINE
  5
29F
  8
0
 62
     7
 10
96.512900000000016
 20
115.884
 30
0.0
 11
96.512900000000016
 21
116.634
 31
0.0
  0
LINE
  5
2A0
  8
0
 62
     7
 10
96.93010000000001
 20
116.443
 30
0.0
 11
96.93010000000001
 21
115.884
 31
0.0
  0
LINE
  5
2A1
  8
0
 62
     7
 10
96.179800000000014
 20
116.634
 30
0.0
 11
95.929599999999994
 21
116.634
 31
0.0
  0
LINE
  5
2A2
  8
0
 62
     7
 10
96.179800000000014
 20
116.634
 30
0.0
 11
96.512900000000016
 21
116.634
 31
0.0
  0
ARC
  5
2A3
  8
0
 62
     7
 10
95.599762999999996
 20
114.75529299999999
 30
0.0
 40
0.087063
 50
92.153362000000016
 51
177.61033800000001
  0
LINE
  5
2A4
  8
0
 62
     7
 10
96.512900000000016
 20
114.842
 30
0.0
 11
95.596500000000006
 21
114.842
 31
0.0
  0
ARC
  5
2A5
  8
0
 62
     7
 10
95.599413999999996
 20
113.262198
 30
0.0
 40
0.0867
 50
182.167563
 51
268.068738
  0
LINE
  5
2A6
  8
0
 62
     7
 10
95.596500000000006
 20
113.176
 30
0.0
 11
96.512900000000016
 21
113.176
 31
0.0
  0
LINE
  5
2A7
  8
0
 62
     7
 10
95.512799999999999
 20
113.259
 30
0.0
 11
95.512799999999999
 21
114.759
 31
0.0
  0
LINE
  5
2A8
  8
0
 62
     7
 10
95.596500000000006
 20
114.842
 30
0.0
 11
95.596500000000006
 21
113.176
 31
0.0
  0
LINE
  5
2A9
  8
0
 62
     7
 10
95.346699999999998
 20
111.259
 30
0.0
 11
95.262999999999991
 21
111.175
 31
0.0
  0
LINE
  5
2AA
  8
0
 62
     7
 10
96.512900000000016
 20
111.259
 30
0.0
 11
95.346699999999998
 21
111.259
 31
0.0
  0
ARC
  5
2AB
  8
0
 62
     7
 10
94.968481000000011
 20
116.672361
 30
0.0
 40
1.0391090000000001
 50
182.129189
 51
267.85109399999999
  0
ARC
  5
2AC
  8
0
 62
     7
 10
94.890906999999999
 20
116.672724
 30
0.0
 40
1.039458999999999
 50
272.12874399999998
 51
357.85152499999998
  0
LINE
  5
2AD
  8
0
 62
     7
 10
82.070099999999996
 20
112.768
 30
0.0
 11
82.070099999999996
 21
116.634
 31
0.0
  0
ARC
  5
2AE
  8
0
 62
     7
 10
87.340744999999998
 20
100.80313
 30
0.0
 40
0.9940509999999999
 50
156.96777700000001
 51
180.14090899999999
  0
LINE
  5
2AF
  8
0
 62
     7
 10
83.15100000000001
 20
100.967
 30
0.0
 11
83.15100000000001
 21
100.801
 31
0.0
  0
LINE
  5
2B0
  8
0
 62
     7
 10
82.070099999999996
 20
103.467
 30
0.0
 11
82.070099999999996
 21
103.551
 31
0.0
  0
LINE
  5
2B1
  8
0
 62
     7
 10
107.76300000000001
 20
100.842
 30
0.0
 11
97.679800000000014
 21
100.842
 31
0.0
  0
LINE
  5
2B2
  8
0
 62
     7
 10
107.76300000000001
 20
116.676
 30
0.0
 11
97.679800000000014
 21
116.676
 31
0.0
  0
LINE
  5
2B3
  8
0
 62
     7
 10
70.513300000000001
 20
112.384
 30
0.0
 11
70.513300000000001
 21
116.218
 31
0.0
  0
ARC
  5
2B4
  8
0
 62
     7
 10
75.887816000000001
 20
110.71986699999999
 30
0.0
 40
6.9082809999999988
 50
143.50571099999999
 51
173.511458
  0
LINE
  5
2B5
  8
0
 62
     7
 10
73.513099999999994
 20
106.724
 30
0.0
 11
73.513099999999994
 21
109.349
 31
0.0
  0
LINE
  5
2B6
  8
0
 62
     7
 10
68.846199999999996
 20
109.349
 30
0.0
 11
68.846199999999996
 21
103.884
 31
0.0
  0
LINE
  5
2B7
  8
0
 62
     7
 10
69.604600000000005
 20
100.93300000000001
 30
0.0
 11
70.846800000000002
 21
100.93300000000001
 31
0.0
  0
LINE
  5
2B8
  8
0
 62
     7
 10
70.736000000000004
 20
102.967
 30
0.0
 11
69.604600000000005
 21
102.967
 31
0.0
  0
LINE
  5
2B9
  8
0
 62
     7
 10
70.954899999999995
 20
100.57899999999999
 30
0.0
 11
69.457999999999998
 21
100.57899999999999
 31
0.0
  0
LINE
  5
2BA
  8
0
 62
     7
 10
70.764399999999995
 20
103.134
 30
0.0
 11
69.387799999999999
 21
103.134
 31
0.0
  0
LINE
  5
2BB
  8
0
 62
     7
 10
71.214200000000005
 20
99.967000000000013
 30
0.0
 11
68.846199999999996
 21
99.967000000000013
 31
0.0
  0
LINE
  5
2BC
  8
0
 62
     7
 10
70.861199999999997
 20
103.551
 30
0.0
 11
69.179500000000004
 21
103.551
 31
0.0
  0
LINE
  5
2BD
  8
0
 62
     7
 10
69.604600000000005
 20
102.967
 30
0.0
 11
69.604600000000005
 21
100.93300000000001
 31
0.0
  0
LINE
  5
2BE
  8
0
 62
     7
 10
69.457999999999998
 20
100.57899999999999
 30
0.0
 11
68.846199999999996
 21
99.967000000000013
 31
0.0
  0
ARC
  5
2BF
  8
0
 62
     7
 10
69.097444999999993
 20
100.936187
 30
0.0
 40
0.5071979999999999
 50
315.31316099999998
 51
359.63757800000002
  0
ARC
  5
2C0
  8
0
 62
     7
 10
69.192428000000007
 20
103.89681
 30
0.0
 40
0.346472
 50
182.10791800000001
 51
267.86250899999999
  0
LINE
  5
2C1
  8
0
 62
     7
 10
69.387799999999999
 20
103.551
 30
0.0
 11
69.387799999999999
 21
103.134
 31
0.0
  0
ARC
  5
2C2
  8
0
 62
     7
 10
69.431325000000001
 20
102.96041200000001
 30
0.0
 40
0.173431
 50
2.1688740000000002
 51
87.831116000000009
  0
ARC
  5
2C3
  8
0
 62
     7
 10
71.188484000000003
 20
112.388687
 30
0.0
 40
0.67522
 50
180.409671
 51
266.37608699999998
  0
LINE
  5
2C4
  8
0
 62
     7
 10
71.145799999999994
 20
111.715
 30
0.0
 11
71.163899999999984
 21
111.714
 31
0.0
  0
LINE
  5
2C5
  8
0
 62
     7
 10
68.848100000000002
 20
109.349
 30
0.0
 11
69.023799999999994
 21
111.501
 31
0.0
  0
ARC
  5
2C6
  8
0
 62
     7
 10
54.724151999999997
 20
108.623794
 30
0.0
 40
18.802945000000001
 50
2.2094930000000002
 51
6.5345729999999991
  0
LINE
  5
2C7
  8
0
 62
     7
 10
71.437399999999997
 20
106.675
 30
0.0
 11
71.437399999999997
 21
107.10899999999999
 31
0.0
  0
LINE
  5
2C8
  8
0
 62
     7
 10
71.437399999999997
 20
107.10899999999999
 30
0.0
 11
71.586799999999997
 21
107.10899999999999
 31
0.0
  0
LINE
  5
2C9
  8
0
 62
     7
 10
70.921499999999995
 20
107.10899999999999
 30
0.0
 11
70.921499999999995
 21
106.675
 31
0.0
  0
LINE
  5
2CA
  8
0
 62
     7
 10
70.772499999999994
 20
107.10899999999999
 30
0.0
 11
70.921499999999995
 21
107.10899999999999
 31
0.0
  0
LINE
  5
2CB
  8
0
 62
     7
 10
71.437399999999997
 20
106.553
 30
0.0
 11
70.921499999999995
 21
106.553
 31
0.0
  0
LINE
  5
2CC
  8
0
 62
     7
 10
70.921499999999995
 20
106.675
 30
0.0
 11
71.437399999999997
 21
106.675
 31
0.0
  0
LINE
  5
2CD
  8
0
 62
     7
 10
71.586799999999997
 20
106.05
 30
0.0
 11
71.437399999999997
 21
106.05
 31
0.0
  0
LINE
  5
2CE
  8
0
 62
     7
 10
70.921499999999995
 20
106.05
 30
0.0
 11
70.772499999999994
 21
106.05
 31
0.0
  0
LINE
  5
2CF
  8
0
 62
     7
 10
71.586799999999997
 20
107.10899999999999
 30
0.0
 11
71.586799999999997
 21
106.05
 31
0.0
  0
LINE
  5
2D0
  8
0
 62
     7
 10
70.772499999999994
 20
106.05
 30
0.0
 11
70.772499999999994
 21
107.10899999999999
 31
0.0
  0
LINE
  5
2D1
  8
0
 62
     7
 10
70.921499999999995
 20
106.553
 30
0.0
 11
70.921499999999995
 21
106.05
 31
0.0
  0
LINE
  5
2D2
  8
0
 62
     7
 10
71.437399999999997
 20
106.05
 30
0.0
 11
71.437399999999997
 21
106.553
 31
0.0
  0
ARC
  5
2D3
  8
0
 62
     7
 10
71.904972999999998
 20
67.377688000000006
 30
0.0
 40
44.343097
 50
89.740293000000008
 51
90.939999999999984
  0
LINE
  5
2D4
  8
0
 62
     7
 10
77.846199999999996
 20
109.349
 30
0.0
 11
77.846199999999996
 21
106.724
 31
0.0
  0
ARC
  5
2D5
  8
0
 62
     7
 10
97.052753000000024
 20
108.59704600000001
 30
0.0
 40
19.221240999999999
 50
173.52694399999999
 51
177.758804
  0
ARC
  5
2D6
  8
0
 62
     7
 10
80.201256999999984
 20
106.735895
 30
0.0
 40
0.267391
 50
10.100237
 51
90.508246
  0
ARC
  5
2D7
  8
0
 62
     7
 10
80.210138000000001
 20
106.63205499999999
 30
0.0
 40
0.4966390000000001
 50
90.463607999999994
 51
176.35980900000001
  0
ARC
  5
2D8
  8
0
 62
     7
 10
80.211559999999992
 20
106.65044899999999
 30
0.0
 40
0.497233
 50
178.48591300000001
 51
187.23889700000001
  0
ARC
  5
2D9
  8
0
 62
     7
 10
80.188286000000005
 20
106.461282
 30
0.0
 40
0.305655
 50
271.79326400000002
 51
353.08756899999997
  0
ARC
  5
2DA
  8
0
 62
     7
 10
79.410748999999996
 20
59.868096999999999
 30
0.0
 40
51.852471999999999
 50
89.146597999999997
 51
90.174077999999994
  0
ARC
  5
2DB
  8
0
 62
     7
 10
79.429935
 20
122.63411600000001
 30
0.0
 40
2.5001220000000002
 50
90.007894999999991
 51
180.00790499999999
  0
ARC
  5
2DC
  8
0
 62
     7
 10
79.429676999999998
 20
122.63385700000001
 30
0.0
 40
5.000157999999999
 50
90.000986999999981
 51
180.0009969999999
  0
LINE
  5
2DD
  8
0
 62
     7
 10
73.679500000000004
 20
122.218
 30
0.0
 11
75.096299999999999
 21
122.218
 31
0.0
  0
LINE
  5
2DE
  8
0
 62
     7
 10
76.263199999999983
 20
122.218
 30
0.0
 11
77.6798
 21
122.218
 31
0.0
  0
LINE
  5
2DF
  8
0
 62
     7
 10
74.429500000000004
 20
122.634
 30
0.0
 11
74.429500000000004
 21
122.218
 31
0.0
  0
LINE
  5
2E0
  8
0
 62
     7
 10
74.429500000000004
 20
122.634
 30
0.0
 11
74.429500000000004
 21
122.218
 31
0.0
  0
ARC
  5
2E1
  8
0
 62
     7
 10
71.197792000000007
 20
116.205302
 30
0.0
 40
0.68462
 50
111.28574499999991
 51
178.97193200000001
  0
ARC
  5
2E2
  8
0
 62
     7
 10
69.702341000000004
 20
115.37922500000001
 30
0.0
 40
0.8381219999999999
 50
318.92264499999999
 51
345.36846300000002
  0
ARC
  5
2E3
  8
0
 62
     7
 10
73.692674999999994
 20
121.871315
 30
0.0
 40
0.346537
 50
92.175957000000025
 51
177.88323399999999
  0
LINE
  5
2E4
  8
0
 62
     7
 10
73.346400000000003
 20
121.884
 30
0.0
 11
73.346400000000003
 21
119.64
 31
0.0
  0
LINE
  5
2E5
  8
0
 62
     7
 10
76.9298
 20
122.218
 30
0.0
 11
76.9298
 21
122.634
 31
0.0
  0
LINE
  5
2E6
  8
0
 62
     7
 10
76.9298
 20
122.218
 30
0.0
 11
76.9298
 21
122.634
 31
0.0
  0
LINE
  5
2E7
  8
0
 62
     7
 10
78.013000000000005
 20
119.64
 30
0.0
 11
78.013000000000005
 21
121.884
 31
0.0
  0
ARC
  5
2E8
  8
0
 62
     7
 10
77.666725999999997
 20
121.87138299999999
 30
0.0
 40
0.346466
 50
2.1059380000000001
 51
87.834831999999992
  0
ARC
  5
2E9
  8
0
 62
     7
 10
73.763630000000006
 20
108.72251199999999
 30
0.0
 40
0.521715
 50
241.30343400000001
 51
269.91858999999999
  0
ARC
  5
2EA
  8
0
 62
     7
 10
73.743026
 20
108.737071
 30
0.0
 40
0.5366400000000001
 50
272.12118800000002
 51
357.91703200000001
  0
ARC
  5
2EB
  8
0
 62
     7
 10
73.743389000000008
 20
108.69770800000001
 30
0.0
 40
0.536291
 50
2.122004
 51
87.916220999999993
  0
ARC
  5
2EC
  8
0
 62
     7
 10
73.762551000000002
 20
108.716137
 30
0.0
 40
0.5175070000000001
 50
89.962577999999993
 51
118.815398
  0
ARC
  5
2ED
  8
0
 62
     7
 10
77.604181999999994
 20
108.6904
 30
0.0
 40
0.5368230000000001
 50
63.201070000000001
 51
148.98652799999999
  0
ARC
  5
2EE
  8
0
 62
     7
 10
77.623390999999998
 20
108.72486000000001
 30
0.0
 40
0.5369810000000002
 50
153.19767899999999
 51
238.93802600000001
  0
ARC
  5
2EF
  8
0
 62
     7
 10
77.596840999999998
 20
108.72252
 30
0.0
 40
0.5217220000000001
 50
241.303729
 51
269.95629100000002
  0
ARC
  5
2F0
  8
0
 62
     7
 10
77.596781000000007
 20
108.718305
 30
0.0
 40
0.5175070000000001
 50
269.96259800000001
 51
298.81541800000002
  0
LINE
  5
2F1
  8
0
 62
     7
 10
60.67969999999999
 20
108.03400000000001
 30
0.0
 11
60.67969999999999
 21
109.40000000000001
 31
0.0
  0
ARC
  5
2F2
  8
0
 62
     7
 10
60.653666000000001
 20
108.743432
 30
0.0
 40
0.7098560000000002
 50
272.10272500000002
 51
357.91172599999999
  0
ARC
  5
2F3
  8
0
 62
     7
 10
60.654186000000003
 20
108.69150399999999
 30
0.0
 40
0.7093430000000001
 50
2.105553
 51
87.937782999999996
  0
ARC
  5
2F4
  8
0
 62
     7
 10
60.705698999999989
 20
108.69086299999999
 30
0.0
 40
0.7100010000000001
 50
92.097577000000001
 51
177.844606
  0
ARC
  5
2F5
  8
0
 62
     7
 10
60.705746999999988
 20
108.743601
 30
0.0
 40
0.710024
 50
182.101451
 51
267.89857799999999
  0
LINE
  5
2F6
  8
0
 62
     7
 10
69.289100000000005
 20
116.634
 30
0.0
 11
69.289100000000005
 21
112.76900000000001
 31
0.0
  0
LINE
  5
2F7
  8
0
 62
     7
 10
68.208200000000005
 20
100.801
 30
0.0
 11
68.208200000000005
 21
116.634
 31
0.0
  0
LINE
  5
2F8
  8
0
 62
     7
 10
57.346200000000003
 20
101.634
 30
0.0
 11
57.346200000000003
 21
115.801
 31
0.0
  0
LINE
  5
2F9
  8
0
 62
     7
 10
54.846299999999999
 20
116.634
 30
0.0
 11
54.846299999999999
 21
100.801
 31
0.0
  0
LINE
  5
2FA
  8
0
 62
     7
 10
63.012900000000002
 20
100.801
 30
0.0
 11
58.1798
 21
100.801
 31
0.0
  0
ARC
  5
2FB
  8
0
 62
     7
 10
58.986899999999999
 20
107.40983300000001
 30
0.0
 40
0.709518
 50
272.10526099999998
 51
357.938084
  0
ARC
  5
2FC
  8
0
 62
     7
 10
58.987105
 20
107.358268
 30
0.0
 40
0.709331
 50
2.1036199999999998
 51
87.910821999999996
  0
ARC
  5
2FD
  8
0
 62
     7
 10
59.038950999999997
 20
107.357602
 30
0.0
 40
0.7100010000000001
 50
92.097577000000001
 51
177.844606
  0
ARC
  5
2FE
  8
0
 62
     7
 10
59.039000000000001
 20
107.410341
 30
0.0
 40
0.710024
 50
182.101451
 51
267.89857799999999
  0
ARC
  5
2FF
  8
0
 62
     7
 10
61.487242000000002
 20
103.076542
 30
0.0
 40
0.709494
 50
272.10139600000002
 51
357.884162
  0
ARC
  5
300
  8
0
 62
     7
 10
61.486722
 20
103.024348
 30
0.0
 40
0.7100070000000001
 50
2.098552999999999
 51
87.858102999999986
  0
ARC
  5
301
  8
0
 62
     7
 10
61.539293000000008
 20
103.02431199999999
 30
0.0
 40
0.710024
 50
92.101421999999985
 51
177.898549
  0
ARC
  5
302
  8
0
 62
     7
 10
61.538615999999998
 20
103.076421
 30
0.0
 40
0.709349
 50
182.10652200000001
 51
267.95129500000002
  0
ARC
  5
303
  8
0
 62
     7
 10
59.84494999999999
 20
101.635047
 30
0.0
 40
0.8347629999999998
 50
333.85056700000001
 51
359.90863000000002
  0
ARC
  5
304
  8
0
 62
     7
 10
60.662525000000002
 20
101.734273
 30
0.0
 40
0.4756970000000001
 50
272.07047
 51
357.92953999999997
  0
ARC
  5
305
  8
0
 62
     7
 10
60.661450999999992
 20
101.69954199999999
 30
0.0
 40
0.4767850000000001
 50
2.1089020000000001
 51
87.804993999999994
  0
ARC
  5
306
  8
0
 62
     7
 10
60.696918000000011
 20
101.700059
 30
0.0
 40
0.4762290000000001
 50
92.070615000000004
 51
177.95086699999999
  0
ARC
  5
307
  8
0
 62
     7
 10
60.696784999999998
 20
101.734697
 30
0.0
 40
0.4761160000000001
 50
182.11964900000001
 51
267.94496400000003
  0
LINE
  5
308
  8
0
 62
     7
 10
60.67969999999999
 20
101.634
 30
0.0
 11
60.67969999999999
 21
102.175
 31
0.0
  0
LINE
  5
309
  8
0
 62
     7
 10
59.136099999999999
 20
101.919
 30
0.0
 11
59.476799999999997
 21
102.258
 31
0.0
  0
LINE
  5
30A
  8
0
 62
     7
 10
59.476799999999997
 20
102.258
 30
0.0
 11
59.354199999999999
 21
102.723
 31
0.0
  0
LINE
  5
30B
  8
0
 62
     7
 10
58.5486
 20
102.51000000000001
 30
0.0
 11
58.671700000000001
 21
102.045
 31
0.0
  0
LINE
  5
30C
  8
0
 62
     7
 10
58.671700000000001
 20
102.045
 30
0.0
 11
59.136099999999999
 21
101.919
 31
0.0
  0
LINE
  5
30D
  8
0
 62
     7
 10
59.354199999999999
 20
102.723
 30
0.0
 11
58.889800000000001
 21
102.849
 31
0.0
  0
LINE
  5
30E
  8
0
 62
     7
 10
58.889800000000001
 20
102.849
 30
0.0
 11
58.5486
 21
102.51000000000001
 31
0.0
  0
ARC
  5
30F
  8
0
 62
     7
 10
58.211317999999999
 20
101.665808
 30
0.0
 40
0.8656969999999999
 50
182.12450999999999
 51
267.91105199999998
  0
LINE
  5
310
  8
0
 62
     7
 10
58.1798
 20
100.801
 30
0.0
 11
57.346200000000003
 21
100.801
 31
0.0
  0
ARC
  5
311
  8
0
 62
     7
 10
58.981260999999989
 20
102.415229
 30
0.0
 40
0.8654659999999999
 50
272.09928000000002
 51
357.9362549999999
  0
ARC
  5
312
  8
0
 62
     7
 10
58.981074999999997
 20
102.351994
 30
0.0
 40
0.865685
 50
2.1229070000000001
 51
87.888929000000005
  0
ARC
  5
313
  8
0
 62
     7
 10
59.044618
 20
102.35222899999999
 30
0.0
 40
0.865441
 50
92.096074000000016
 51
177.89204899999999
  0
ARC
  5
314
  8
0
 62
     7
 10
59.045540000000003
 20
102.416102
 30
0.0
 40
0.8663709999999998
 50
182.119384
 51
267.84512100000001
  0
ARC
  5
315
  8
0
 62
     7
 10
58.983964
 20
102.41288299999999
 30
0.0
 40
0.779707
 50
272.13152400000001
 51
357.881641
  0
ARC
  5
316
  8
0
 62
     7
 10
58.984890999999998
 20
102.355453
 30
0.0
 40
0.7787730000000001
 50
2.1053000000000002
 51
87.934172999999987
  0
ARC
  5
317
  8
0
 62
     7
 10
59.041909999999987
 20
102.354579
 30
0.0
 40
0.779678
 50
92.127625999999992
 51
177.83286100000001
  0
ARC
  5
318
  8
0
 62
     7
 10
59.041733000000001
 20
102.41265300000001
 30
0.0
 40
0.7794680000000001
 50
182.102079
 51
267.88479599999999
  0
ARC
  5
319
  8
0
 62
     7
 10
58.972960999999998
 20
102.423528
 30
0.0
 40
1.0820099999999999
 50
272.11877299999998
 51
357.90966400000002
  0
ARC
  5
31A
  8
0
 62
     7
 10
58.972479
 20
102.344114
 30
0.0
 40
1.0825089999999991
 50
2.1148679999999991
 51
87.856695000000002
  0
ARC
  5
31B
  8
0
 62
     7
 10
59.012963999999997
 20
102.384062
 30
0.0
 40
1.041804
 50
90.0
 51
179.99996999999999
  0
ARC
  5
31C
  8
0
 62
     7
 10
59.012963999999997
 20
102.384062
 30
0.0
 40
1.041803
 50
179.99996999999999
 51
270.00002000000001
  0
LINE
  5
31D
  8
0
 62
     7
 10
55.1798
 20
100.801
 30
0.0
 11
54.846299999999999
 21
100.801
 31
0.0
  0
LINE
  5
31E
  8
0
 62
     7
 10
55.346499999999999
 20
100.801
 30
0.0
 11
55.1798
 21
100.801
 31
0.0
  0
ARC
  5
31F
  8
0
 62
     7
 10
56.308199000000002
 20
100.762422
 30
0.0
 40
1.0387230000000001
 50
2.1111219999999991
 51
87.918476000000027
  0
ARC
  5
320
  8
0
 62
     7
 10
56.384565000000002
 20
100.762405
 30
0.0
 40
1.0387729999999991
 50
92.131668000000005
 51
177.888049
  0
LINE
  5
321
  8
0
 62
     7
 10
68.817800000000005
 20
100.801
 30
0.0
 11
68.443799999999996
 21
100.801
 31
0.0
  0
LINE
  5
322
  8
0
 62
     7
 10
68.443799999999996
 20
100.801
 30
0.0
 11
68.208200000000005
 21
100.801
 31
0.0
  0
LINE
  5
323
  8
0
 62
     7
 10
69.289100000000005
 20
100.801
 30
0.0
 11
68.817800000000005
 21
100.801
 31
0.0
  0
ARC
  5
324
  8
0
 62
     7
 10
63.974973999999989
 20
100.762446
 30
0.0
 40
1.03871
 50
2.1098020000000002
 51
87.900058999999999
  0
ARC
  5
325
  8
0
 62
     7
 10
64.051641000000004
 20
100.761543
 30
0.0
 40
1.039633
 50
92.128122000000005
 51
177.842241
  0
LINE
  5
326
  8
0
 62
     7
 10
68.208200000000005
 20
100.801
 30
0.0
 11
65.013000000000005
 21
100.801
 31
0.0
  0
LINE
  5
327
  8
0
 62
     7
 10
63.012900000000002
 20
116.634
 30
0.0
 11
58.1798
 21
116.634
 31
0.0
  0
ARC
  5
328
  8
0
 62
     7
 10
59.844107999999999
 20
115.799891
 30
0.0
 40
0.8356040000000001
 50
0.057325
 51
26.135943999999999
  0
LINE
  5
329
  8
0
 62
     7
 10
59.354199999999999
 20
115.389
 30
0.0
 11
58.889800000000001
 21
115.51600000000001
 31
0.0
  0
ARC
  5
32A
  8
0
 62
     7
 10
58.211406999999987
 20
115.768545
 30
0.0
 40
0.8657889999999998
 50
92.094642000000007
 51
177.86979600000001
  0
LINE
  5
32B
  8
0
 62
     7
 10
58.1798
 20
116.634
 30
0.0
 11
57.346200000000003
 21
116.634
 31
0.0
  0
ARC
  5
32C
  8
0
 62
     7
 10
61.487192999999998
 20
114.409622
 30
0.0
 40
0.709518
 50
272.10526099999998
 51
357.938084
  0
ARC
  5
32D
  8
0
 62
     7
 10
61.486722
 20
114.35809500000001
 30
0.0
 40
0.7100070000000001
 50
2.098552999999999
 51
87.858102999999986
  0
ARC
  5
32E
  8
0
 62
     7
 10
61.539293000000008
 20
114.358059
 30
0.0
 40
0.710024
 50
92.101421999999985
 51
177.898549
  0
ARC
  5
32F
  8
0
 62
     7
 10
61.539293000000008
 20
114.41013
 30
0.0
 40
0.710024
 50
182.101451
 51
267.89857799999999
  0
LINE
  5
330
  8
0
 62
     7
 10
59.136099999999999
 20
114.58499999999999
 30
0.0
 11
59.476799999999997
 21
114.92400000000001
 31
0.0
  0
LINE
  5
331
  8
0
 62
     7
 10
58.5486
 20
115.176
 30
0.0
 11
58.671700000000001
 21
114.711
 31
0.0
  0
LINE
  5
332
  8
0
 62
     7
 10
58.671700000000001
 20
114.711
 30
0.0
 11
59.136099999999999
 21
114.58499999999999
 31
0.0
  0
ARC
  5
333
  8
0
 62
     7
 10
60.662525000000002
 20
115.73454099999999
 30
0.0
 40
0.4756970000000001
 50
272.07047
 51
357.92953999999997
  0
ARC
  5
334
  8
0
 62
     7
 10
60.662137999999992
 20
115.699781
 30
0.0
 40
0.476098
 50
2.115327999999999
 51
87.884662000000006
  0
ARC
  5
335
  8
0
 62
     7
 10
60.696869999999997
 20
115.69965999999999
 30
0.0
 40
0.476204
 50
92.064869999999999
 51
177.870518
  0
ARC
  5
336
  8
0
 62
     7
 10
60.696784999999998
 20
115.73496400000001
 30
0.0
 40
0.4761160000000001
 50
182.11964900000001
 51
267.94496400000003
  0
ARC
  5
337
  8
0
 62
     7
 10
58.981310000000001
 20
115.082213
 30
0.0
 40
0.865441
 50
272.09611100000012
 51
357.89205199999998
  0
ARC
  5
338
  8
0
 62
     7
 10
58.980387
 20
115.01833999999999
 30
0.0
 40
0.8663709999999998
 50
2.119364
 51
87.845101
  0
ARC
  5
339
  8
0
 62
     7
 10
59.044666999999997
 20
115.01921400000001
 30
0.0
 40
0.8654659999999999
 50
92.099243000000001
 51
177.936252
  0
ARC
  5
33A
  8
0
 62
     7
 10
59.044862999999999
 20
115.082458
 30
0.0
 40
0.8656950000000001
 50
182.1235749999999
 51
267.8883009999999
  0
ARC
  5
33B
  8
0
 62
     7
 10
58.98401299999999
 20
115.079868
 30
0.0
 40
0.779683
 50
272.12801000000002
 51
357.832517
  0
ARC
  5
33C
  8
0
 62
     7
 10
58.984214000000001
 20
115.021809
 30
0.0
 40
0.779448
 50
2.1006819999999991
 51
87.886153000000007
  0
ARC
  5
33D
  8
0
 62
     7
 10
59.041958000000001
 20
115.021564
 30
0.0
 40
0.7797010000000001
 50
92.131123000000017
 51
177.882002
  0
ARC
  5
33E
  8
0
 62
     7
 10
59.041035999999998
 20
115.07898900000001
 30
0.0
 40
0.7787730000000001
 50
182.10530199999999
 51
267.93421000000001
  0
LINE
  5
33F
  8
0
 62
     7
 10
59.476799999999997
 20
114.92400000000001
 30
0.0
 11
59.354199999999999
 21
115.389
 31
0.0
  0
LINE
  5
340
  8
0
 62
     7
 10
58.889800000000001
 20
115.51600000000001
 30
0.0
 11
58.5486
 21
115.176
 31
0.0
  0
ARC
  5
341
  8
0
 62
     7
 10
58.973009999999988
 20
115.090513
 30
0.0
 40
1.0819859999999999
 50
272.11624
 51
357.87429100000003
  0
ARC
  5
342
  8
0
 62
     7
 10
58.972479
 20
115.01043199999999
 30
0.0
 40
1.0825089999999991
 50
2.1148679999999991
 51
87.856695000000002
  0
ARC
  5
343
  8
0
 62
     7
 10
59.012963999999997
 20
115.05038
 30
0.0
 40
1.041804
 50
90.0
 51
179.99996999999999
  0
ARC
  5
344
  8
0
 62
     7
 10
59.052270999999998
 20
115.090402
 30
0.0
 40
1.0818509999999999
 50
182.12011699999999
 51
267.91781900000001
  0
LINE
  5
345
  8
0
 62
     7
 10
60.67969999999999
 20
115.259
 30
0.0
 11
60.67969999999999
 21
115.801
 31
0.0
  0
LINE
  5
346
  8
0
 62
     7
 10
54.846299999999999
 20
116.634
 30
0.0
 11
55.1798
 21
116.634
 31
0.0
  0
LINE
  5
347
  8
0
 62
     7
 10
55.346499999999999
 20
116.634
 30
0.0
 11
55.1798
 21
116.634
 31
0.0
  0
ARC
  5
348
  8
0
 62
     7
 10
56.384496999999989
 20
116.671969
 30
0.0
 40
1.038702
 50
182.10835399999999
 51
267.87192900000002
  0
ARC
  5
349
  8
0
 62
     7
 10
56.307319999999997
 20
116.672899
 30
0.0
 40
1.039633
 50
272.12814200000003
 51
357.84226100000001
  0
ARC
  5
34A
  8
0
 62
     7
 10
58.986899999999999
 20
110.07635399999999
 30
0.0
 40
0.709518
 50
272.10526099999998
 51
357.938084
  0
ARC
  5
34B
  8
0
 62
     7
 10
58.986428000000011
 20
110.024827
 30
0.0
 40
0.7100070000000001
 50
2.098552999999999
 51
87.858102999999986
  0
ARC
  5
34C
  8
0
 62
     7
 10
59.039000000000001
 20
110.02479
 30
0.0
 40
0.710024
 50
92.101421999999985
 51
177.898549
  0
ARC
  5
34D
  8
0
 62
     7
 10
59.039000000000001
 20
110.07686200000001
 30
0.0
 40
0.710024
 50
182.101451
 51
267.89857799999999
  0
LINE
  5
34E
  8
0
 62
     7
 10
68.817800000000005
 20
116.634
 30
0.0
 11
68.443799999999996
 21
116.634
 31
0.0
  0
LINE
  5
34F
  8
0
 62
     7
 10
68.208200000000005
 20
116.634
 30
0.0
 11
68.443799999999996
 21
116.634
 31
0.0
  0
LINE
  5
350
  8
0
 62
     7
 10
68.817800000000005
 20
116.634
 30
0.0
 11
69.289100000000005
 21
116.634
 31
0.0
  0
ARC
  5
351
  8
0
 62
     7
 10
64.050771999999995
 20
116.67203000000001
 30
0.0
 40
1.038732999999999
 50
182.11165299999999
 51
267.91798399999999
  0
ARC
  5
352
  8
0
 62
     7
 10
63.974409999999999
 20
116.67256
 30
0.0
 40
1.0392950000000001
 50
272.12989399999998
 51
357.86024500000002
  0
LINE
  5
353
  8
0
 62
     7
 10
68.208200000000005
 20
116.634
 30
0.0
 11
65.013000000000005
 21
116.634
 31
0.0
  0
LINE
  5
354
  8
0
 62
     7
 10
69.289100000000005
 20
103.551
 30
0.0
 11
69.289100000000005
 21
100.801
 31
0.0
  0
LINE
  5
355
  8
0
 62
     7
 10
70.659400000000005
 20
116.634
 30
0.0
 11
69.289100000000005
 21
116.634
 31
0.0
  0
LINE
  5
356
  8
0
 62
     7
 10
69.586699999999993
 20
100.801
 30
0.0
 11
69.289100000000005
 21
100.801
 31
0.0
  0
LINE
  5
357
  8
0
 62
     7
 10
43.17969999999999
 20
137.697
 30
0.0
 11
43.17969999999999
 21
117.12
 31
0.0
  0
LINE
  5
358
  8
0
 62
     7
 10
54.0961
 20
100.801
 30
0.0
 11
44.012900000000002
 21
100.801
 31
0.0
  0
LINE
  5
359
  8
0
 62
     7
 10
54.0961
 20
116.634
 30
0.0
 11
44.012900000000002
 21
116.634
 31
0.0
  0
LINE
  5
35A
  8
0
 62
     7
 10
54.846299999999999
 20
100.801
 30
0.0
 11
54.0961
 21
100.801
 31
0.0
  0
LINE
  5
35B
  8
0
 62
     7
 10
54.0961
 20
116.634
 30
0.0
 11
54.846299999999999
 21
116.634
 31
0.0
  0
LINE
  5
35C
  8
0
 62
     7
 10
82.512999999999977
 20
99.967000000000013
 30
0.0
 11
80.144800000000004
 21
99.967000000000013
 31
0.0
  0
LINE
  5
35D
  8
0
 62
     7
 10
84.929400000000001
 20
103.467
 30
0.0
 11
80.521999999999991
 21
103.467
 31
0.0
  0
LINE
  5
35E
  8
0
 62
     7
 10
80.521900000000016
 20
100.967
 30
0.0
 11
84.929400000000001
 21
100.967
 31
0.0
  0
LINE
  5
35F
  8
0
 62
     7
 10
80.521900000000016
 20
100.93300000000001
 30
0.0
 11
81.7547
 21
100.93300000000001
 31
0.0
  0
LINE
  5
360
  8
0
 62
     7
 10
81.9011
 20
100.57899999999999
 30
0.0
 11
80.403899999999993
 21
100.57899999999999
 31
0.0
  0
LINE
  5
361
  8
0
 62
     7
 10
80.521999999999991
 20
103.551
 30
0.0
 11
82.179699999999997
 21
103.551
 31
0.0
  0
LINE
  5
362
  8
0
 62
     7
 10
80.208899999999986
 20
106.035
 30
0.0
 11
80.226799999999983
 21
106.035
 31
0.0
  0
ARC
  5
363
  8
0
 62
     7
 10
80.214481000000006
 20
106.467923
 30
0.0
 40
0.43359
 50
271.62674700000002
 51
349.56014900000002
  0
ARC
  5
364
  8
0
 62
     7
 10
80.216744999999989
 20
106.713132
 30
0.0
 40
0.410171
 50
14.404985
 51
91.484463000000005
  0
ARC
  5
365
  8
0
 62
     7
 10
80.170451
 20
112.39024499999999
 30
0.0
 40
0.6765780000000001
 50
272.1166740000001
 51
357.88333599999999
  0
ARC
  5
366
  8
0
 62
     7
 10
80.438256999999993
 20
112.36699900000001
 30
0.0
 40
0.4083140000000001
 50
359.75531699999999
 51
2.3665060000000002
  0
ARC
  5
367
  8
0
 62
     7
 10
80.162603000000004
 20
116.205489
 30
0.0
 40
0.684071
 50
1.0132069999999991
 51
68.869179000000003
  0
LINE
  5
368
  8
0
 62
     7
 10
79.429599999999994
 20
125.134
 30
0.0
 11
84.929400000000001
 21
125.134
 31
0.0
  0
LINE
  5
369
  8
0
 62
     7
 10
84.929400000000001
 20
127.634
 30
0.0
 11
79.429599999999994
 21
127.634
 31
0.0
  0
LINE
  5
36A
  8
0
 62
     7
 10
107.76300000000001
 20
191.98500000000001
 30
0.0
 11
108.59699999999999
 21
191.98500000000001
 31
0.0
  0
LINE
  5
36B
  8
0
 62
     7
 10
108.59699999999999
 20
191.56899999999999
 30
0.0
 11
107.76300000000001
 21
191.56899999999999
 31
0.0
  0
LINE
  5
36C
  8
0
 62
     7
 10
107.76300000000001
 20
191.56899999999999
 30
0.0
 11
107.76300000000001
 21
191.98500000000001
 31
0.0
  0
LINE
  5
36D
  8
0
 62
     7
 10
108.59699999999999
 20
191.98500000000001
 30
0.0
 11
108.59699999999999
 21
191.56899999999999
 31
0.0
  0
ARC
  5
36E
  8
0
 62
     7
 10
86.073560000000015
 20
192.51559
 30
0.0
 40
5.2958249999999989
 50
70.715136999999999
 51
87.073453999999984
  0
ARC
  5
36F
  8
0
 62
     7
 10
88.685895000000002
 20
198.37042299999999
 30
0.0
 40
1.2668469999999989
 50
220.45889500000001
 51
269.6588450000001
  0
ARC
  5
370
  8
0
 62
     7
 10
88.678179
 20
198.35434900000001
 30
0.0
 40
1.25075
 50
270.00791099999998
 51
0.007881
  0
ARC
  5
371
  8
0
 62
     7
 10
88.686689000000015
 20
198.35555600000001
 30
0.0
 40
1.242240999999999
 50
359.95228400000002
 51
14.823183
  0
ARC
  5
372
  8
0
 62
     7
 10
88.725523999999993
 20
197.16378900000001
 30
0.0
 40
1.298138999999999
 50
183.52555100000001
 51
267.978387
  0
ARC
  5
373
  8
0
 62
     7
 10
88.633495999999994
 20
197.164321
 30
0.0
 40
1.2986869999999999
 50
272.04020700000001
 51
356.39914199999998
  0
ARC
  5
374
  8
0
 62
     7
 10
86.433283999999986
 20
193.765614
 30
0.0
 40
6.4993769999999991
 50
69.312348
 51
83.004452000000001
  0
ARC
  5
375
  8
0
 62
     7
 10
86.435675000000003
 20
201.62871799999999
 30
0.0
 40
6.4894579999999991
 50
276.98503299999999
 51
290.69816700000001
  0
LINE
  5
376
  8
0
 62
     7
 10
80.846199999999996
 20
196.285
 30
0.0
 11
80.874099999999999
 21
197.869
 31
0.0
  0
ARC
  5
377
  8
0
 62
     7
 10
85.010342000000009
 20
211.213852
 30
0.0
 40
16.178702999999999
 50
269.970707
 51
277.86726299999998
  0
ARC
  5
378
  8
0
 62
     7
 10
80.165272000000002
 20
199.13714100000001
 30
0.0
 40
2.355283
 50
287.07663500000001
 51
327.416653
  0
LINE
  5
379
  8
0
 62
     7
 10
82.204999999999984
 20
200.369
 30
0.0
 11
82.179699999999997
 21
201.81899999999999
 31
0.0
  0
LINE
  5
37A
  8
0
 62
     7
 10
84.929400000000001
 20
197.535
 30
0.0
 11
81.893500000000003
 21
197.535
 31
0.0
  0
ARC
  5
37B
  8
0
 62
     7
 10
84.954963000000006
 20
182.74764200000001
 30
0.0
 40
15.121138999999999
 50
84.729561000000004
 51
90.096943999999979
  0
LINE
  5
37C
  8
0
 62
     7
 10
84.930099999999996
 20
197.535
 30
0.0
 11
85.050600000000003
 21
197.535
 31
0.0
  0
ARC
  5
37D
  8
0
 62
     7
 10
85.058282999999989
 20
210.582606
 30
0.0
 40
13.047852000000001
 50
269.96646299999998
 51
279.18402600000002
  0
LINE
  5
37E
  8
0
 62
     7
 10
87.429800000000014
 20
197.084
 30
0.0
 11
87.429800000000014
 21
197.63800000000001
 31
0.0
  0
ARC
  5
37F
  8
0
 62
     7
 10
85.010823000000002
 20
184.20545799999999
 30
0.0
 40
16.163456
 50
82.128222999999991
 51
90.288703999999996
  0
ARC
  5
380
  8
0
 62
     7
 10
88.483013999999997
 20
197.080209
 30
0.0
 40
1.446240999999999
 50
314.13033000000001
 51
358.783727
  0
ARC
  5
381
  8
0
 62
     7
 10
87.967025000000007
 20
197.595857
 30
0.0
 40
2.175660999999999
 50
290.510762
 51
314.42827699999998
  0
ARC
  5
382
  8
0
 62
     7
 10
88.485297999999986
 20
198.32481799999999
 30
0.0
 40
1.443937
 50
1.1787229999999991
 51
45.907220999999993
  0
LINE
  5
383
  8
0
 62
     7
 10
89.929599999999994
 20
198.31999999999999
 30
0.0
 11
89.929599999999994
 21
197.084
 31
0.0
  0
ARC
  5
384
  8
0
 62
     7
 10
87.955914000000007
 20
197.79071400000001
 30
0.0
 40
2.195911999999999
 50
45.683618999999993
 51
69.377341999999999
  0
ARC
  5
385
  8
0
 62
     7
 10
82.339706000000007
 20
87.640685999999988
 30
0.0
 40
0.173415
 50
272.15484700000002
 51
357.60791399999999
  0
LINE
  5
386
  8
0
 62
     7
 10
91.429599999999994
 20
203.31899999999999
 30
0.0
 11
93.930099999999996
 21
203.31899999999999
 31
0.0
  0
LINE
  5
387
  8
0
 62
     7
 10
94.013099999999994
 20
202.48500000000001
 30
0.0
 11
93.179699999999997
 21
202.48500000000001
 31
0.0
  0
LINE
  5
388
  8
0
 62
     7
 10
93.179699999999997
 20
202.90199999999999
 30
0.0
 11
94.013099999999994
 21
202.90199999999999
 31
0.0
  0
LINE
  5
389
  8
0
 62
     7
 10
93.930099999999996
 20
202.90199999999999
 30
0.0
 11
91.429599999999994
 21
202.90199999999999
 31
0.0
  0
LINE
  5
38A
  8
0
 62
     7
 10
90.679599999999994
 20
202.90199999999999
 30
0.0
 11
90.679599999999994
 21
203.31899999999999
 31
0.0
  0
LINE
  5
38B
  8
0
 62
     7
 10
91.429599999999994
 20
203.31899999999999
 30
0.0
 11
91.429599999999994
 21
202.90199999999999
 31
0.0
  0
LINE
  5
38C
  8
0
 62
     7
 10
91.429599999999994
 20
202.90199999999999
 30
0.0
 11
90.679599999999994
 21
202.90199999999999
 31
0.0
  0
LINE
  5
38D
  8
0
 62
     7
 10
88.346199999999996
 20
202.48500000000001
 30
0.0
 11
88.346199999999996
 21
202.90199999999999
 31
0.0
  0
LINE
  5
38E
  8
0
 62
     7
 10
86.346699999999984
 20
202.90199999999999
 30
0.0
 11
86.346699999999984
 21
202.48500000000001
 31
0.0
  0
LINE
  5
38F
  8
0
 62
     7
 10
88.346199999999996
 20
202.48500000000001
 30
0.0
 11
86.346699999999984
 21
202.48500000000001
 31
0.0
  0
LINE
  5
390
  8
0
 62
     7
 10
88.346199999999996
 20
202.90199999999999
 30
0.0
 11
86.346699999999984
 21
202.90199999999999
 31
0.0
  0
LINE
  5
391
  8
0
 62
     7
 10
88.346199999999996
 20
202.48500000000001
 30
0.0
 11
93.179699999999997
 21
202.48500000000001
 31
0.0
  0
LINE
  5
392
  8
0
 62
     7
 10
93.179699999999997
 20
202.90199999999999
 30
0.0
 11
88.346199999999996
 21
202.90199999999999
 31
0.0
  0
ARC
  5
393
  8
0
 62
     7
 10
83.151650000000004
 20
202.15072900000001
 30
0.0
 40
0.33466
 50
90.110252999999986
 51
134.91516200000001
  0
ARC
  5
394
  8
0
 62
     7
 10
82.065383999999995
 20
202.497195
 30
0.0
 40
0.6784520000000001
 50
270.39827300000002
 51
314.57663400000001
  0
ARC
  5
395
  8
0
 62
     7
 10
81.951633999999999
 20
202.48714799999999
 30
0.0
 40
0.335074
 50
270.10993100000002
 51
314.88591400000001
  0
LINE
  5
396
  8
0
 62
     7
 10
82.645099999999985
 20
202.70699999999999
 30
0.0
 11
82.187899999999999
 21
202.25
 31
0.0
  0
ARC
  5
397
  8
0
 62
     7
 10
83.121273999999985
 20
202.22405800000001
 30
0.0
 40
0.6780350000000001
 50
90.398800999999992
 51
134.61180400000001
  0
LINE
  5
398
  8
0
 62
     7
 10
82.541600000000003
 20
202.01400000000001
 30
0.0
 11
82.915400000000005
 21
202.38800000000001
 31
0.0
  0
LINE
  5
399
  8
0
 62
     7
 10
86.346699999999984
 20
202.90199999999999
 30
0.0
 11
83.116600000000005
 21
202.90199999999999
 31
0.0
  0
LINE
  5
39A
  8
0
 62
     7
 10
83.15100000000001
 20
202.48500000000001
 30
0.0
 11
86.346699999999984
 21
202.48500000000001
 31
0.0
  0
LINE
  5
39B
  8
0
 62
     7
 10
90.679599999999994
 20
203.31899999999999
 30
0.0
 11
91.429599999999994
 21
203.31899999999999
 31
0.0
  0
ARC
  5
39C
  8
0
 62
     7
 10
96.166267000000005
 20
202.555464
 30
0.0
 40
0.3468739999999999
 50
2.1684069999999989
 51
87.772362999999999
  0
LINE
  5
39D
  8
0
 62
     7
 10
95.929599999999994
 20
202.90199999999999
 30
0.0
 11
95.929599999999994
 21
203.31899999999999
 31
0.0
  0
ARC
  5
39E
  8
0
 62
     7
 10
96.151104000000004
 20
202.53958399999999
 30
0.0
 40
0.779533
 50
2.132318999999999
 51
87.893984000000003
  0
LINE
  5
39F
  8
0
 62
     7
 10
93.930099999999996
 20
203.31899999999999
 30
0.0
 11
93.930099999999996
 21
202.90199999999999
 31
0.0
  0
LINE
  5
3A0
  8
0
 62
     7
 10
96.179800000000014
 20
202.90199999999999
 30
0.0
 11
95.929599999999994
 21
202.90199999999999
 31
0.0
  0
LINE
  5
3A1
  8
0
 62
     7
 10
95.346699999999998
 20
200.06899999999999
 30
0.0
 11
95.262999999999991
 21
199.98500000000001
 31
0.0
  0
LINE
  5
3A2
  8
0
 62
     7
 10
96.512900000000016
 20
200.06899999999999
 30
0.0
 11
95.346699999999998
 21
200.06899999999999
 31
0.0
  0
LINE
  5
3A3
  8
0
 62
     7
 10
96.93010000000001
 20
198.23500000000001
 30
0.0
 11
97.346599999999995
 21
198.23500000000001
 31
0.0
  0
LINE
  5
3A4
  8
0
 62
     7
 10
97.546400000000006
 20
197.19399999999999
 30
0.0
 11
97.429599999999994
 21
197.19399999999999
 31
0.0
  0
ARC
  5
3A5
  8
0
 62
     7
 10
97.432918999999998
 20
197.107394
 30
0.0
 40
0.086357
 50
92.176860999999988
 51
178.06035900000001
  0
LINE
  5
3A6
  8
0
 62
     7
 10
97.679800000000014
 20
196.56899999999999
 30
0.0
 11
97.546400000000006
 21
196.56899999999999
 31
0.0
  0
LINE
  5
3A7
  8
0
 62
     7
 10
97.346599999999995
 20
197.40199999999999
 30
0.0
 11
96.93010000000001
 21
197.40199999999999
 31
0.0
  0
LINE
  5
3A8
  8
0
 62
     7
 10
97.762799999999984
 20
196.48500000000001
 30
0.0
 11
97.762799999999984
 21
195.90199999999999
 31
0.0
  0
LINE
  5
3A9
  8
0
 62
     7
 10
97.762799999999984
 20
196.48500000000001
 30
0.0
 11
97.679800000000014
 21
196.56899999999999
 31
0.0
  0
LINE
  5
3AA
  8
0
 62
     7
 10
97.679800000000014
 20
195.90199999999999
 30
0.0
 11
97.679800000000014
 21
196.56899999999999
 31
0.0
  0
LINE
  5
3AB
  8
0
 62
     7
 10
96.93010000000001
 20
197.40199999999999
 30
0.0
 11
96.93010000000001
 21
197.66200000000001
 31
0.0
  0
LINE
  5
3AC
  8
0
 62
     7
 10
97.346599999999995
 20
198.23500000000001
 30
0.0
 11
97.346599999999995
 21
197.40199999999999
 31
0.0
  0
LINE
  5
3AD
  8
0
 62
     7
 10
96.93010000000001
 20
202.56899999999999
 30
0.0
 11
96.93010000000001
 21
197.66200000000001
 31
0.0
  0
LINE
  5
3AE
  8
0
 62
     7
 10
97.429599999999994
 20
194.61000000000001
 30
0.0
 11
97.546400000000006
 21
194.61000000000001
 31
0.0
  0
ARC
  5
3AF
  8
0
 62
     7
 10
97.433071999999996
 20
194.696821
 30
0.0
 40
0.086521
 50
182.15516500000001
 51
267.72611699999999
  0
LINE
  5
3B0
  8
0
 62
     7
 10
97.546400000000006
 20
195.23500000000001
 30
0.0
 11
97.679800000000014
 21
195.23500000000001
 31
0.0
  0
LINE
  5
3B1
  8
0
 62
     7
 10
97.679800000000014
 20
195.23500000000001
 30
0.0
 11
97.762799999999984
 21
195.31899999999999
 31
0.0
  0
LINE
  5
3B2
  8
0
 62
     7
 10
97.429599999999994
 20
194.06899999999999
 30
0.0
 11
97.346599999999995
 21
194.06899999999999
 31
0.0
  0
LINE
  5
3B3
  8
0
 62
     7
 10
97.513000000000005
 20
193.98500000000001
 30
0.0
 11
97.429599999999994
 21
194.06899999999999
 31
0.0
  0
LINE
  5
3B4
  8
0
 62
     7
 10
97.429599999999994
 20
194.40199999999999
 30
0.0
 11
97.513000000000005
 21
194.48500000000001
 31
0.0
  0
LINE
  5
3B5
  8
0
 62
     7
 10
97.346599999999995
 20
194.40199999999999
 30
0.0
 11
97.429599999999994
 21
194.40199999999999
 31
0.0
  0
LINE
  5
3B6
  8
0
 62
     7
 10
97.513000000000005
 20
194.61000000000001
 30
0.0
 11
97.513000000000005
 21
194.48500000000001
 31
0.0
  0
LINE
  5
3B7
  8
0
 62
     7
 10
97.429599999999994
 20
194.40199999999999
 30
0.0
 11
97.429599999999994
 21
194.61000000000001
 31
0.0
  0
LINE
  5
3B8
  8
0
 62
     7
 10
95.262999999999991
 20
195.15199999999999
 30
0.0
 11
95.346699999999998
 21
195.06899999999999
 31
0.0
  0
LINE
  5
3B9
  8
0
 62
     7
 10
95.512799999999999
 20
194.90199999999999
 30
0.0
 11
95.512799999999999
 21
195.06899999999999
 31
0.0
  0
LINE
  5
3BA
  8
0
 62
     7
 10
95.596500000000006
 20
195.06899999999999
 30
0.0
 11
95.596500000000006
 21
194.90199999999999
 31
0.0
  0
ARC
  5
3BB
  8
0
 62
     7
 10
95.599762999999996
 20
194.31493599999999
 30
0.0
 40
0.087063
 50
92.153362000000016
 51
177.61033800000001
  0
LINE
  5
3BC
  8
0
 62
     7
 10
95.512799999999999
 20
193.70099999999999
 30
0.0
 11
95.512799999999999
 21
194.31899999999999
 31
0.0
  0
LINE
  5
3BD
  8
0
 62
     7
 10
95.596500000000006
 20
194.40199999999999
 30
0.0
 11
95.596500000000006
 21
193.71600000000001
 31
0.0
  0
LINE
  5
3BE
  8
0
 62
     7
 10
95.512799999999999
 20
194.31899999999999
 30
0.0
 11
95.512799999999999
 21
194.90199999999999
 31
0.0
  0
LINE
  5
3BF
  8
0
 62
     7
 10
95.596500000000006
 20
194.90199999999999
 30
0.0
 11
95.596500000000006
 21
194.40199999999999
 31
0.0
  0
LINE
  5
3C0
  8
0
 62
     7
 10
95.346699999999998
 20
195.06899999999999
 30
0.0
 11
96.512900000000016
 21
195.06899999999999
 31
0.0
  0
LINE
  5
3C1
  8
0
 62
     7
 10
96.512900000000016
 20
194.40199999999999
 30
0.0
 11
95.596500000000006
 21
194.40199999999999
 31
0.0
  0
LINE
  5
3C2
  8
0
 62
     7
 10
97.346599999999995
 20
193.06899999999999
 30
0.0
 11
97.429599999999994
 21
193.06899999999999
 31
0.0
  0
LINE
  5
3C3
  8
0
 62
     7
 10
97.429599999999994
 20
193.06899999999999
 30
0.0
 11
97.513000000000005
 21
193.15199999999999
 31
0.0
  0
LINE
  5
3C4
  8
0
 62
     7
 10
96.512900000000016
 20
192.81899999999999
 30
0.0
 11
96.93010000000001
 21
192.81899999999999
 31
0.0
  0
ARC
  5
3C5
  8
0
 62
     7
 10
97.693237000000011
 20
192.33179999999999
 30
0.0
 40
0.3468739999999999
 50
182.16842600000001
 51
267.77238299999999
  0
LINE
  5
3C6
  8
0
 62
     7
 10
96.93010000000001
 20
192.06899999999999
 30
0.0
 11
96.512900000000016
 21
192.06899999999999
 31
0.0
  0
LINE
  5
3C7
  8
0
 62
     7
 10
96.93010000000001
 20
192.31899999999999
 30
0.0
 11
96.93010000000001
 21
192.06899999999999
 31
0.0
  0
LINE
  5
3C8
  8
0
 62
     7
 10
96.512900000000016
 20
192.06899999999999
 30
0.0
 11
96.512900000000016
 21
192.81899999999999
 31
0.0
  0
ARC
  5
3C9
  8
0
 62
     7
 10
95.599413999999996
 20
192.821842
 30
0.0
 40
0.0867
 50
182.167563
 51
268.068738
  0
LINE
  5
3CA
  8
0
 62
     7
 10
95.596500000000006
 20
192.73500000000001
 30
0.0
 11
96.512900000000016
 21
192.73500000000001
 31
0.0
  0
LINE
  5
3CB
  8
0
 62
     7
 10
95.512799999999999
 20
192.81899999999999
 30
0.0
 11
95.512799999999999
 21
193.70099999999999
 31
0.0
  0
LINE
  5
3CC
  8
0
 62
     7
 10
97.429599999999994
 20
193.06899999999999
 30
0.0
 11
97.429599999999994
 21
194.06899999999999
 31
0.0
  0
LINE
  5
3CD
  8
0
 62
     7
 10
97.513000000000005
 20
193.98500000000001
 30
0.0
 11
97.513000000000005
 21
193.15199999999999
 31
0.0
  0
LINE
  5
3CE
  8
0
 62
     7
 10
95.596500000000006
 20
193.71600000000001
 30
0.0
 11
95.596500000000006
 21
192.73500000000001
 31
0.0
  0
ARC
  5
3CF
  8
0
 62
     7
 10
97.709068000000002
 20
192.347632
 30
0.0
 40
0.779509
 50
182.12882400000001
 51
267.84488099999999
  0
LINE
  5
3D0
  8
0
 62
     7
 10
97.546400000000006
 20
194.61000000000001
 30
0.0
 11
97.546400000000006
 21
197.19399999999999
 31
0.0
  0
LINE
  5
3D1
  8
0
 62
     7
 10
95.262999999999991
 20
195.15199999999999
 30
0.0
 11
95.262999999999991
 21
199.98500000000001
 31
0.0
  0
LINE
  5
3D2
  8
0
 62
     7
 10
95.346699999999998
 20
200.06899999999999
 30
0.0
 11
95.346699999999998
 21
195.06899999999999
 31
0.0
  0
LINE
  5
3D3
  8
0
 62
     7
 10
97.679800000000014
 20
195.23500000000001
 30
0.0
 11
97.679800000000014
 21
195.90199999999999
 31
0.0
  0
LINE
  5
3D4
  8
0
 62
     7
 10
97.762799999999984
 20
195.90199999999999
 30
0.0
 11
97.762799999999984
 21
195.31899999999999
 31
0.0
  0
LINE
  5
3D5
  8
0
 62
     7
 10
96.93010000000001
 20
192.31899999999999
 30
0.0
 11
96.93010000000001
 21
197.40199999999999
 31
0.0
  0
LINE
  5
3D6
  8
0
 62
     7
 10
97.346599999999995
 20
197.40199999999999
 30
0.0
 11
97.346599999999995
 21
192.31899999999999
 31
0.0
  0
LINE
  5
3D7
  8
0
 62
     7
 10
96.512900000000016
 20
192.81899999999999
 30
0.0
 11
96.512900000000016
 21
202.56899999999999
 31
0.0
  0
LINE
  5
3D8
  8
0
 62
     7
 10
97.429599999999994
 20
197.19399999999999
 30
0.0
 11
97.429599999999994
 21
194.61000000000001
 31
0.0
  0
LINE
  5
3D9
  8
0
 62
     7
 10
94.013099999999994
 20
202.90199999999999
 30
0.0
 11
94.013099999999994
 21
202.48500000000001
 31
0.0
  0
LINE
  5
3DA
  8
0
 62
     7
 10
93.930099999999996
 20
202.90199999999999
 30
0.0
 11
95.929599999999994
 21
202.90199999999999
 31
0.0
  0
LINE
  5
3DB
  8
0
 62
     7
 10
95.929599999999994
 20
203.31899999999999
 30
0.0
 11
96.179800000000014
 21
203.31899999999999
 31
0.0
  0
LINE
  5
3DC
  8
0
 62
     7
 10
93.930099999999996
 20
203.31899999999999
 30
0.0
 11
95.929599999999994
 21
203.31899999999999
 31
0.0
  0
LINE
  5
3DD
  8
0
 62
     7
 10
97.679800000000014
 20
191.98500000000001
 30
0.0
 11
107.76300000000001
 21
191.98500000000001
 31
0.0
  0
LINE
  5
3DE
  8
0
 62
     7
 10
107.76300000000001
 20
191.56899999999999
 30
0.0
 11
97.679800000000014
 21
191.56899999999999
 31
0.0
  0
LINE
  5
3DF
  8
0
 62
     7
 10
76.9298
 20
201.81899999999999
 30
0.0
 11
74.429500000000004
 21
201.81899999999999
 31
0.0
  0
LINE
  5
3E0
  8
0
 62
     7
 10
79.1798
 20
192.285
 30
0.0
 11
72.179500000000004
 21
192.285
 31
0.0
  0
LINE
  5
3E1
  8
0
 62
     7
 10
79.1798
 20
191.452
 30
0.0
 11
72.179500000000004
 21
191.452
 31
0.0
  0
ARC
  5
3E2
  8
0
 62
     7
 10
75.679580000000001
 20
199.11864800000001
 30
0.0
 40
2.0000990000000001
 50
38.682163000000003
 51
128.68213299999999
  0
ARC
  5
3E3
  8
0
 62
     7
 10
75.787295
 20
199.10690099999999
 30
0.0
 40
2.0780080000000001
 50
130.79860400000001
 51
216.57187999999999
  0
ARC
  5
3E4
  8
0
 62
     7
 10
75.694351999999995
 20
199.149306
 30
0.0
 40
2.030602
 50
219.09618699999999
 51
269.58319499999999
  0
ARC
  5
3E5
  8
0
 62
     7
 10
75.665869000000001
 20
199.147459
 30
0.0
 40
2.0287470000000001
 50
270.38723199999998
 51
320.92849200000001
  0
ARC
  5
3E6
  8
0
 62
     7
 10
75.679580000000001
 20
199.11864800000001
 30
0.0
 40
2.3333639999999991
 50
32.393665000000013
 51
122.393636
  0
ARC
  5
3E7
  8
0
 62
     7
 10
75.679781000000006
 20
199.118709
 30
0.0
 40
2.3334199999999998
 50
122.398606
 51
212.394552
  0
ARC
  5
3E8
  8
0
 62
     7
 10
75.703912000000003
 20
199.162554
 30
0.0
 40
2.3774079999999991
 50
212.9752299999999
 51
269.41359399999999
  0
ARC
  5
3E9
  8
0
 62
     7
 10
75.656596999999991
 20
199.160213
 30
0.0
 40
2.375052999999999
 50
270.554462
 51
327.06021600000003
  0
LINE
  5
3EA
  8
0
 62
     7
 10
71.929900000000004
 20
201.81899999999999
 30
0.0
 11
79.429599999999994
 21
201.81899999999999
 31
0.0
  0
LINE
  5
3EB
  8
0
 62
     7
 10
70.513300000000001
 20
196.285
 30
0.0
 11
70.463700000000003
 21
199.119
 31
0.0
  0
LINE
  5
3EC
  8
0
 62
     7
 10
72.179500000000004
 20
192.285
 30
0.0
 11
72.060299999999998
 21
199.119
 31
0.0
  0
LINE
  5
3ED
  8
0
 62
     7
 10
72.179500000000004
 20
191.452
 30
0.0
 11
72.179500000000004
 21
192.285
 31
0.0
  0
ARC
  5
3EE
  8
0
 62
     7
 10
71.599451000000002
 20
195.76570000000001
 30
0.0
 40
0.5200320000000001
 50
3.1317330000000001
 51
87.903454999999994
  0
LINE
  5
3EF
  8
0
 62
     7
 10
70.513300000000001
 20
196.285
 30
0.0
 11
71.610200000000006
 21
196.285
 31
0.0
  0
ARC
  5
3F0
  8
0
 62
     7
 10
71.179660999999996
 20
199.11858599999999
 30
0.0
 40
2.3333779999999988
 50
47.815243000000002
 51
137.81007099999999
  0
ARC
  5
3F1
  8
0
 62
     7
 10
71.179862999999997
 20
199.11849100000001
 30
0.0
 40
2.333591999999999
 50
137.81166499999989
 51
227.80142599999991
  0
ARC
  5
3F2
  8
0
 62
     7
 10
71.183441999999999
 20
199.12616299999999
 30
0.0
 40
2.3416809999999999
 50
227.86264199999999
 51
253.09284
  0
ARC
  5
3F3
  8
0
 62
     7
 10
65.314072999999993
 20
190.85676599999999
 30
0.0
 40
9.0566839999999988
 50
55.238874000000003
 51
65.819623000000007
  0
LINE
  5
3F4
  8
0
 62
     7
 10
73.179599999999994
 20
201.81899999999999
 30
0.0
 11
69.179500000000004
 21
201.81899999999999
 31
0.0
  0
LINE
  5
3F5
  8
0
 62
     7
 10
73.179599999999994
 20
201.81899999999999
 30
0.0
 11
69.179500000000004
 21
201.81899999999999
 31
0.0
  0
LINE
  5
3F6
  8
0
 62
     7
 10
68.846199999999996
 20
199.119
 30
0.0
 11
73.346400000000003
 21
199.119
 31
0.0
  0
LINE
  5
3F7
  8
0
 62
     7
 10
69.151799999999994
 20
200.22200000000001
 30
0.0
 11
69.179500000000004
 21
201.81899999999999
 31
0.0
  0
LINE
  5
3F8
  8
0
 62
     7
 10
72.722099999999998
 20
199.446
 30
0.0
 11
72.763099999999994
 21
201.785
 31
0.0
  0
ARC
  5
3F9
  8
0
 62
     7
 10
75.722957999999991
 20
199.08322999999999
 30
0.0
 40
2.713384
 50
118.618403
 51
172.32180099999999
  0
ARC
  5
3FA
  8
0
 62
     7
 10
73.778549999999996
 20
199.785865
 30
0.0
 40
0.808865
 50
204.850821
 51
237.09530100000001
  0
LINE
  5
3FB
  8
0
 62
     7
 10
72.722099999999998
 20
199.446
 30
0.0
 11
73.044600000000003
 21
199.446
 31
0.0
  0
ARC
  5
3FC
  8
0
 62
     7
 10
72.376964999999998
 20
199.46405100000001
 30
0.0
 40
0.345611
 50
271.99164400000001
 51
357.05246299999999
  0
ARC
  5
3FD
  8
0
 62
     7
 10
75.727871999999991
 20
199.070356
 30
0.0
 40
1.299250999999999
 50
92.130128999999997
 51
177.86984100000001
  0
ARC
  5
3FE
  8
0
 62
     7
 10
75.727316000000002
 20
199.166563
 30
0.0
 40
1.2986809999999991
 50
182.11440899999999
 51
267.89351699999997
  0
LINE
  5
3FF
  8
0
 62
     7
 10
74.428799999999995
 20
201.785
 30
0.0
 11
72.763099999999994
 21
201.785
 31
0.0
  0
LINE
  5
400
  8
0
 62
     7
 10
72.846800000000002
 20
201.785
 30
0.0
 11
72.846500000000006
 21
201.81899999999999
 31
0.0
  0
LINE
  5
401
  8
0
 62
     7
 10
74.418800000000005
 20
201.21000000000001
 30
0.0
 11
74.429500000000004
 21
201.81899999999999
 31
0.0
  0
ARC
  5
402
  8
0
 62
     7
 10
74.167245999999992
 20
201.21520100000001
 30
0.0
 40
0.2516469999999999
 50
306.57849199999998
 51
358.81726200000003
  0
LINE
  5
403
  8
0
 62
     7
 10
73.179599999999994
 20
201.81899999999999
 30
0.0
 11
73.180300000000003
 21
201.785
 31
0.0
  0
LINE
  5
404
  8
0
 62
     7
 10
73.179599999999994
 20
201.81899999999999
 30
0.0
 11
73.180300000000003
 21
201.785
 31
0.0
  0
LINE
  5
405
  8
0
 62
     7
 10
79.1798
 20
192.285
 30
0.0
 11
79.277299999999997
 21
197.869
 31
0.0
  0
LINE
  5
406
  8
0
 62
     7
 10
79.1798
 20
191.452
 30
0.0
 11
79.1798
 21
192.285
 31
0.0
  0
ARC
  5
407
  8
0
 62
     7
 10
79.759803000000005
 20
195.76595399999999
 30
0.0
 40
0.519769
 50
92.070036999999985
 51
176.89473599999999
  0
LINE
  5
408
  8
0
 62
     7
 10
78.621000000000009
 20
200.369
 30
0.0
 11
78.596199999999996
 21
201.785
 31
0.0
  0
ARC
  5
409
  8
0
 62
     7
 10
75.663224
 20
199.09589099999999
 30
0.0
 40
2.6893029999999989
 50
28.24800900000001
 51
61.760981999999991
  0
LINE
  5
40A
  8
0
 62
     7
 10
76.930199999999999
 20
201.785
 30
0.0
 11
78.596199999999996
 21
201.785
 31
0.0
  0
LINE
  5
40B
  8
0
 62
     7
 10
76.940100000000001
 20
201.21000000000001
 30
0.0
 11
76.9298
 21
201.81899999999999
 31
0.0
  0
ARC
  5
40C
  8
0
 62
     7
 10
77.193852000000007
 20
201.21629100000001
 30
0.0
 40
0.253782
 50
181.41885600000001
 51
233.185429
  0
LINE
  5
40D
  8
0
 62
     7
 10
78.179699999999997
 20
201.81899999999999
 30
0.0
 11
78.179000000000002
 21
201.785
 31
0.0
  0
LINE
  5
40E
  8
0
 62
     7
 10
78.512500000000003
 20
201.785
 30
0.0
 11
78.512799999999999
 21
201.81899999999999
 31
0.0
  0
LINE
  5
40F
  8
0
 62
     7
 10
68.846199999999996
 20
87.633399999999995
 30
0.0
 11
73.513099999999994
 21
87.633399999999995
 31
0.0
  0
LINE
  5
410
  8
0
 62
     7
 10
73.346400000000003
 20
87.467399999999998
 30
0.0
 11
69.012900000000002
 21
87.467399999999998
 31
0.0
  0
ARC
  5
411
  8
0
 62
     7
 10
69.018821000000003
 20
87.640051
 30
0.0
 40
0.172758
 50
182.19038399999999
 51
268.04689500000001
  0
ARC
  5
412
  8
0
 62
     7
 10
73.339848000000003
 20
87.640691000000004
 30
0.0
 40
0.173421
 50
272.156589
 51
357.60617200000002
  0
ARC
  5
413
  8
0
 62
     7
 10
78.018845999999996
 20
87.640051
 30
0.0
 40
0.172758
 50
182.19038399999999
 51
268.04689500000001
  0
LINE
  5
414
  8
0
 62
     7
 10
60.17949999999999
 20
201.59700000000001
 30
0.0
 11
57.846299999999992
 21
201.59700000000001
 31
0.0
  0
LINE
  5
415
  8
0
 62
     7
 10
63.012900000000002
 20
202.48500000000001
 30
0.0
 11
58.1798
 21
202.48500000000001
 31
0.0
  0
LINE
  5
416
  8
0
 62
     7
 10
58.1798
 20
202.90199999999999
 30
0.0
 11
63.012900000000002
 21
202.90199999999999
 31
0.0
  0
ARC
  5
417
  8
0
 62
     7
 10
55.192113999999997
 20
202.556229
 30
0.0
 40
0.346068
 50
92.04671900000001
 51
177.95325099999999
  0
LINE
  5
418
  8
0
 62
     7
 10
55.346499999999999
 20
203.31899999999999
 30
0.0
 11
55.346499999999999
 21
202.90199999999999
 31
0.0
  0
LINE
  5
419
  8
0
 62
     7
 10
59.846200000000003
 20
202.90199999999999
 30
0.0
 11
59.846200000000003
 21
203.31899999999999
 31
0.0
  0
LINE
  5
41A
  8
0
 62
     7
 10
57.346200000000003
 20
202.90199999999999
 30
0.0
 11
57.346200000000003
 21
203.31899999999999
 31
0.0
  0
LINE
  5
41B
  8
0
 62
     7
 10
60.67969999999999
 20
203.31899999999999
 30
0.0
 11
60.67969999999999
 21
202.90199999999999
 31
0.0
  0
LINE
  5
41C
  8
0
 62
     7
 10
60.67969999999999
 20
202.90199999999999
 30
0.0
 11
59.846200000000003
 21
202.90199999999999
 31
0.0
  0
LINE
  5
41D
  8
0
 62
     7
 10
57.346200000000003
 20
202.48500000000001
 30
0.0
 11
57.346200000000003
 21
202.90199999999999
 31
0.0
  0
LINE
  5
41E
  8
0
 62
     7
 10
58.1798
 20
202.48500000000001
 30
0.0
 11
57.346200000000003
 21
202.48500000000001
 31
0.0
  0
LINE
  5
41F
  8
0
 62
     7
 10
57.346200000000003
 20
202.90199999999999
 30
0.0
 11
58.1798
 21
202.90199999999999
 31
0.0
  0
LINE
  5
420
  8
0
 62
     7
 10
59.846200000000003
 20
202.90199999999999
 30
0.0
 11
57.346200000000003
 21
202.90199999999999
 31
0.0
  0
ARC
  5
421
  8
0
 62
     7
 10
59.933093999999997
 20
197.00958700000001
 30
0.0
 40
0.087009
 50
92.115686999999994
 51
177.52951200000001
  0
ARC
  5
422
  8
0
 62
     7
 10
59.932671999999997
 20
196.84974
 30
0.0
 40
0.086564
 50
182.08331200000001
 51
268.15298899999999
  0
LINE
  5
423
  8
0
 62
     7
 10
59.846200000000003
 20
196.84700000000001
 30
0.0
 11
59.846200000000003
 21
197.01300000000001
 31
0.0
  0
LINE
  5
424
  8
0
 62
     7
 10
60.054299999999998
 20
195.84700000000001
 30
0.0
 11
60.0961
 21
195.88800000000001
 31
0.0
  0
ARC
  5
425
  8
0
 62
     7
 10
59.759886999999999
 20
194.93279699999999
 30
0.0
 40
0.086327
 50
272.15856700000001
 51
358.07869199999999
  0
LINE
  5
426
  8
0
 62
     7
 10
59.846200000000003
 20
194.93000000000001
 30
0.0
 11
59.846200000000003
 21
195.84700000000001
 31
0.0
  0
LINE
  5
427
  8
0
 62
     7
 10
60.0961
 20
195.88800000000001
 30
0.0
 11
60.0961
 21
196.76300000000001
 31
0.0
  0
LINE
  5
428
  8
0
 62
     7
 10
58.1798
 20
197.01300000000001
 30
0.0
 11
58.1798
 21
196.84700000000001
 31
0.0
  0
ARC
  5
429
  8
0
 62
     7
 10
58.093411000000003
 20
197.01016799999999
 30
0.0
 40
0.086409
 50
2.102034999999999
 51
88.252725999999996
  0
ARC
  5
42A
  8
0
 62
     7
 10
58.093111999999991
 20
196.849885
 30
0.0
 40
0.086713
 50
271.93899900000002
 51
357.82473999999991
  0
LINE
  5
42B
  8
0
 62
     7
 10
59.012999999999998
 20
196.76300000000001
 30
0.0
 11
57.929299999999998
 21
196.76300000000001
 31
0.0
  0
ARC
  5
42C
  8
0
 62
     7
 10
58.266245999999988
 20
194.93300099999999
 30
0.0
 40
0.086539
 50
182.0515959999999
 51
267.711185
  0
LINE
  5
42D
  8
0
 62
     7
 10
59.209499999999998
 20
194.84700000000001
 30
0.0
 11
58.262799999999999
 21
194.84700000000001
 31
0.0
  0
LINE
  5
42E
  8
0
 62
     7
 10
58.1798
 20
194.93000000000001
 30
0.0
 11
59.231400000000001
 21
194.93000000000001
 31
0.0
  0
LINE
  5
42F
  8
0
 62
     7
 10
58.1798
 20
195.84700000000001
 30
0.0
 11
58.1798
 21
194.93000000000001
 31
0.0
  0
LINE
  5
430
  8
0
 62
     7
 10
57.929299999999998
 20
195.88800000000001
 30
0.0
 11
57.971200000000003
 21
195.84700000000001
 31
0.0
  0
LINE
  5
431
  8
0
 62
     7
 10
59.012999999999998
 20
196.05600000000001
 30
0.0
 11
59.012999999999998
 21
196.76300000000001
 31
0.0
  0
LINE
  5
432
  8
0
 62
     7
 10
57.929299999999998
 20
195.88800000000001
 30
0.0
 11
57.929299999999998
 21
196.76300000000001
 31
0.0
  0
LINE
  5
433
  8
0
 62
     7
 10
59.763100000000001
 20
194.84700000000001
 30
0.0
 11
59.209499999999998
 21
194.84700000000001
 31
0.0
  0
LINE
  5
434
  8
0
 62
     7
 10
60.0961
 20
196.76300000000001
 30
0.0
 11
59.012999999999998
 21
196.76300000000001
 31
0.0
  0
LINE
  5
435
  8
0
 62
     7
 10
57.971200000000003
 20
195.84700000000001
 30
0.0
 11
60.054299999999998
 21
195.84700000000001
 31
0.0
  0
LINE
  5
436
  8
0
 62
     7
 10
58.013000000000012
 20
197.09700000000001
 30
0.0
 11
60.012700000000002
 21
197.09700000000001
 31
0.0
  0
LINE
  5
437
  8
0
 62
     7
 10
59.231400000000001
 20
194.93000000000001
 30
0.0
 11
59.846200000000003
 21
194.93000000000001
 31
0.0
  0
LINE
  5
438
  8
0
 62
     7
 10
59.846200000000003
 20
197.01300000000001
 30
0.0
 11
58.1798
 21
197.01300000000001
 31
0.0
  0
LINE
  5
439
  8
0
 62
     7
 10
58.1798
 20
196.84700000000001
 30
0.0
 11
59.846200000000003
 21
196.84700000000001
 31
0.0
  0
LINE
  5
43A
  8
0
 62
     7
 10
57.846299999999992
 20
201.59700000000001
 30
0.0
 11
57.846299999999992
 21
202.48500000000001
 31
0.0
  0
LINE
  5
43B
  8
0
 62
     7
 10
60.17949999999999
 20
201.59700000000001
 30
0.0
 11
60.17949999999999
 21
202.48500000000001
 31
0.0
  0
LINE
  5
43C
  8
0
 62
     7
 10
58.013000000000012
 20
201.59700000000001
 30
0.0
 11
58.013000000000012
 21
197.09700000000001
 31
0.0
  0
LINE
  5
43D
  8
0
 62
     7
 10
60.012700000000002
 20
197.09700000000001
 30
0.0
 11
60.012700000000002
 21
201.59700000000001
 31
0.0
  0
LINE
  5
43E
  8
0
 62
     7
 10
55.346499999999999
 20
202.90199999999999
 30
0.0
 11
55.1798
 21
202.90199999999999
 31
0.0
  0
LINE
  5
43F
  8
0
 62
     7
 10
55.346499999999999
 20
202.90199999999999
 30
0.0
 11
57.346200000000003
 21
202.90199999999999
 31
0.0
  0
LINE
  5
440
  8
0
 62
     7
 10
54.846299999999999
 20
202.56899999999999
 30
0.0
 11
54.846299999999999
 21
192.31899999999999
 31
0.0
  0
LINE
  5
441
  8
0
 62
     7
 10
59.846200000000003
 20
203.31899999999999
 30
0.0
 11
60.67969999999999
 21
203.31899999999999
 31
0.0
  0
LINE
  5
442
  8
0
 62
     7
 10
57.346200000000003
 20
203.31899999999999
 30
0.0
 11
59.846200000000003
 21
203.31899999999999
 31
0.0
  0
LINE
  5
443
  8
0
 62
     7
 10
55.1798
 20
203.31899999999999
 30
0.0
 11
55.346499999999999
 21
203.31899999999999
 31
0.0
  0
LINE
  5
444
  8
0
 62
     7
 10
55.346499999999999
 20
203.31899999999999
 30
0.0
 11
57.346200000000003
 21
203.31899999999999
 31
0.0
  0
ARC
  5
445
  8
0
 62
     7
 10
69.407673000000003
 20
202.48708600000001
 30
0.0
 40
0.3350119999999999
 50
225.109655
 51
269.86493000000002
  0
ARC
  5
446
  8
0
 62
     7
 10
68.207363999999998
 20
202.15037799999999
 30
0.0
 40
0.3350119999999999
 50
45.10963499999999
 51
89.864909999999995
  0
ARC
  5
447
  8
0
 62
     7
 10
68.240425999999999
 20
202.23060699999999
 30
0.0
 40
0.671473
 50
45.160493999999993
 51
89.814049999999995
  0
LINE
  5
448
  8
0
 62
     7
 10
68.817800000000005
 20
202.01400000000001
 30
0.0
 11
68.443799999999996
 21
202.38800000000001
 31
0.0
  0
LINE
  5
449
  8
0
 62
     7
 10
68.713899999999995
 20
202.70699999999999
 30
0.0
 11
69.171199999999999
 21
202.25
 31
0.0
  0
ARC
  5
44A
  8
0
 62
     7
 10
69.290824000000001
 20
202.48964799999999
 30
0.0
 40
0.6708910000000001
 50
225.16103200000001
 51
269.84930000000003
  0
LINE
  5
44B
  8
0
 62
     7
 10
65.013000000000005
 20
202.90199999999999
 30
0.0
 11
65.013000000000005
 21
202.48500000000001
 31
0.0
  0
LINE
  5
44C
  8
0
 62
     7
 10
63.012900000000002
 20
202.48500000000001
 30
0.0
 11
63.012900000000002
 21
202.90199999999999
 31
0.0
  0
LINE
  5
44D
  8
0
 62
     7
 10
63.012900000000002
 20
202.48500000000001
 30
0.0
 11
65.013000000000005
 21
202.48500000000001
 31
0.0
  0
LINE
  5
44E
  8
0
 62
     7
 10
63.012900000000002
 20
202.90199999999999
 30
0.0
 11
65.013000000000005
 21
202.90199999999999
 31
0.0
  0
LINE
  5
44F
  8
0
 62
     7
 10
68.208200000000005
 20
202.48500000000001
 30
0.0
 11
65.013000000000005
 21
202.48500000000001
 31
0.0
  0
LINE
  5
450
  8
0
 62
     7
 10
65.013000000000005
 20
202.90199999999999
 30
0.0
 11
68.242599999999996
 21
202.90199999999999
 31
0.0
  0
LINE
  5
451
  8
0
 62
     7
 10
54.0961
 20
191.56899999999999
 30
0.0
 11
44.012900000000002
 21
191.56899999999999
 31
0.0
  0
LINE
  5
452
  8
0
 62
     7
 10
44.012900000000002
 20
191.98500000000001
 30
0.0
 11
54.0961
 21
191.98500000000001
 31
0.0
  0
LINE
  5
453
  8
0
 62
     7
 10
43.17969999999999
 20
191.98500000000001
 30
0.0
 11
44.012900000000002
 21
191.98500000000001
 31
0.0
  0
LINE
  5
454
  8
0
 62
     7
 10
44.012900000000002
 20
191.56899999999999
 30
0.0
 11
43.17969999999999
 21
191.56899999999999
 31
0.0
  0
LINE
  5
455
  8
0
 62
     7
 10
43.17969999999999
 20
191.56899999999999
 30
0.0
 11
43.17969999999999
 21
191.98500000000001
 31
0.0
  0
ARC
  5
456
  8
0
 62
     7
 10
54.083733000000002
 20
192.33103600000001
 30
0.0
 40
0.346068
 50
272.04675600000002
 51
357.95325300000002
  0
LINE
  5
457
  8
0
 62
     7
 10
54.429600000000001
 20
192.31899999999999
 30
0.0
 11
54.429600000000001
 21
202.56899999999999
 31
0.0
  0
ARC
  5
458
  8
0
 62
     7
 10
55.208718999999988
 20
202.539445
 30
0.0
 40
0.7796840000000002
 50
92.129019
 51
177.85779299999999
  0
ARC
  5
459
  8
0
 62
     7
 10
54.096178999999999
 20
192.31876199999999
 30
0.0
 40
0.750088
 50
269.99344100000002
 51
359.99341099999998
  0
LINE
  5
45A
  8
0
 62
     7
 10
75.679599999999994
 20
197.869
 30
0.0
 11
84.929400000000001
 21
197.869
 31
0.0
  0
LINE
  5
45B
  8
0
 62
     7
 10
84.929400000000001
 20
200.369
 30
0.0
 11
75.679599999999994
 21
200.369
 31
0.0
  0
LINE
  5
45C
  8
0
 62
     7
 10
79.227699999999984
 20
195.035
 30
0.0
 11
84.929400000000001
 21
195.035
 31
0.0
  0
LINE
  5
45D
  8
0
 62
     7
 10
80.846199999999996
 20
196.285
 30
0.0
 11
79.749300000000005
 21
196.285
 31
0.0
  0
LINE
  5
45E
  8
0
 62
     7
 10
78.179699999999997
 20
201.81899999999999
 30
0.0
 11
82.179699999999997
 21
201.81899999999999
 31
0.0
  0
ARC
  5
45F
  8
0
 62
     7
 10
80.179704000000015
 20
199.11884900000001
 30
0.0
 40
2.3331619999999988
 50
32.390960999999997
 51
122.39503499999999
  0
ARC
  5
460
  8
0
 62
     7
 10
80.21380400000001
 20
199.07364200000001
 30
0.0
 40
2.3896079999999991
 50
122.50469200000001
 51
132.06751600000001
  0
LINE
  5
461
  8
0
 62
     7
 10
77.846199999999996
 20
87.633399999999995
 30
0.0
 11
82.512999999999977
 21
87.633399999999995
 31
0.0
  0
LINE
  5
462
  8
0
 62
     7
 10
82.346199999999996
 20
87.467399999999998
 30
0.0
 11
78.013000000000005
 21
87.467399999999998
 31
0.0
  0
LINE
  5
463
  8
0
 62
     7
 10
69.406899999999993
 20
202.15199999999999
 30
0.0
 11
81.952299999999994
 21
202.15199999999999
 31
0.0
  0
LINE
  5
464
  8
0
 62
     7
 10
82.070099999999996
 20
201.81899999999999
 30
0.0
 11
69.289100000000005
 21
201.81899999999999
 31
0.0
  0
LINE
  5
465
  8
0
 62
     7
 10
68.846199999999996
 20
99.967000000000013
 30
0.0
 11
68.846199999999996
 21
87.633399999999995
 31
0.0
  0
LINE
  5
466
  8
0
 62
     7
 10
73.513099999999994
 20
87.633399999999995
 30
0.0
 11
73.513099999999994
 21
97.710099999999997
 31
0.0
  0
LINE
  5
467
  8
0
 62
     7
 10
77.846199999999996
 20
97.709699999999998
 30
0.0
 11
77.846199999999996
 21
87.633399999999995
 31
0.0
  0
LINE
  5
468
  8
0
 62
     7
 10
82.512999999999977
 20
87.633399999999995
 30
0.0
 11
82.512999999999977
 21
99.967000000000013
 31
0.0
  0
ARC
  5
469
  8
0
 62
     7
 10
152.70523299999999
 20
113.948592
 30
0.0
 40
0.5192350000000001
 50
92.136610000000005
 51
177.94233500000001
  0
ARC
  5
46A
  8
0
 62
     7
 10
152.705862
 20
113.986507
 30
0.0
 40
0.519887
 50
182.124369
 51
267.79668700000002
  0
ARC
  5
46B
  8
0
 62
     7
 10
152.66655499999999
 20
113.986555
 30
0.0
 40
0.51991
 50
272.12962800000003
 51
357.87038200000001
  0
ARC
  5
46C
  8
0
 62
     7
 10
152.66655499999999
 20
113.94791499999999
 30
0.0
 40
0.51991
 50
2.1296179999999998
 51
87.870372000000003
  0
ARC
  5
46D
  8
0
 62
     7
 10
154.103196
 20
103.467207
 30
0.0
 40
0.5002310000000002
 50
90.0
 51
179.99996999999999
  0
ARC
  5
46E
  8
0
 62
     7
 10
154.12181899999999
 20
103.48654500000001
 30
0.0
 40
0.5192140000000001
 50
182.13446999999999
 51
267.94453399999998
  0
ARC
  5
46F
  8
0
 62
     7
 10
154.08389600000001
 20
103.48650600000001
 30
0.0
 40
0.5192000000000001
 50
272.13027499999998
 51
357.86973499999999
  0
ARC
  5
470
  8
0
 62
     7
 10
154.08320800000001
 20
103.447935
 30
0.0
 40
0.519887
 50
2.124349
 51
87.796666999999985
  0
LINE
  5
471
  8
0
 62
     7
 10
157.43600000000001
 20
112.05
 30
0.0
 11
159.60300000000001
 21
112.05
 31
0.0
  0
LINE
  5
472
  8
0
 62
     7
 10
160.10299999999989
 20
105.884
 30
0.0
 11
160.10299999999989
 21
111.551
 31
0.0
  0
ARC
  5
473
  8
0
 62
     7
 10
159.58435800000001
 20
111.531492
 30
0.0
 40
0.5192140000000001
 50
2.1344500000000002
 51
87.944513999999984
  0
LINE
  5
474
  8
0
 62
     7
 10
157.43600000000001
 20
105.384
 30
0.0
 11
159.60300000000001
 21
105.384
 31
0.0
  0
ARC
  5
475
  8
0
 62
     7
 10
159.602981
 20
105.88430099999999
 30
0.0
 40
0.5002310000000002
 50
270.00002000000001
 51
359.99999000000003
  0
ARC
  5
476
  8
0
 62
     7
 10
156.65103500000001
 20
108.784316
 30
0.0
 40
2.5981519999999998
 50
287.56935399999998
 51
13.325889
  0
ARC
  5
477
  8
0
 62
     7
 10
156.72951
 20
108.677359
 30
0.0
 40
2.5493709999999989
 50
16.072517999999999
 51
73.927471999999995
  0
ARC
  5
478
  8
0
 62
     7
 10
155.128422
 20
108.691396
 30
0.0
 40
0.6929220000000002
 50
92.10513499999999
 51
177.83561499999999
  0
ARC
  5
479
  8
0
 62
     7
 10
155.12847099999999
 20
108.743067
 30
0.0
 40
0.692946
 50
182.109103
 51
267.89092699999998
  0
ARC
  5
47A
  8
0
 62
     7
 10
155.077448
 20
108.742729
 30
0.0
 40
0.6926090000000001
 50
272.111716
 51
357.91789699999998
  0
ARC
  5
47B
  8
0
 62
     7
 10
155.077821
 20
108.69206
 30
0.0
 40
0.692249
 50
2.1115400000000002
 51
87.918068000000005
  0
ARC
  5
47C
  8
0
 62
     7
 10
155.102969
 20
108.71756499999999
 30
0.0
 40
1.249889
 50
90.0
 51
179.99996999999999
  0
ARC
  5
47D
  8
0
 62
     7
 10
155.102969
 20
108.71756499999999
 30
0.0
 40
1.249887999999999
 50
179.99996999999999
 51
270.00002000000001
  0
ARC
  5
47E
  8
0
 62
     7
 10
155.102969
 20
108.71756600000001
 30
0.0
 40
1.249889
 50
270.00002000000001
 51
359.99999000000003
  0
ARC
  5
47F
  8
0
 62
     7
 10
155.102969
 20
108.71756499999999
 30
0.0
 40
1.249889
 50
0.00001
 51
89.999980000000008
  0
LINE
  5
480
  8
0
 62
     7
 10
157.43600000000001
 20
101.634
 30
0.0
 11
157.43600000000001
 21
115.801
 31
0.0
  0
ARC
  5
481
  8
0
 62
     7
 10
156.57130900000001
 20
115.769063
 30
0.0
 40
0.865273
 50
2.0971380000000002
 51
87.902851999999996
  0
ARC
  5
482
  8
0
 62
     7
 10
156.57130900000001
 20
101.665379
 30
0.0
 40
0.865273
 50
272.097148
 51
357.90286200000003
  0
LINE
  5
483
  8
0
 62
     7
 10
82.378999999999991
 20
171.92599999999999
 30
0.0
 11
92.387399999999985
 21
171.92599999999999
 31
0.0
  0
LINE
  5
484
  8
0
 62
     7
 10
78.534199999999984
 20
176.869
 30
0.0
 11
77.263000000000005
 21
177.71299999999999
 31
0.0
  0
LINE
  5
485
  8
0
 62
     7
 10
77.263000000000005
 20
177.71299999999999
 30
0.0
 11
77.941999999999993
 21
176.346
 31
0.0
  0
LINE
  5
486
  8
0
 62
     7
 10
77.941999999999993
 20
176.346
 30
0.0
 11
78.534199999999984
 21
176.869
 31
0.0
  0
LINE
  5
487
  8
0
 62
     7
 10
82.378999999999991
 20
171.92599999999999
 30
0.0
 11
77.268500000000003
 21
177.71799999999999
 31
0.0
  0
ARC
  5
488
  8
0
 62
     7
 10
75.618931000000003
 20
172.878927
 30
0.0
 40
1.645143
 50
272.11271399999998
 51
357.88729599999999
  0
ARC
  5
489
  8
0
 62
     7
 10
75.740242000000009
 20
172.87858299999999
 30
0.0
 40
1.6447989999999999
 50
182.10116999999991
 51
267.886392
  0
LINE
  5
48A
  8
0
 62
     7
 10
78.679900000000004
 20
188.90199999999999
 30
0.0
 11
78.679900000000004
 21
189.23500000000001
 31
0.0
  0
LINE
  5
48B
  8
0
 62
     7
 10
72.679599999999994
 20
188.90199999999999
 30
0.0
 11
72.679599999999994
 21
189.23500000000001
 31
0.0
  0
LINE
  5
48C
  8
0
 62
     7
 10
77.263000000000005
 20
172.81800000000001
 30
0.0
 11
77.263000000000005
 21
182.65199999999999
 31
0.0
  0
LINE
  5
48D
  8
0
 62
     7
 10
74.096500000000006
 20
172.81800000000001
 30
0.0
 11
74.096500000000006
 21
182.65199999999999
 31
0.0
  0
LINE
  5
48E
  8
0
 62
     7
 10
70.680000000000007
 20
189.48500000000001
 30
0.0
 11
70.680000000000007
 21
189.23500000000001
 31
0.0
  0
LINE
  5
48F
  8
0
 62
     7
 10
70.680000000000007
 20
189.48500000000001
 30
0.0
 11
80.6798
 21
189.48500000000001
 31
0.0
  0
LINE
  5
490
  8
0
 62
     7
 10
80.6798
 20
189.48500000000001
 30
0.0
 11
80.6798
 21
189.23500000000001
 31
0.0
  0
LINE
  5
491
  8
0
 62
     7
 10
70.680000000000007
 20
189.23500000000001
 30
0.0
 11
80.6798
 21
189.23500000000001
 31
0.0
  0
LINE
  5
492
  8
0
 62
     7
 10
80.679500000000004
 20
184.67599999999999
 30
0.0
 11
64.360500000000002
 21
184.67599999999999
 31
0.0
  0
LINE
  5
493
  8
0
 62
     7
 10
72.153199999999998
 20
185.071
 30
0.0
 11
70.679299999999998
 21
184.67599999999999
 31
0.0
  0
LINE
  5
494
  8
0
 62
     7
 10
70.679299999999998
 20
184.67599999999999
 30
0.0
 11
72.153199999999998
 21
184.28
 31
0.0
  0
LINE
  5
495
  8
0
 62
     7
 10
72.153199999999998
 20
184.28
 30
0.0
 11
72.153199999999998
 21
185.071
 31
0.0
  0
LINE
  5
496
  8
0
 62
     7
 10
79.204999999999998
 20
184.28
 30
0.0
 11
80.679500000000004
 21
184.67599999999999
 31
0.0
  0
LINE
  5
497
  8
0
 62
     7
 10
80.679500000000004
 20
184.67599999999999
 30
0.0
 11
79.204999999999998
 21
185.071
 31
0.0
  0
LINE
  5
498
  8
0
 62
     7
 10
79.204999999999998
 20
185.071
 30
0.0
 11
79.204999999999998
 21
184.28
 31
0.0
  0
LINE
  5
499
  8
0
 62
     7
 10
80.679500000000004
 20
183.976
 30
0.0
 11
80.679500000000004
 21
188.56299999999999
 31
0.0
  0
LINE
  5
49A
  8
0
 62
     7
 10
70.679299999999998
 20
183.976
 30
0.0
 11
70.679299999999998
 21
188.56299999999999
 31
0.0
  0
LINE
  5
49B
  8
0
 62
     7
 10
118.538
 20
192.626
 30
0.0
 11
118.143
 21
191.15199999999999
 31
0.0
  0
LINE
  5
49C
  8
0
 62
     7
 10
118.143
 20
191.15199999999999
 30
0.0
 11
117.748
 21
192.626
 31
0.0
  0
LINE
  5
49D
  8
0
 62
     7
 10
117.748
 20
192.626
 30
0.0
 11
118.538
 21
192.626
 31
0.0
  0
LINE
  5
49E
  8
0
 62
     7
 10
117.748
 20
188.011
 30
0.0
 11
118.143
 21
189.48500000000001
 31
0.0
  0
LINE
  5
49F
  8
0
 62
     7
 10
118.143
 20
189.48500000000001
 30
0.0
 11
118.538
 21
188.011
 31
0.0
  0
LINE
  5
4A0
  8
0
 62
     7
 10
118.538
 20
188.011
 30
0.0
 11
117.748
 21
188.011
 31
0.0
  0
LINE
  5
4A1
  8
0
 62
     7
 10
117.755
 20
202.178
 30
0.0
 11
118.15000000000001
 21
203.65199999999999
 31
0.0
  0
LINE
  5
4A2
  8
0
 62
     7
 10
118.15000000000001
 20
203.65199999999999
 30
0.0
 11
118.545
 21
202.178
 31
0.0
  0
LINE
  5
4A3
  8
0
 62
     7
 10
118.545
 20
202.178
 30
0.0
 11
117.755
 21
202.178
 31
0.0
  0
LINE
  5
4A4
  8
0
 62
     7
 10
118.143
 20
185.947
 30
0.0
 11
118.143
 21
203.65199999999999
 31
0.0
  0
LINE
  5
4A5
  8
0
 62
     7
 10
125.449
 20
184.77099999999999
 30
0.0
 11
146.39400000000001
 21
184.77099999999999
 31
0.0
  0
LINE
  5
4A6
  8
0
 62
     7
 10
114.02
 20
189.48500000000001
 30
0.0
 11
118.49299999999999
 21
189.48500000000001
 31
0.0
  0
LINE
  5
4A7
  8
0
 62
     7
 10
114.02
 20
191.15199999999999
 30
0.0
 11
118.49299999999999
 21
191.15199999999999
 31
0.0
  0
LINE
  5
4A8
  8
0
 62
     7
 10
93.657899999999998
 20
203.65199999999999
 30
0.0
 11
118.49299999999999
 21
203.65199999999999
 31
0.0
  0
LINE
  5
4A9
  8
0
 62
     7
 10
118.143
 20
190.41900000000001
 30
0.0
 11
125.449
 21
184.77099999999999
 31
0.0
  0
LINE
  5
4AA
  8
0
 62
     7
 10
147.33000000000001
 20
97.275599999999997
 30
0.0
 11
148.43600000000001
 21
98.327400000000011
 31
0.0
  0
LINE
  5
4AB
  8
0
 62
     7
 10
148.43600000000001
 20
98.327400000000011
 30
0.0
 11
148.00399999999999
 21
96.863600000000005
 31
0.0
  0
LINE
  5
4AC
  8
0
 62
     7
 10
148.00399999999999
 20
96.863600000000005
 30
0.0
 11
147.33000000000001
 21
97.275599999999997
 31
0.0
  0
LINE
  5
4AD
  8
0
 62
     7
 10
144.47900000000001
 20
91.867500000000007
 30
0.0
 11
148.43000000000001
 21
98.3309
 31
0.0
  0
LINE
  5
4AE
  8
0
 62
     7
 10
148.12899999999999
 20
121.06
 30
0.0
 11
148.43600000000001
 21
119.566
 31
0.0
  0
LINE
  5
4AF
  8
0
 62
     7
 10
148.43600000000001
 20
119.566
 30
0.0
 11
147.423
 21
120.70699999999999
 31
0.0
  0
LINE
  5
4B0
  8
0
 62
     7
 10
147.423
 20
120.70699999999999
 30
0.0
 11
148.12899999999999
 21
121.06
 31
0.0
  0
LINE
  5
4B1
  8
0
 62
     7
 10
144.29599999999999
 20
127.857
 30
0.0
 11
148.44300000000001
 21
119.569
 31
0.0
  0
LINE
  5
4B2
  8
0
 62
     7
 10
144.47900000000001
 20
91.867500000000007
 30
0.0
 11
137.22300000000001
 21
91.867500000000007
 31
0.0
  0
LINE
  5
4B3
  8
0
 62
     7
 10
144.29599999999999
 20
127.857
 30
0.0
 11
134.30699999999999
 21
127.857
 31
0.0
  0
LINE
  5
4B4
  8
0
 62
     7
 10
151.827
 20
77.496899999999997
 30
0.0
 11
150.35300000000001
 21
77.101399999999984
 31
0.0
  0
LINE
  5
4B5
  8
0
 62
     7
 10
150.35300000000001
 20
77.101399999999984
 30
0.0
 11
151.827
 21
76.706599999999995
 31
0.0
  0
LINE
  5
4B6
  8
0
 62
     7
 10
151.827
 20
76.706599999999995
 30
0.0
 11
151.827
 21
77.496899999999997
 31
0.0
  0
LINE
  5
4B7
  8
0
 62
     7
 10
161.37899999999999
 20
76.684499999999986
 30
0.0
 11
162.85300000000001
 21
77.079300000000003
 31
0.0
  0
LINE
  5
4B8
  8
0
 62
     7
 10
162.85300000000001
 20
77.079300000000003
 30
0.0
 11
161.37899999999999
 21
77.474100000000007
 31
0.0
  0
LINE
  5
4B9
  8
0
 62
     7
 10
161.37899999999999
 20
77.474100000000007
 30
0.0
 11
161.37899999999999
 21
76.684499999999986
 31
0.0
  0
LINE
  5
4BA
  8
0
 62
     7
 10
150.35300000000001
 20
76.597700000000003
 30
0.0
 11
150.35300000000001
 21
90.965900000000005
 31
0.0
  0
LINE
  5
4BB
  8
0
 62
     7
 10
147.21199999999999
 20
76.706599999999995
 30
0.0
 11
148.68600000000001
 21
77.101399999999984
 31
0.0
  0
LINE
  5
4BC
  8
0
 62
     7
 10
148.68600000000001
 20
77.101399999999984
 30
0.0
 11
147.21199999999999
 21
77.496200000000002
 31
0.0
  0
LINE
  5
4BD
  8
0
 62
     7
 10
147.21199999999999
 20
77.496200000000002
 30
0.0
 11
147.21199999999999
 21
76.706599999999995
 31
0.0
  0
LINE
  5
4BE
  8
0
 62
     7
 10
133.49299999999999
 20
77.496200000000002
 30
0.0
 11
132.01900000000001
 21
77.101399999999984
 31
0.0
  0
LINE
  5
4BF
  8
0
 62
     7
 10
132.01900000000001
 20
77.101399999999984
 30
0.0
 11
133.49299999999999
 21
76.706599999999995
 31
0.0
  0
LINE
  5
4C0
  8
0
 62
     7
 10
133.49299999999999
 20
76.706599999999995
 30
0.0
 11
133.49299999999999
 21
77.496200000000002
 31
0.0
  0
LINE
  5
4C1
  8
0
 62
     7
 10
149.55799999999999
 20
77.101399999999984
 30
0.0
 11
148.15100000000001
 21
73.056100000000001
 31
0.0
  0
LINE
  5
4C2
  8
0
  6
AIGENLINE001
 62
     7
 10
150.35300000000001
 20
129.45699999999999
 30
0.0
 11
150.35300000000001
 21
91.645300000000006
 31
0.0
  0
LINE
  5
4C3
  8
0
  6
AIGENLINE001
 62
     7
 10
148.68600000000001
 20
129.45699999999999
 30
0.0
 11
148.68600000000001
 21
91.645300000000006
 31
0.0
  0
LINE
  5
4C4
  8
0
 62
     7
 10
132.01900000000001
 20
77.101399999999984
 30
0.0
 11
162.85300000000001
 21
77.101399999999984
 31
0.0
  0
LINE
  5
4C5
  8
0
 62
     7
 10
148.68600000000001
 20
91.167100000000005
 30
0.0
 11
148.68600000000001
 21
76.597700000000003
 31
0.0
  0
LINE
  5
4C6
  8
0
 62
     7
 10
132.01900000000001
 20
88.986699999999999
 30
0.0
 11
132.01900000000001
 21
76.597700000000003
 31
0.0
  0
LINE
  5
4C7
  8
0
 62
     7
 10
148.68600000000001
 20
120.217
 30
0.0
 11
148.43600000000001
 21
120.217
 31
0.0
  0
LINE
  5
4C8
  8
0
 62
     7
 10
148.68600000000001
 20
120.217
 30
0.0
 11
148.68600000000001
 21
110.217
 31
0.0
  0
LINE
  5
4C9
  8
0
 62
     7
 10
148.68600000000001
 20
110.217
 30
0.0
 11
148.43600000000001
 21
110.217
 31
0.0
  0
LINE
  5
4CA
  8
0
 62
     7
 10
148.43600000000001
 20
120.217
 30
0.0
 11
148.43600000000001
 21
110.217
 31
0.0
  0
LINE
  5
4CB
  8
0
 62
     7
 10
148.68600000000001
 20
107.217
 30
0.0
 11
148.43600000000001
 21
107.217
 31
0.0
  0
LINE
  5
4CC
  8
0
 62
     7
 10
148.68600000000001
 20
107.217
 30
0.0
 11
148.68600000000001
 21
97.217100000000016
 31
0.0
  0
LINE
  5
4CD
  8
0
 62
     7
 10
148.68600000000001
 20
97.217100000000016
 30
0.0
 11
148.43600000000001
 21
97.217100000000016
 31
0.0
  0
LINE
  5
4CE
  8
0
 62
     7
 10
148.43600000000001
 20
107.217
 30
0.0
 11
148.43600000000001
 21
97.217100000000016
 31
0.0
  0
LINE
  5
4CF
  8
0
 62
     7
 10
125.51000000000001
 20
92.524799999999999
 30
0.0
 11
125.905
 21
91.050299999999993
 31
0.0
  0
LINE
  5
4D0
  8
0
 62
     7
 10
125.905
 20
91.050299999999993
 30
0.0
 11
126.3
 21
92.524799999999999
 31
0.0
  0
LINE
  5
4D1
  8
0
 62
     7
 10
126.3
 20
92.524799999999999
 30
0.0
 11
125.51000000000001
 21
92.524799999999999
 31
0.0
  0
LINE
  5
4D2
  8
0
 62
     7
 10
126.3
 20
100.74299999999999
 30
0.0
 11
125.905
 21
102.217
 31
0.0
  0
LINE
  5
4D3
  8
0
 62
     7
 10
125.905
 20
102.217
 30
0.0
 11
125.51000000000001
 21
100.74299999999999
 31
0.0
  0
LINE
  5
4D4
  8
0
 62
     7
 10
125.51000000000001
 20
100.74299999999999
 30
0.0
 11
126.3
 21
100.74299999999999
 31
0.0
  0
LINE
  5
4D5
  8
0
 62
     7
 10
141.53800000000001
 20
105.27500000000001
 30
0.0
 11
141.93299999999999
 21
103.801
 31
0.0
  0
LINE
  5
4D6
  8
0
 62
     7
 10
141.93299999999999
 20
103.801
 30
0.0
 11
142.328
 21
105.27500000000001
 31
0.0
  0
LINE
  5
4D7
  8
0
 62
     7
 10
142.328
 20
105.27500000000001
 30
0.0
 11
141.53800000000001
 21
105.27500000000001
 31
0.0
  0
LINE
  5
4D8
  8
0
 62
     7
 10
142.328
 20
99.159400000000005
 30
0.0
 11
141.93299999999999
 21
100.634
 31
0.0
  0
LINE
  5
4D9
  8
0
 62
     7
 10
141.93299999999999
 20
100.634
 30
0.0
 11
141.53800000000001
 21
99.159400000000005
 31
0.0
  0
LINE
  5
4DA
  8
0
 62
     7
 10
141.53800000000001
 20
99.159400000000005
 30
0.0
 11
142.328
 21
99.159400000000005
 31
0.0
  0
LINE
  5
4DB
  8
0
 62
     7
 10
148.68600000000001
 20
104.217
 30
0.0
 11
150.68600000000001
 21
104.217
 31
0.0
  0
LINE
  5
4DC
  8
0
 62
     7
 10
148.68600000000001
 20
100.217
 30
0.0
 11
150.68600000000001
 21
100.217
 31
0.0
  0
LINE
  5
4DD
  8
0
 62
     7
 10
148.68600000000001
 20
100.05
 30
0.0
 11
150.68600000000001
 21
100.05
 31
0.0
  0
LINE
  5
4DE
  8
0
 62
     7
 10
148.68600000000001
 20
104.384
 30
0.0
 11
150.68600000000001
 21
104.384
 31
0.0
  0
LINE
  5
4DF
  8
0
 62
     7
 10
147.60299999999989
 20
105.217
 30
0.0
 11
147.43600000000001
 21
105.051
 31
0.0
  0
LINE
  5
4E0
  8
0
 62
     7
 10
147.60299999999989
 20
99.217299999999994
 30
0.0
 11
147.43600000000001
 21
99.384100000000004
 31
0.0
  0
ARC
  5
4E1
  8
0
 62
     7
 10
139.519327
 20
94.71729599999999
 30
0.0
 40
9.0833979999999972
 50
90.0
 51
179.99996999999999
  0
ARC
  5
4E2
  8
0
 62
     7
 10
139.51932600000001
 20
94.717297000000002
 30
0.0
 40
5.916644999999999
 50
90.0
 51
179.99996999999999
  0
ARC
  5
4E3
  8
0
  6
AIGENLINE002
 62
     7
 10
139.519327
 20
94.717297000000002
 30
0.0
 40
7.5000220000000004
 50
90.0
 51
179.99996999999999
  0
LINE
  5
4E4
  8
0
 62
     7
 10
147.60299999999989
 20
99.217299999999994
 30
0.0
 11
148.43600000000001
 21
99.217299999999994
 31
0.0
  0
LINE
  5
4E5
  8
0
 62
     7
 10
147.60299999999989
 20
105.217
 30
0.0
 11
148.43600000000001
 21
105.217
 31
0.0
  0
LINE
  5
4E6
  8
0
 62
     7
 10
147.60299999999989
 20
105.217
 30
0.0
 11
147.60299999999989
 21
99.217299999999994
 31
0.0
  0
LINE
  5
4E7
  8
0
 62
     7
 10
147.43600000000001
 20
105.051
 30
0.0
 11
147.43600000000001
 21
99.384100000000004
 31
0.0
  0
LINE
  5
4E8
  8
0
 62
     7
 10
133.60300000000001
 20
91.050299999999993
 30
0.0
 11
133.60300000000001
 21
94.717299999999994
 31
0.0
  0
LINE
  5
4E9
  8
0
 62
     7
 10
130.43600000000001
 20
91.050299999999993
 30
0.0
 11
130.43600000000001
 21
94.717299999999994
 31
0.0
  0
LINE
  5
4EA
  8
0
  6
AIGENLINE002
 62
     7
 10
132.01900000000001
 20
89.706699999999998
 30
0.0
 11
132.01900000000001
 21
94.717299999999994
 31
0.0
  0
LINE
  5
4EB
  8
0
 62
     7
 10
139.51900000000001
 20
100.634
 30
0.0
 11
147.43600000000001
 21
100.634
 31
0.0
  0
LINE
  5
4EC
  8
0
 62
     7
 10
139.51900000000001
 20
103.801
 30
0.0
 11
147.43600000000001
 21
103.801
 31
0.0
  0
LINE
  5
4ED
  8
0
 62
     7
 10
130.43600000000001
 20
94.050299999999993
 30
0.0
 11
133.60300000000001
 21
94.050299999999993
 31
0.0
  0
LINE
  5
4EE
  8
0
 62
     7
 10
130.43600000000001
 20
91.050299999999993
 30
0.0
 11
133.60300000000001
 21
91.050299999999993
 31
0.0
  0
LINE
  5
4EF
  8
0
  6
AIGENLINE002
 62
     7
 10
139.51900000000001
 20
102.217
 30
0.0
 11
153.87200000000001
 21
102.217
 31
0.0
  0
LINE
  5
4F0
  8
0
 62
     7
 10
141.93299999999999
 20
98.102500000000006
 30
0.0
 11
141.93299999999999
 21
110.459
 31
0.0
  0
LINE
  5
4F1
  8
0
 62
     7
 10
125.905
 20
91.050299999999993
 30
0.0
 11
125.905
 21
102.217
 31
0.0
  0
LINE
  5
4F2
  8
0
 62
     7
 10
136.89099999999999
 20
102.217
 30
0.0
 11
125.205
 21
102.217
 31
0.0
  0
LINE
  5
4F3
  8
0
 62
     7
 10
129.80699999999999
 20
91.050299999999993
 30
0.0
 11
125.277
 21
91.050299999999993
 31
0.0
  0
ARC
  5
4F4
  8
0
 62
     7
 10
75.679924999999983
 20
102.21731800000001
 30
0.0
 40
1.5833759999999999
 50
90.0
 51
179.99996999999999
  0
ARC
  5
4F5
  8
0
 62
     7
 10
75.619281000000001
 20
102.15667500000001
 30
0.0
 40
1.645138
 50
2.1125359999999991
 51
87.887454000000005
  0
ARC
  5
4F6
  8
0
 62
     7
 10
75.740786999999997
 20
102.25035800000001
 30
0.0
 40
3.0610490000000001
 50
180.61846
 51
237.50261699999999
  0
ARC
  5
4F7
  8
0
 62
     7
 10
75.795049000000006
 20
102.102194
 30
0.0
 40
3.1172589999999998
 50
92.116477999999987
 51
177.88349199999999
  0
ARC
  5
4F8
  8
0
 62
     7
 10
75.564804000000009
 20
102.102198
 30
0.0
 40
3.1172550000000001
 50
2.1164160000000001
 51
87.883573999999996
  0
ARC
  5
4F9
  8
0
 62
     7
 10
75.621576000000005
 20
102.24896099999999
 30
0.0
 40
3.0585200000000001
 50
302.47173800000002
 51
359.40722399999999
  0
LINE
  5
4FA
  8
0
 62
     7
 10
74.096500000000006
 20
91.050299999999993
 30
0.0
 11
74.096500000000006
 21
102.217
 31
0.0
  0
LINE
  5
4FB
  8
0
 62
     7
 10
77.263300000000001
 20
91.050299999999993
 30
0.0
 11
77.263300000000001
 21
102.217
 31
0.0
  0
LINE
  5
4FC
  8
0
 62
     7
 10
74.096500000000006
 20
94.050299999999993
 30
0.0
 11
77.263300000000001
 21
94.050299999999993
 31
0.0
  0
LINE
  5
4FD
  8
0
 62
     7
 10
74.096500000000006
 20
91.050299999999993
 30
0.0
 11
77.263300000000001
 21
91.050299999999993
 31
0.0
  0
ARC
  5
4FE
  8
0
 62
     7
 10
75.814579000000009
 20
102.312243
 30
0.0
 40
5.1354430000000004
 50
181.066834
 51
250.45522099999999
  0
ARC
  5
4FF
  8
0
 62
     7
 10
75.679924999999983
 20
102.216973
 30
0.0
 40
4.9999000000000002
 50
90.003947999999994
 51
180.00395800000001
  0
ARC
  5
500
  8
0
 62
     7
 10
75.679579000000004
 20
102.216628
 30
0.0
 40
5.0002440000000004
 50
0.00001
 51
89.999980000000008
  0
ARC
  5
501
  8
0
 62
     7
 10
75.541764999999998
 20
102.314768
 30
0.0
 40
5.1389959999999988
 50
289.57221699999991
 51
358.90576800000002
  0
TEXT
  5
502
  8
_________2
 62
     7
 10
149.08785933333331
 20
254.06200000000001
 30
0.0
 40
3.3734599999999988
  1
数
 41
0.5
 72
     1
 11
149.875
 21
254.06200000000001
 31
0.0
  0
LINE
  5
503
  8
_________2
 62
     7
 10
127.322
 20
258.911
 30
0.0
 11
127.322
 21
216.911
 31
0.0
  0
LINE
  5
504
  8
_________2
 62
     7
 10
146.51400000000001
 20
258.911
 30
0.0
 11
146.51400000000001
 21
216.911
 31
0.0
  0
LINE
  5
505
  8
_________2
 62
     7
 10
153.166
 20
258.911
 30
0.0
 11
153.166
 21
216.911
 31
0.0
  0
TEXT
  5
506
  8
_________2
 62
     7
 10
164.53496966666671
 20
219.06200000000001
 30
0.0
 40
3.3734599999999988
  1
スパウト
 41
0.5
 72
     1
 11
168.30199999999999
 21
219.06200000000001
 31
0.0
  0
TEXT
  5
507
  8
_________2
 62
     7
 10
128.62799999999999
 20
211.50299999999999
 30
0.0
 40
3.3734599999999988
  1
注：色番号はカタログを参照ください
 41
0.5
  0
TEXT
  5
508
  8
_________2
 62
     7
 10
132.2470533333333
 20
219.06200000000001
 30
0.0
 40
3.3734599999999988
  1
VL010P
 41
0.5
 72
     1
 11
136.745
 21
219.06200000000001
 31
0.0
  0
LINE
  5
509
  8
_________2
 62
     7
 10
127.322
 20
216.911
 30
0.0
 11
183.55099999999999
 21
216.911
 31
0.0
  0
TEXT
  5
50A
  8
_________2
 62
     7
 10
166.50282133333329
 20
226.06200000000001
 30
0.0
 40
3.3734599999999988
  1
台座
 41
0.5
 72
     1
 11
168.30199999999999
 21
226.06200000000001
 31
0.0
  0
TEXT
  5
50B
  8
_________2
 62
     7
 10
133.0904183333333
 20
226.06200000000001
 30
0.0
 40
3.3734599999999988
  1
VL001
 41
0.5
 72
     1
 11
136.745
 21
226.06200000000001
 31
0.0
  0
TEXT
  5
50C
  8
_________2
 62
     7
 10
166.50182133333331
 20
233.06100000000001
 30
0.0
 40
3.3734599999999988
  1
台座
 41
0.5
 72
     1
 11
168.30099999999999
 21
233.06100000000001
 31
0.0
  0
TEXT
  5
50D
  8
_________2
 62
     7
 10
132.2470533333333
 20
233.06200000000001
 30
0.0
 40
3.3734599999999988
  1
VL3001
 41
0.5
 72
     1
 11
136.745
 21
233.06200000000001
 31
0.0
  0
TEXT
  5
50E
  8
_________2
 62
     7
 10
149.59387833333329
 20
233.06200000000001
 30
0.0
 40
3.3734599999999988
  1
1
 41
0.5
 72
     1
 11
149.875
 21
233.06200000000001
 31
0.0
  0
LINE
  5
50F
  8
_________2
 62
     7
 10
127.322
 20
230.911
 30
0.0
 11
183.55099999999999
 21
230.911
 31
0.0
  0
TEXT
  5
510
  8
_________2
 62
     7
 10
157.39347933333329
 20
240.06100000000001
 30
0.0
 40
3.3734599999999988
  1
シングルレバーハンドル
 41
0.5
 72
     1
 11
168.30099999999999
 21
240.06100000000001
 31
0.0
  0
TEXT
  5
511
  8
_________2
 62
     7
 10
160.43059333333329
 20
247.06100000000001
 30
0.0
 40
3.3734599999999988
  1
埋込型混合栓本体
 41
0.5
 72
     1
 11
168.30199999999999
 21
247.06100000000001
 31
0.0
  0
TEXT
  5
512
  8
_________2
 62
     7
 10
166.50282133333329
 20
254.06200000000001
 30
0.0
 40
3.3734599999999988
  1
名称
 41
0.5
 72
     1
 11
168.30199999999999
 21
254.06200000000001
 31
0.0
  0
TEXT
  5
513
  8
_________2
 62
     7
 10
132.6687358333333
 20
240.06200000000001
 30
0.0
 40
3.3734599999999988
  1
VL028
 41
0.5
 72
     1
 11
136.745
 21
240.06200000000001
 31
0.0
  0
TEXT
  5
514
  8
_________2
 62
     7
 10
131.96593166666671
 20
247.06200000000001
 30
0.0
 40
3.3734599999999988
  1
VL300T
 41
0.5
 72
     1
 11
136.745
 21
247.06200000000001
 31
0.0
  0
TEXT
  5
515
  8
_________2
 62
     7
 10
149.59387833333329
 20
219.06200000000001
 30
0.0
 40
3.3734599999999988
  1
1
 41
0.5
 72
     1
 11
149.875
 21
219.06200000000001
 31
0.0
  0
TEXT
  5
516
  8
_________2
 62
     7
 10
149.59387833333329
 20
226.06200000000001
 30
0.0
 40
3.3734599999999988
  1
1
 41
0.5
 72
     1
 11
149.875
 21
226.06200000000001
 31
0.0
  0
TEXT
  5
517
  8
_________2
 62
     7
 10
149.59387833333329
 20
240.06200000000001
 30
0.0
 40
3.3734599999999988
  1
1
 41
0.5
 72
     1
 11
149.875
 21
240.06200000000001
 31
0.0
  0
TEXT
  5
518
  8
_________2
 62
     7
 10
149.59387833333329
 20
247.06200000000001
 30
0.0
 40
3.3734599999999988
  1
1
 41
0.5
 72
     1
 11
149.875
 21
247.06200000000001
 31
0.0
  0
TEXT
  5
519
  8
_________2
 62
     7
 10
134.9458213333333
 20
254.06200000000001
 30
0.0
 40
3.3734599999999988
  1
品番
 41
0.5
 72
     1
 11
136.745
 21
254.06200000000001
 31
0.0
  0
LINE
  5
51A
  8
_________2
 62
     7
 10
127.322
 20
223.911
 30
0.0
 11
183.55099999999999
 21
223.911
 31
0.0
  0
LINE
  5
51B
  8
_________2
 62
     7
 10
127.322
 20
237.911
 30
0.0
 11
183.55099999999999
 21
237.911
 31
0.0
  0
LINE
  5
51C
  8
_________2
 62
     7
 10
127.322
 20
244.911
 30
0.0
 11
183.55099999999999
 21
244.911
 31
0.0
  0
LINE
  5
51D
  8
_________2
 62
     7
 10
127.322
 20
251.911
 30
0.0
 11
183.55099999999999
 21
251.911
 31
0.0
  0
LINE
  5
51E
  8
_________2
 62
     7
 10
205.30099999999999
 20
127.411
 30
0.0
 11
183.55000000000001
 21
127.411
 31
0.0
  0
LINE
  5
51F
  8
_________2
 62
     7
 10
100.3
 20
-4.0910799999999998
 30
0.0
 11
100.3
 21
-21.071400000000001
 31
0.0
  0
LINE
  5
520
  8
_________2
 62
     7
 10
100.3
 20
275.93099999999998
 30
0.0
 11
100.3
 21
258.911
 31
0.0
  0
LINE
  5
521
  8
_________2
 62
     7
 10
17.049499999999998
 20
127.411
 30
0.0
 11
-4.70052
 21
127.411
 31
0.0
  0
LINE
  5
522
  8
_________2
 62
     7
 10
76.741
 20
29.8047
 30
0.0
 11
74.554699999999997
 21
29.8047
 31
0.0
  0
LINE
  5
523
  8
_________2
 62
     7
 10
77.233699999999999
 20
29.8047
 30
0.0
 11
76.981499999999997
 21
29.8047
 31
0.0
  0
LINE
  5
524
  8
_________2
 62
     7
 10
77.726299999999995
 20
29.8047
 30
0.0
 11
80.651200000000003
 21
29.8047
 31
0.0
  0
LINE
  5
525
  8
_________2
 62
     7
 10
77.233699999999999
 20
29.8047
 30
0.0
 11
77.485500000000002
 21
29.8047
 31
0.0
  0
LINE
  5
526
  8
_________2
 62
     7
 10
70.837100000000007
 20
29.8047
 30
0.0
 11
68.650499999999994
 21
29.8047
 31
0.0
  0
LINE
  5
527
  8
_________2
 62
     7
 10
71.329400000000007
 20
29.8047
 30
0.0
 11
71.077600000000004
 21
29.8047
 31
0.0
  0
LINE
  5
528
  8
_________2
 62
     7
 10
71.329400000000007
 20
30.2974
 30
0.0
 11
71.329400000000007
 21
32.484400000000001
 31
0.0
  0
LINE
  5
529
  8
_________2
 62
     7
 10
71.329400000000007
 20
29.8047
 30
0.0
 11
71.329400000000007
 21
30.056899999999999
 31
0.0
  0
LINE
  5
52A
  8
_________2
 62
     7
 10
71.822100000000006
 20
29.8047
 30
0.0
 11
74.009
 21
29.8047
 31
0.0
  0
LINE
  5
52B
  8
_________2
 62
     7
 10
71.329400000000007
 20
29.8047
 30
0.0
 11
71.581599999999995
 21
29.8047
 31
0.0
  0
LINE
  5
52C
  8
_________2
 62
     7
 10
71.329400000000007
 20
29.312799999999999
 30
0.0
 11
71.329400000000007
 21
27.125800000000002
 31
0.0
  0
LINE
  5
52D
  8
_________2
 62
     7
 10
71.329400000000007
 20
29.8047
 30
0.0
 11
71.329400000000007
 21
29.5532
 31
0.0
  0
LINE
  5
52E
  8
_________2
 62
     7
 10
75.040499999999994
 20
28.5852
 30
0.0
 11
80.218500000000006
 21
27.720400000000001
 31
0.0
  0
LINE
  5
52F
  8
_________2
 62
     7
 10
75.040499999999994
 20
31.0243
 30
0.0
 11
80.218500000000006
 21
31.889700000000001
 31
0.0
  0
LINE
  5
530
  8
_________2
 62
     7
 10
80.218500000000006
 20
27.720400000000001
 30
0.0
 11
80.218500000000006
 21
31.889700000000001
 31
0.0
  0
LINE
  5
531
  8
_________2
 62
     7
 10
75.040499999999994
 20
28.5852
 30
0.0
 11
75.040499999999994
 21
31.0243
 31
0.0
  0
ARC
  5
532
  8
_________2
 62
     7
 10
71.28285600000001
 20
29.757811
 30
0.0
 40
1.2673589999999999
 50
2.122214
 51
87.893958999999995
  0
ARC
  5
533
  8
_________2
 62
     7
 10
71.375959999999992
 20
29.758213000000001
 30
0.0
 40
1.2669559999999991
 50
92.104701000000006
 51
177.89526900000001
  0
ARC
  5
534
  8
_________2
 62
     7
 10
71.376357999999996
 20
29.851671
 30
0.0
 40
1.2673680000000001
 50
182.12203600000001
 51
267.877993
  0
ARC
  5
535
  8
_________2
 62
     7
 10
71.282531999999989
 20
29.851998999999999
 30
0.0
 40
1.267695999999999
 50
272.12015300000002
 51
357.863674
  0
ARC
  5
536
  8
_________2
 62
     7
 10
71.329430000000002
 20
29.804742999999998
 30
0.0
 40
2.0849849999999992
 50
0.00001
 51
89.999980000000008
  0
ARC
  5
537
  8
_________2
 62
     7
 10
71.329603000000006
 20
29.804915000000001
 30
0.0
 40
2.084813
 50
90.004733999999999
 51
180.00474399999999
  0
ARC
  5
538
  8
_________2
 62
     7
 10
71.409106000000008
 20
29.884775999999999
 30
0.0
 40
2.1657950000000001
 50
182.11776599999999
 51
267.89173399999999
  0
ARC
  5
539
  8
_________2
 62
     7
 10
71.249459000000002
 20
29.885429999999999
 30
0.0
 40
2.1664590000000001
 50
272.11546800000002
 51
357.86560400000002
  0
TEXT
  5
53A
  8
_________2
 62
     7
 10
104.605
 20
1.6794899999999999
 30
0.0
 40
3.0923400000000001
  1
図番
 41
0.5
  0
LINE
  5
53B
  8
_________2
 62
     7
 10
103.55
 20
5.9087199999999989
 30
0.0
 11
183.55099999999999
 21
5.9087199999999989
 31
0.0
  0
TEXT
  5
53C
  8
_________2
 62
     7
 10
104.605
 20
11.6793
 30
0.0
 40
3.0923400000000001
  1
品番
 41
0.5
  0
TEXT
  5
53D
  8
_________2
 62
     7
 10
104.605
 20
31.818100000000001
 30
0.0
 40
3.0923400000000001
  1
名称
 41
0.5
  0
TEXT
  5
53E
  8
_________2
 62
     7
 10
91.845058333333341
 20
26.821999999999999
 30
0.0
 40
3.6545800000000002
  1
mm
 41
0.5
 72
     1
 11
93.367800000000003
 21
26.821999999999999
 31
0.0
  0
TEXT
  5
53F
  8
_________2
 62
     7
 10
85.643199999999993
 20
31.818100000000001
 30
0.0
 40
3.0923400000000001
  1
単位
 41
0.5
  0
TEXT
  5
540
  8
_________2
 62
     7
 10
85.643199999999993
 20
19.410799999999998
 30
0.0
 40
3.0923400000000001
  1
尺度
 41
0.5
  0
TEXT
  5
541
  8
_________2
 62
     7
 10
90.548758666666686
 20
13.2179
 30
0.0
 40
3.6545800000000002
  1
1 ： 6
 41
0.5
 72
     1
 11
93.959699999999998
 21
13.2179
 31
0.0
  0
TEXT
  5
542
  8
_________2
 62
     7
 10
136.66252499999999
 20
9.1078600000000005
 30
0.0
 40
3.9357000000000002
  1
図中の表参照
 41
0.5
 72
     1
 11
143.55000000000001
 21
9.1078600000000005
 31
0.0
  0
TEXT
  5
543
  8
_________2
 62
     7
 10
135.67859999999999
 20
-0.8926299999999999
 30
0.0
 40
3.9357000000000002
  1
VL300T11P
 41
0.5
 72
     1
 11
143.55000000000001
 21
-0.8926299999999999
 31
0.0
  0
TEXT
  5
544
  8
_________2
 62
     7
 10
24.5868
 20
0.707283
 30
0.0
 40
3.9357000000000002
  1
（社）日本水道協会認証品
 41
0.5
  0
TEXT
  5
545
  8
_________2
 62
     7
 10
109.179
 20
24.2257
 30
0.0
 40
3.9357000000000002
  1
ボラ　湯水混合栓（上ハンドル）
 41
0.5
  0
TEXT
  5
546
  8
_________2
 62
     7
 10
39.425300333333333
 20
13.603
 30
0.0
 40
3.6545800000000002
  1
早川
 41
0.5
 72
     1
 11
41.313499999999998
 21
13.603
 31
0.0
  0
TEXT
  5
547
  8
_________2
 62
     7
 10
20.790090666666661
 20
13.603
 30
0.0
 40
3.6545800000000002
  1
石原
 41
0.5
 72
     1
 11
22.7392
 21
13.603
 31
0.0
  0
TEXT
  5
548
  8
_________2
 62
     7
 10
67.785399999999996
 20
13.2179
 30
0.0
 40
3.6545800000000002
  1
16.01.27
 41
0.5
  0
TEXT
  5
549
  8
_________2
 62
     7
 10
66.593100000000007
 20
19.410799999999998
 30
0.0
 40
3.0923400000000001
  1
日付
 41
0.5
  0
TEXT
  5
54A
  8
_________2
 62
     7
 10
29.639399999999998
 20
19.410799999999998
 30
0.0
 40
3.0923400000000001
  1
検図
 41
0.5
  0
TEXT
  5
54B
  8
_________2
 62
     7
 10
18.021100000000001
 20
5.21143
 30
0.0
 40
3.0923400000000001
  1
備考
 41
0.5
  0
TEXT
  5
54C
  8
_________2
 62
     7
 10
18.021100000000001
 20
19.410799999999998
 30
0.0
 40
3.0923400000000001
  1
製図
 41
0.5
  0
TEXT
  5
54D
  8
_________2
 62
     7
 10
23.788465333333338
 20
27.936800000000002
 30
0.0
 40
4.4979399999999989
  1
セラトレーディング株式会社
 41
0.5
 72
     1
 11
41.180500000000002
 21
27.936800000000002
 31
0.0
  0
LINE
  5
54E
  8
_________2
 62
     7
 10
183.55099999999999
 20
-4.0910799999999998
 30
0.0
 11
17.049499999999998
 21
-4.0910799999999998
 31
0.0
  0
LINE
  5
54F
  8
_________2
 62
     7
 10
17.049499999999998
 20
-4.0910799999999998
 30
0.0
 11
17.049499999999998
 21
258.911
 31
0.0
  0
LINE
  5
550
  8
_________2
 62
     7
 10
17.049499999999998
 20
258.911
 30
0.0
 11
183.55099999999999
 21
258.911
 31
0.0
  0
LINE
  5
551
  8
_________2
 62
     7
 10
183.55099999999999
 20
258.911
 30
0.0
 11
183.55099999999999
 21
-4.0910799999999998
 31
0.0
  0
LINE
  5
552
  8
_________2
 62
     7
 10
65.549599999999998
 20
9.4089600000000004
 30
0.0
 11
65.549599999999998
 21
35.908799999999999
 31
0.0
  0
LINE
  5
553
  8
_________2
 62
     7
 10
84.549700000000016
 20
9.4089600000000004
 30
0.0
 11
84.549700000000016
 21
35.908799999999999
 31
0.0
  0
LINE
  5
554
  8
_________2
 62
     7
 10
103.55
 20
-4.0910799999999998
 30
0.0
 11
103.55
 21
35.908799999999999
 31
0.0
  0
LINE
  5
555
  8
_________2
 62
     7
 10
28.549299999999999
 20
9.4089600000000004
 30
0.0
 11
28.549299999999999
 21
23.409199999999998
 31
0.0
  0
LINE
  5
556
  8
_________2
 62
     7
 10
17.049499999999998
 20
9.4089600000000004
 30
0.0
 11
103.55
 21
9.4089600000000004
 31
0.0
  0
LINE
  5
557
  8
_________2
 62
     7
 10
17.049499999999998
 20
23.409199999999998
 30
0.0
 11
103.55
 21
23.409199999999998
 31
0.0
  0
LINE
  5
558
  8
_________2
 62
     7
 10
103.55
 20
15.9085
 30
0.0
 11
183.55099999999999
 21
15.9085
 31
0.0
  0
LINE
  5
559
  8
_________2
 62
     7
 10
17.049499999999998
 20
35.908799999999999
 30
0.0
 11
183.55099999999999
 21
35.908799999999999
 31
0.0
  0
ENDSEC
  0
EOF
