  0
SECTION
  2
HEADER
  9
$ACADVER
  1
AC1009
  9
$INSBASE
 10
0.0
 20
0.0
 30
0.0
  9
$EXTMIN
 10
-4.70052
 20
-21.071400000000001
 30
0.0
  9
$EXTMAX
 10
205.30099999999999
 20
275.93099999999998
 30
0.0
  9
$LIMMIN
 10
0.0
 20
0.0
  9
$LIMMAX
 10
12.0
 20
9.0
  9
$ORTHOMODE
 70
     0
  9
$REGENMODE
 70
     1
  9
$FILLMODE
 70
     1
  9
$QTEXTMODE
 70
     0
  9
$MIRRTEXT
 70
     1
  9
$DRAGMODE
 70
     2
  9
$LTSCALE
 40
1.0
  9
$OSMODE
 70
    37
  9
$ATTMODE
 70
     1
  9
$TEXTSIZE
 40
0.0
  9
$TRACEWID
 40
0.05
  9
$TEXTSTYLE
  7
STANDARD
  9
$CLAYER
  8
0
  9
$CELTYPE
  6
CONTINUOUS
  9
$CECOLOR
 62
   256
  9
$DIMSCALE
 40
1.0
  9
$DIMASZ
 40
0.18
  9
$DIMEXO
 40
0.0625
  9
$DIMDLI
 40
0.38
  9
$DIMRND
 40
0.0
  9
$DIMDLE
 40
0.0
  9
$DIMEXE
 40
0.18
  9
$DIMTP
 40
0.0
  9
$DIMTM
 40
0.0
  9
$DIMTXT
 40
0.18
  9
$DIMCEN
 40
0.09
  9
$DIMTSZ
 40
0.0
  9
$DIMTOL
 70
     0
  9
$DIMLIM
 70
     0
  9
$DIMTIH
 70
     1
  9
$DIMTOH
 70
     1
  9
$DIMSE1
 70
     0
  9
$DIMSE2
 70
     0
  9
$DIMTAD
 70
     0
  9
$DIMZIN
 70
     0
  9
$DIMBLK
  1

  9
$DIMASO
 70
     1
  9
$DIMSHO
 70
     1
  9
$DIMPOST
  1

  9
$DIMAPOST
  1

  9
$DIMALT
 70
     0
  9
$DIMALTD
 70
     2
  9
$DIMALTF
 40
25.399999999999999
  9
$DIMLFAC
 40
1.0
  9
$DIMTOFL
 70
     0
  9
$DIMTVP
 40
0.0
  9
$DIMTIX
 70
     0
  9
$DIMSOXD
 70
     0
  9
$DIMSAH
 70
     0
  9
$DIMBLK1
  1

  9
$DIMBLK2
  1

  9
$DIMSTYLE
  2
STANDARD
  9
$DIMCLRD
 70
     0
  9
$DIMCLRE
 70
     0
  9
$DIMCLRT
 70
     0
  9
$DIMTFAC
 40
1.0
  9
$DIMGAP
 40
0.09
  9
$LUNITS
 70
     2
  9
$LUPREC
 70
     4
  9
$SKETCHINC
 40
0.1
  9
$FILLETRAD
 40
0.0
  9
$AUNITS
 70
     0
  9
$AUPREC
 70
     0
  9
$MENU
  1
.
  9
$ELEVATION
 40
0.0
  9
$PELEVATION
 40
0.0
  9
$THICKNESS
 40
0.0
  9
$LIMCHECK
 70
     0
  9
$BLIPMODE
 70
     0
  9
$CHAMFERA
 40
0.0
  9
$CHAMFERB
 40
0.0
  9
$SKPOLY
 70
     0
  9
$TDCREATE
 40
2444972.375
  9
$TDUPDATE
 40
2457479.2584524648
  9
$TDINDWG
 40
0.0000303125
  9
$TDUSRTIMER
 40
0.0000303125
  9
$USRTIMER
 70
     1
  9
$ANGBASE
 50
0.0
  9
$ANGDIR
 70
     0
  9
$PDMODE
 70
     0
  9
$PDSIZE
 40
0.0
  9
$PLINEWID
 40
0.0
  9
$COORDS
 70
     1
  9
$SPLFRAME
 70
     0
  9
$SPLINETYPE
 70
     6
  9
$SPLINESEGS
 70
     8
  9
$ATTDIA
 70
     1
  9
$ATTREQ
 70
     1
  9
$HANDLING
 70
     1
  9
$HANDSEED
  5
564
  9
$SURFTAB1
 70
     6
  9
$SURFTAB2
 70
     6
  9
$SURFTYPE
 70
     6
  9
$SURFU
 70
     6
  9
$SURFV
 70
     6
  9
$UCSNAME
  2

  9
$UCSORG
 10
0.0
 20
0.0
 30
0.0
  9
$UCSXDIR
 10
1.0
 20
0.0
 30
0.0
  9
$UCSYDIR
 10
0.0
 20
1.0
 30
0.0
  9
$PUCSNAME
  2

  9
$PUCSORG
 10
0.0
 20
0.0
 30
0.0
  9
$PUCSXDIR
 10
1.0
 20
0.0
 30
0.0
  9
$PUCSYDIR
 10
0.0
 20
1.0
 30
0.0
  9
$USERI1
 70
     0
  9
$USERI2
 70
     0
  9
$USERI3
 70
     0
  9
$USERI4
 70
     0
  9
$USERI5
 70
     0
  9
$USERR1
 40
0.0
  9
$USERR2
 40
0.0
  9
$USERR3
 40
0.0
  9
$USERR4
 40
0.0
  9
$USERR5
 40
0.0
  9
$WORLDVIEW
 70
     1
  9
$SHADEDGE
 70
     3
  9
$SHADEDIF
 70
    70
  9
$TILEMODE
 70
     1
  9
$MAXACTVP
 70
    48
  9
$PLIMCHECK
 70
     0
  9
$PEXTMIN
 10
1.0000000000000000E+020
 20
1.0000000000000000E+020
 30
1.0000000000000000E+020
  9
$PEXTMAX
 10
-1.0000000000000000E+020
 20
-1.0000000000000000E+020
 30
-1.0000000000000000E+020
  9
$PLIMMIN
 10
0.0
 20
0.0
  9
$PLIMMAX
 10
12.0
 20
9.0
  9
$UNITMODE
 70
     0
  9
$VISRETAIN
 70
     1
  9
$PLINEGEN
 70
     0
  9
$PSLTSCALE
 70
     1
  0
ENDSEC
  0
SECTION
  2
TABLES
  0
TABLE
  2
VPORT
 70
     1
  0
VPORT
  2
*ACTIVE
 70
     0
 10
0.0
 20
0.0
 11
1.0
 21
1.0
 12
173.0589517274982
 22
127.4298
 13
0.0
 23
0.0
 14
1.0
 24
1.0
 15
0.0
 25
0.0
 16
0.0
 26
0.0
 36
1.0
 17
0.0
 27
0.0
 37
0.0
 40
289.64168420534031
 41
2.1063583815028899
 42
50.0
 43
0.0
 44
0.0
 50
0.0
 51
0.0
 71
     0
 72
   100
 73
     1
 74
     1
 75
     0
 76
     0
 77
     0
 78
     0
  0
ENDTAB
  0
TABLE
  2
LTYPE
 70
     4
  0
LTYPE
  2
CONTINUOUS
 70
     0
  3
Solid line
 72
    65
 73
     0
 40
0.0
  0
LTYPE
  2
AIGENLINE001
 70
     0
  3
generate AI->DXF Converter
 72
    65
 73
     4
 40
5.8561449999999988
 49
3.5278
 49
-0.776115
 49
0.776115
 49
-0.776115
  0
LTYPE
  2
AIGENLINE002
 70
     0
  3
generate AI->DXF Converter
 72
    65
 73
     6
 40
7.4083750000000004
 49
3.5278
 49
-0.776115
 49
0.776115
 49
-0.776115
 49
0.776115
 49
-0.776115
  0
LTYPE
  2
AIGENLINE003
 70
     0
  3
generate AI->DXF Converter
 72
    65
 73
     5
 40
5.8561449999999988
 49
3.5278
 49
-0.776115
 49
0.776115
 49
-0.776115
 49
0.0
  0
ENDTAB
  0
TABLE
  2
LAYER
 70
     2
  0
LAYER
  2
0
 70
     0
 62
     7
  6
CONTINUOUS
  0
LAYER
  2
_________2
 70
     0
 62
     7
  6
CONTINUOUS
  0
ENDTAB
  0
TABLE
  2
STYLE
 70
     1
  0
STYLE
  2
STANDARD
 70
     0
 40
0.0
 41
0.0
 50
0.0
 71
     0
 42
0.0
  3
TXT
  4
EXTFONT.SHX
  0
ENDTAB
  0
TABLE
  2
VIEW
 70
     0
  0
ENDTAB
  0
TABLE
  2
UCS
 70
     0
  0
ENDTAB
  0
TABLE
  2
APPID
 70
     3
  0
APPID
  2
ACAD
 70
     0
  0
APPID
  2
ACAD_NAV_VCDISPLAY
 70
     0
  0
APPID
  2
ACAD_MLEADERVER
 70
     0
  0
ENDTAB
  0
TABLE
  2
DIMSTYLE
 70
     1
  0
DIMSTYLE
  2
STANDARD
 70
     0
  3

  4

  5

  6

  7

 40
1.0
 41
0.18
 42
0.0625
 43
0.38
 44
0.18
 45
0.0
 46
0.0
 47
0.0
 48
0.0
140
0.18
141
0.09
142
0.0
143
25.399999999999999
144
1.0
145
0.0
146
1.0
147
0.09
 71
     0
 72
     0
 73
     1
 74
     1
 75
     0
 76
     0
 77
     0
 78
     0
170
     0
171
     2
172
     0
173
     0
174
     0
175
     0
176
     0
177
     0
178
     0
  0
ENDTAB
  0
ENDSEC
  0
SECTION
  2
BLOCKS
  0
BLOCK
  8
0
  2
$MODEL_SPACE
 70
     0
 10
0.0
 20
0.0
 30
0.0
  3
$MODEL_SPACE
  1

  0
ENDBLK
  5
1A
  8
0
  0
BLOCK
 67
     1
  8
0
  2
$PAPER_SPACE
 70
     0
 10
0.0
 20
0.0
 30
0.0
  3
$PAPER_SPACE
  1

  0
ENDBLK
  5
17
 67
     1
  8
0
  0
ENDSEC
  0
SECTION
  2
ENTITIES
  0
TEXT
  5
24
  8
0
 62
     7
 10
125.893
 20
148.083
 30
0.0
 40
3.0923400000000001
  1
15%%d
 41
0.5
  0
TEXT
  5
25
  8
0
 62
     7
 10
85.882764999999992
 20
55.158700000000003
 30
0.0
 40
3.0923400000000001
  1
%%c10
 41
0.5
 72
     2
 11
89.232799999999997
 21
55.158700000000003
 31
0.0
  0
TEXT
  5
26
  8
0
 62
     7
 10
93.788999999999987
 20
126.073525
 30
0.0
 40
3.0923400000000001
  1
55
 50
90.0
 41
0.5
 72
     1
 11
93.788999999999987
 21
127.36199999999999
 31
0.0
  0
TEXT
  5
27
  8
0
 62
     7
 10
68.652900000000002
 20
126.34442249999999
 30
0.0
 40
3.0923400000000001
  1
max.40
 50
90.0
 41
0.5
 72
     1
 11
68.652900000000002
 21
130.08099999999999
 31
0.0
  0
TEXT
  5
28
  8
0
 62
     7
 10
30.035
 20
126.41242250000001
 30
0.0
 40
3.0923400000000001
  1
max.30
 50
90.0
 41
0.5
 72
     1
 11
30.035
 21
130.149
 31
0.0
  0
TEXT
  5
29
  8
0
 62
     7
 10
48.802684999999997
 20
115.509
 30
0.0
 40
3.0923400000000001
  1
SC06412
 41
0.5
 72
     2
 11
58.337400000000002
 21
115.509
 31
0.0
  0
TEXT
  5
2A
  8
0
 62
     7
 10
31.917362000000001
 20
194.44800000000001
 30
0.0
 40
3.0923400000000001
  1
スパウトは固定式
 41
0.5
 72
     1
 11
39.235900000000001
 21
194.44800000000001
 31
0.0
  0
TEXT
  5
2B
  8
0
 62
     7
 10
88.985299999999995
 20
222.08699999999999
 30
0.0
 40
3.0923400000000001
  1
水
 41
0.5
  0
TEXT
  5
2C
  8
0
 62
     7
 10
67.856507999999991
 20
222.08699999999999
 30
0.0
 40
3.0923400000000001
  1
湯
 41
0.5
 72
     2
 11
69.299599999999998
 21
222.08699999999999
 31
0.0
  0
TEXT
  5
2D
  8
0
 62
     7
 10
77.561082499999998
 20
215.91300000000001
 30
0.0
 40
3.0923400000000001
  1
90%%d
 41
0.5
 72
     1
 11
79.236099999999993
 21
215.91300000000001
 31
0.0
  0
TEXT
  5
2E
  8
0
 62
     7
 10
142.592986
 20
144.08600000000001
 30
0.0
 40
3.0923400000000001
  1
開
 41
0.5
 72
     2
 11
143.93299999999999
 21
144.08600000000001
 31
0.0
  0
TEXT
  5
2F
  8
0
 62
     7
 10
142.28598600000001
 20
138.434
 30
0.0
 40
3.0923400000000001
  1
閉
 41
0.5
 72
     2
 11
143.626
 21
138.434
 31
0.0
  0
TEXT
  5
30
  8
0
 62
     7
 10
131.98864599999999
 20
192.61699999999999
 30
0.0
 40
3.0923400000000001
  1
水栓取付穴
 41
0.5
 72
     1
 11
136.42099999999999
 21
192.61699999999999
 31
0.0
  0
TEXT
  5
31
  8
0
 62
     7
 10
162.35288
 20
200.61500000000001
 30
0.0
 40
3.0923400000000001
  1
%%c44
 41
0.5
 72
     2
 11
166.476
 21
200.61500000000001
 31
0.0
  0
TEXT
  5
32
  8
0
 62
     7
 10
122.19188
 20
200.61500000000001
 30
0.0
 40
3.0923400000000001
  1
%%c25
 41
0.5
 72
     2
 11
126.315
 21
200.61500000000001
 31
0.0
  0
TEXT
  5
33
  8
0
 62
     7
 10
53.892868
 20
162.34100000000001
 30
0.0
 40
3.0923400000000001
  1
100～300
 41
0.5
 72
     1
 11
58.4283
 21
162.34100000000001
 31
0.0
  0
TEXT
  5
34
  8
0
 62
     7
 10
143.41
 20
155.751
 30
0.0
 40
3.0923400000000001
  1
%%c19
 41
0.5
  0
LINE
  5
35
  8
0
 62
     7
 10
149.45400000000001
 20
154.25
 30
0.0
 11
151.66499999999999
 21
154.84200000000001
 31
0.0
  0
LINE
  5
36
  8
0
 62
     7
 10
151.66499999999999
 20
154.84200000000001
 30
0.0
 11
149.45400000000001
 21
155.434
 31
0.0
  0
LINE
  5
37
  8
0
 62
     7
 10
149.45400000000001
 20
155.434
 30
0.0
 11
149.45400000000001
 21
154.25
 31
0.0
  0
TEXT
  5
38
  8
0
 62
     7
 10
166.619
 20
148.83713499999999
 30
0.0
 40
3.0923400000000001
  1
185
 50
90.0
 41
0.5
 72
     1
 11
166.619
 21
150.64099999999999
 31
0.0
  0
TEXT
  5
39
  8
0
 62
     7
 10
93.531300000000002
 20
89.194040000000001
 30
0.0
 40
3.0923400000000001
  1
495
 50
90.0
 41
0.5
 72
     1
 11
93.531300000000002
 21
91.255600000000001
 31
0.0
  0
TEXT
  5
3A
  8
0
 62
     7
 10
134.54900000000001
 20
141.41098249999999
 30
0.0
 40
3.0923400000000001
  1
103
 50
90.0
 41
0.5
 72
     1
 11
134.54900000000001
 21
143.08600000000001
 31
0.0
  0
TEXT
  5
3B
  8
0
 62
     7
 10
115.157
 20
140.79698250000001
 30
0.0
 40
3.0923400000000001
  1
105
 50
90.0
 41
0.5
 72
     1
 11
115.157
 21
142.47200000000001
 31
0.0
  0
TEXT
  5
3C
  8
0
 62
     7
 10
27.566800000000001
 20
142.89400000000001
 30
0.0
 40
3.0923400000000001
  1
%%c40
 41
0.5
  0
TEXT
  5
3D
  8
0
 62
     7
 10
137.160135
 20
177.08099999999999
 30
0.0
 40
3.0923400000000001
  1
146
 41
0.5
 72
     1
 11
138.964
 21
177.08099999999999
 31
0.0
  0
TEXT
  5
3E
  8
0
 62
     7
 10
47.07253
 20
171.215
 30
0.0
 40
3.0923400000000001
  1
VL090GFR
 41
0.5
 72
     2
 11
58.92649999999999
 21
171.215
 31
0.0
  0
TEXT
  5
3F
  8
0
 62
     7
 10
89.380769999999984
 20
146.18000000000001
 30
0.0
 40
3.0923400000000001
  1
VL500S
 41
0.5
 72
     2
 11
98.142399999999995
 21
146.18000000000001
 31
0.0
  0
TEXT
  5
40
  8
0
 62
     7
 10
76.673887500000006
 20
150.64500000000001
 30
0.0
 40
3.0923400000000001
  1
%%c60
 41
0.5
 72
     1
 11
78.6066
 21
150.64500000000001
 31
0.0
  0
LINE
  5
41
  8
0
 62
     7
 10
157.56399999999999
 20
132.392
 30
0.0
 11
157.364
 21
132.19200000000001
 31
0.0
  0
LINE
  5
42
  8
0
 62
     7
 10
149.565
 20
132.392
 30
0.0
 11
149.76400000000001
 21
132.19200000000001
 31
0.0
  0
LINE
  5
43
  8
0
 62
     7
 10
149.565
 20
121.956
 30
0.0
 11
149.76400000000001
 21
121.756
 31
0.0
  0
LINE
  5
44
  8
0
 62
     7
 10
157.364
 20
121.756
 30
0.0
 11
157.56399999999999
 21
121.956
 31
0.0
  0
LINE
  5
45
  8
0
 62
     7
 10
149.565
 20
121.956
 30
0.0
 11
149.565
 21
125.256
 31
0.0
  0
LINE
  5
46
  8
0
 62
     7
 10
157.56399999999999
 20
121.956
 30
0.0
 11
157.56399999999999
 21
125.256
 31
0.0
  0
LINE
  5
47
  8
0
 62
     7
 10
157.56399999999999
 20
121.956
 30
0.0
 11
149.565
 21
121.956
 31
0.0
  0
LINE
  5
48
  8
0
 62
     7
 10
157.364
 20
121.756
 30
0.0
 11
149.76400000000001
 21
121.756
 31
0.0
  0
LINE
  5
49
  8
0
 62
     7
 10
157.364
 20
125.256
 30
0.0
 11
157.364
 21
121.756
 31
0.0
  0
LINE
  5
4A
  8
0
 62
     7
 10
157.364
 20
132.19200000000001
 30
0.0
 11
157.364
 21
127.756
 31
0.0
  0
LINE
  5
4B
  8
0
 62
     7
 10
157.56399999999999
 20
127.756
 30
0.0
 11
157.56399999999999
 21
132.756
 31
0.0
  0
LINE
  5
4C
  8
0
 62
     7
 10
149.76400000000001
 20
132.19200000000001
 30
0.0
 11
149.76400000000001
 21
127.756
 31
0.0
  0
LINE
  5
4D
  8
0
 62
     7
 10
149.565
 20
127.756
 30
0.0
 11
149.565
 21
132.756
 31
0.0
  0
LINE
  5
4E
  8
0
 62
     7
 10
157.364
 20
127.256
 30
0.0
 11
157.364
 21
126.256
 31
0.0
  0
LINE
  5
4F
  8
0
 62
     7
 10
157.56399999999999
 20
126.256
 30
0.0
 11
157.56399999999999
 21
127.256
 31
0.0
  0
LINE
  5
50
  8
0
 62
     7
 10
149.76400000000001
 20
127.256
 30
0.0
 11
149.76400000000001
 21
126.256
 31
0.0
  0
LINE
  5
51
  8
0
 62
     7
 10
149.565
 20
126.256
 30
0.0
 11
149.565
 21
127.256
 31
0.0
  0
LINE
  5
52
  8
0
 62
     7
 10
149.76400000000001
 20
125.256
 30
0.0
 11
149.76400000000001
 21
121.756
 31
0.0
  0
LINE
  5
53
  8
0
 62
     7
 10
149.76400000000001
 20
132.19200000000001
 30
0.0
 11
157.364
 21
132.19200000000001
 31
0.0
  0
LINE
  5
54
  8
0
 62
     7
 10
153.09
 20
124.256
 30
0.0
 11
153.09
 21
125.256
 31
0.0
  0
LINE
  5
55
  8
0
 62
     7
 10
154.089
 20
124.256
 30
0.0
 11
154.089
 21
125.256
 31
0.0
  0
LINE
  5
56
  8
0
 62
     7
 10
153.09
 20
126.256
 30
0.0
 11
153.09
 21
127.256
 31
0.0
  0
LINE
  5
57
  8
0
 62
     7
 10
154.089
 20
126.256
 30
0.0
 11
154.089
 21
127.256
 31
0.0
  0
LINE
  5
58
  8
0
 62
     7
 10
152.75
 20
123.256
 30
0.0
 11
152.75
 21
124.256
 31
0.0
  0
LINE
  5
59
  8
0
 62
     7
 10
152.75
 20
124.256
 30
0.0
 11
154.43000000000001
 21
124.256
 31
0.0
  0
LINE
  5
5A
  8
0
 62
     7
 10
154.43000000000001
 20
124.256
 30
0.0
 11
154.43000000000001
 21
123.256
 31
0.0
  0
LINE
  5
5B
  8
0
 62
     7
 10
154.43000000000001
 20
123.256
 30
0.0
 11
152.75
 21
123.256
 31
0.0
  0
LINE
  5
5C
  8
0
 62
     7
 10
147.59
 20
125.256
 30
0.0
 11
147.59
 21
126.256
 31
0.0
  0
LINE
  5
5D
  8
0
 62
     7
 10
147.59
 20
126.256
 30
0.0
 11
159.59
 21
126.256
 31
0.0
  0
LINE
  5
5E
  8
0
 62
     7
 10
159.59
 20
126.256
 30
0.0
 11
159.59
 21
125.256
 31
0.0
  0
LINE
  5
5F
  8
0
 62
     7
 10
159.59
 20
125.256
 30
0.0
 11
147.59
 21
125.256
 31
0.0
  0
LINE
  5
60
  8
0
 62
     7
 10
147.59
 20
127.256
 30
0.0
 11
147.59
 21
127.556
 31
0.0
  0
LINE
  5
61
  8
0
 62
     7
 10
147.59
 20
127.556
 30
0.0
 11
159.59
 21
127.556
 31
0.0
  0
LINE
  5
62
  8
0
 62
     7
 10
159.59
 20
127.556
 30
0.0
 11
159.59
 21
127.256
 31
0.0
  0
LINE
  5
63
  8
0
 62
     7
 10
159.59
 20
127.256
 30
0.0
 11
147.59
 21
127.256
 31
0.0
  0
LINE
  5
64
  8
0
 62
     7
 10
148.089
 20
127.556
 30
0.0
 11
148.089
 21
127.756
 31
0.0
  0
LINE
  5
65
  8
0
 62
     7
 10
148.089
 20
127.756
 30
0.0
 11
159.09
 21
127.756
 31
0.0
  0
LINE
  5
66
  8
0
 62
     7
 10
159.09
 20
127.756
 30
0.0
 11
159.09
 21
127.556
 31
0.0
  0
LINE
  5
67
  8
0
 62
     7
 10
159.09
 20
127.556
 30
0.0
 11
148.089
 21
127.556
 31
0.0
  0
LINE
  5
68
  8
0
 62
     7
 10
153.88999999999999
 20
121.756
 30
0.0
 11
153.88999999999999
 21
120.405
 31
0.0
  0
LINE
  5
69
  8
0
 62
     7
 10
153.88999999999999
 20
121.756
 30
0.0
 11
155.36600000000001
 21
121.756
 31
0.0
  0
LINE
  5
6A
  8
0
 62
     7
 10
154.10900000000001
 20
120.18600000000001
 30
0.0
 11
154.10900000000001
 21
118.405
 31
0.0
  0
LINE
  5
6B
  8
0
 62
     7
 10
154.10900000000001
 20
120.18600000000001
 30
0.0
 11
153.88999999999999
 21
120.405
 31
0.0
  0
LINE
  5
6C
  8
0
 62
     7
 10
154.97300000000001
 20
120.18600000000001
 30
0.0
 11
154.97300000000001
 21
118.405
 31
0.0
  0
LINE
  5
6D
  8
0
 62
     7
 10
154.661
 20
120.18600000000001
 30
0.0
 11
154.661
 21
118.405
 31
0.0
  0
LINE
  5
6E
  8
0
 62
     7
 10
154.661
 20
120.18600000000001
 30
0.0
 11
154.10900000000001
 21
120.18600000000001
 31
0.0
  0
LINE
  5
6F
  8
0
 62
     7
 10
155.36600000000001
 20
120.18600000000001
 30
0.0
 11
154.97300000000001
 21
120.18600000000001
 31
0.0
  0
ARC
  5
70
  8
0
 62
     7
 10
154.12303499999999
 20
118.05854100000001
 30
0.0
 40
0.375318
 50
182.24446
 51
267.86501800000002
  0
ARC
  5
71
  8
0
 62
     7
 10
154.12308300000001
 20
118.02981200000001
 30
0.0
 40
0.375341
 50
92.142278000000005
 51
177.85769199999999
  0
LINE
  5
72
  8
0
 62
     7
 10
154.661
 20
118.405
 30
0.0
 11
154.10900000000001
 21
118.405
 31
0.0
  0
LINE
  5
73
  8
0
 62
     7
 10
155.36600000000001
 20
118.405
 30
0.0
 11
154.97300000000001
 21
118.405
 31
0.0
  0
LINE
  5
74
  8
0
 62
     7
 10
155.36600000000001
 20
117.68300000000001
 30
0.0
 11
154.10900000000001
 21
117.68300000000001
 31
0.0
  0
LINE
  5
75
  8
0
 62
     7
 10
156.84200000000001
 20
121.756
 30
0.0
 11
156.84200000000001
 21
120.405
 31
0.0
  0
LINE
  5
76
  8
0
 62
     7
 10
156.84200000000001
 20
121.756
 30
0.0
 11
155.36600000000001
 21
121.756
 31
0.0
  0
LINE
  5
77
  8
0
 62
     7
 10
156.624
 20
120.18600000000001
 30
0.0
 11
156.624
 21
118.405
 31
0.0
  0
LINE
  5
78
  8
0
 62
     7
 10
156.624
 20
120.18600000000001
 30
0.0
 11
156.84200000000001
 21
120.405
 31
0.0
  0
LINE
  5
79
  8
0
 62
     7
 10
155.75899999999999
 20
120.18600000000001
 30
0.0
 11
155.75899999999999
 21
118.405
 31
0.0
  0
LINE
  5
7A
  8
0
 62
     7
 10
156.072
 20
120.18600000000001
 30
0.0
 11
156.072
 21
118.405
 31
0.0
  0
LINE
  5
7B
  8
0
 62
     7
 10
156.072
 20
120.18600000000001
 30
0.0
 11
156.624
 21
120.18600000000001
 31
0.0
  0
LINE
  5
7C
  8
0
 62
     7
 10
155.36600000000001
 20
120.18600000000001
 30
0.0
 11
155.75899999999999
 21
120.18600000000001
 31
0.0
  0
ARC
  5
7D
  8
0
 62
     7
 10
156.609613
 20
118.02981200000001
 30
0.0
 40
0.375341
 50
2.1422880000000002
 51
87.857701999999989
  0
ARC
  5
7E
  8
0
 62
     7
 10
156.61028899999999
 20
118.057912
 30
0.0
 40
0.374667
 50
272.04263600000002
 51
357.84792700000003
  0
LINE
  5
7F
  8
0
 62
     7
 10
156.072
 20
118.405
 30
0.0
 11
156.624
 21
118.405
 31
0.0
  0
LINE
  5
80
  8
0
 62
     7
 10
155.36600000000001
 20
118.405
 30
0.0
 11
155.75899999999999
 21
118.405
 31
0.0
  0
LINE
  5
81
  8
0
 62
     7
 10
155.36600000000001
 20
117.68300000000001
 30
0.0
 11
156.624
 21
117.68300000000001
 31
0.0
  0
LINE
  5
82
  8
0
 62
     7
 10
150.286
 20
121.756
 30
0.0
 11
150.286
 21
120.405
 31
0.0
  0
LINE
  5
83
  8
0
 62
     7
 10
150.286
 20
121.756
 30
0.0
 11
151.762
 21
121.756
 31
0.0
  0
LINE
  5
84
  8
0
 62
     7
 10
150.505
 20
120.18600000000001
 30
0.0
 11
150.505
 21
118.405
 31
0.0
  0
LINE
  5
85
  8
0
 62
     7
 10
150.505
 20
120.18600000000001
 30
0.0
 11
150.286
 21
120.405
 31
0.0
  0
LINE
  5
86
  8
0
 62
     7
 10
151.369
 20
120.18600000000001
 30
0.0
 11
151.369
 21
118.405
 31
0.0
  0
LINE
  5
87
  8
0
 62
     7
 10
151.05600000000001
 20
120.18600000000001
 30
0.0
 11
151.05600000000001
 21
118.405
 31
0.0
  0
LINE
  5
88
  8
0
 62
     7
 10
151.05600000000001
 20
120.18600000000001
 30
0.0
 11
150.505
 21
120.18600000000001
 31
0.0
  0
LINE
  5
89
  8
0
 62
     7
 10
151.762
 20
120.18600000000001
 30
0.0
 11
151.369
 21
120.18600000000001
 31
0.0
  0
ARC
  5
8A
  8
0
 62
     7
 10
150.518753
 20
118.05854100000001
 30
0.0
 40
0.375318
 50
182.24446
 51
267.86501800000002
  0
ARC
  5
8B
  8
0
 62
     7
 10
150.51880199999999
 20
118.02981200000001
 30
0.0
 40
0.375341
 50
92.142278000000005
 51
177.85769199999999
  0
LINE
  5
8C
  8
0
 62
     7
 10
151.05600000000001
 20
118.405
 30
0.0
 11
150.505
 21
118.405
 31
0.0
  0
LINE
  5
8D
  8
0
 62
     7
 10
151.762
 20
118.405
 30
0.0
 11
151.369
 21
118.405
 31
0.0
  0
LINE
  5
8E
  8
0
 62
     7
 10
151.762
 20
117.68300000000001
 30
0.0
 11
150.505
 21
117.68300000000001
 31
0.0
  0
LINE
  5
8F
  8
0
 62
     7
 10
153.238
 20
121.756
 30
0.0
 11
153.238
 21
120.405
 31
0.0
  0
LINE
  5
90
  8
0
 62
     7
 10
153.238
 20
121.756
 30
0.0
 11
151.762
 21
121.756
 31
0.0
  0
LINE
  5
91
  8
0
 62
     7
 10
153.01900000000001
 20
120.18600000000001
 30
0.0
 11
153.01900000000001
 21
118.405
 31
0.0
  0
LINE
  5
92
  8
0
 62
     7
 10
153.01900000000001
 20
120.18600000000001
 30
0.0
 11
153.238
 21
120.405
 31
0.0
  0
LINE
  5
93
  8
0
 62
     7
 10
152.155
 20
120.18600000000001
 30
0.0
 11
152.155
 21
118.405
 31
0.0
  0
LINE
  5
94
  8
0
 62
     7
 10
152.46700000000001
 20
120.18600000000001
 30
0.0
 11
152.46700000000001
 21
118.405
 31
0.0
  0
LINE
  5
95
  8
0
 62
     7
 10
152.46700000000001
 20
120.18600000000001
 30
0.0
 11
153.01900000000001
 21
120.18600000000001
 31
0.0
  0
LINE
  5
96
  8
0
 62
     7
 10
151.762
 20
120.18600000000001
 30
0.0
 11
152.155
 21
120.18600000000001
 31
0.0
  0
ARC
  5
97
  8
0
 62
     7
 10
153.00533100000001
 20
118.02981200000001
 30
0.0
 40
0.375341
 50
2.1422880000000002
 51
87.857701999999989
  0
ARC
  5
98
  8
0
 62
     7
 10
153.00600800000001
 20
118.057912
 30
0.0
 40
0.374667
 50
272.04263600000002
 51
357.84792700000003
  0
LINE
  5
99
  8
0
 62
     7
 10
152.46700000000001
 20
118.405
 30
0.0
 11
153.01900000000001
 21
118.405
 31
0.0
  0
LINE
  5
9A
  8
0
 62
     7
 10
151.762
 20
118.405
 30
0.0
 11
152.155
 21
118.405
 31
0.0
  0
LINE
  5
9B
  8
0
 62
     7
 10
151.762
 20
117.68300000000001
 30
0.0
 11
153.01900000000001
 21
117.68300000000001
 31
0.0
  0
LINE
  5
9C
  8
0
 62
     7
 10
156.566
 20
117.27
 30
0.0
 11
156.15199999999999
 21
117.684
 31
0.0
  0
LINE
  5
9D
  8
0
 62
     7
 10
154.58000000000001
 20
117.684
 30
0.0
 11
154.166
 21
117.27
 31
0.0
  0
LINE
  5
9E
  8
0
 62
     7
 10
156.566
 20
116.389
 30
0.0
 11
155.27099999999999
 21
117.684
 31
0.0
  0
LINE
  5
9F
  8
0
 62
     7
 10
155.46100000000001
 20
117.684
 30
0.0
 11
154.166
 21
116.389
 31
0.0
  0
LINE
  5
A0
  8
0
 62
     7
 10
156.566
 20
115.508
 30
0.0
 11
154.39099999999999
 21
117.684
 31
0.0
  0
LINE
  5
A1
  8
0
 62
     7
 10
156.34200000000001
 20
117.684
 30
0.0
 11
154.166
 21
115.508
 31
0.0
  0
LINE
  5
A2
  8
0
 62
     7
 10
155.989
 20
115.20399999999999
 30
0.0
 11
154.166
 21
117.027
 31
0.0
  0
LINE
  5
A3
  8
0
 62
     7
 10
156.566
 20
117.027
 30
0.0
 11
154.74299999999999
 21
115.20399999999999
 31
0.0
  0
LINE
  5
A4
  8
0
 62
     7
 10
155.108
 20
115.20399999999999
 30
0.0
 11
154.166
 21
116.146
 31
0.0
  0
LINE
  5
A5
  8
0
 62
     7
 10
156.566
 20
116.146
 30
0.0
 11
155.624
 21
115.20399999999999
 31
0.0
  0
ARC
  5
A6
  8
0
 62
     7
 10
155.967342
 20
93.142005000000012
 30
0.0
 40
0.8390459999999999
 50
236.37101100000001
 51
269.90637700000002
  0
ARC
  5
A7
  8
0
 62
     7
 10
155.79000300000001
 20
92.847213999999994
 30
0.0
 40
0.495624
 50
211.224962
 51
234.56733299999999
  0
ARC
  5
A8
  8
0
 62
     7
 10
155.964597
 20
93.142797000000002
 30
0.0
 40
0.8398379999999999
 50
270.09371800000002
 51
303.61268100000001
  0
ARC
  5
A9
  8
0
 62
     7
 10
156.14347100000001
 20
92.845329000000007
 30
0.0
 40
0.493337
 50
305.43698599999999
 51
328.86999600000001
  0
ARC
  5
AA
  8
0
 62
     7
 10
155.964598
 20
92.036299000000014
 30
0.0
 40
0.8409629999999999
 50
56.438330000000001
 51
89.906471999999994
  0
ARC
  5
AB
  8
0
 62
     7
 10
156.14443700000001
 20
92.335808999999983
 30
0.0
 40
0.4922140000000001
 50
31.131086
 51
54.608010999999998
  0
ARC
  5
AC
  8
0
 62
     7
 10
155.967341
 20
92.037092000000001
 30
0.0
 40
0.8401700000000001
 50
90.093432999999976
 51
123.577958
  0
ARC
  5
AD
  8
0
 62
     7
 10
155.78903099999999
 20
92.333930000000009
 30
0.0
 40
0.4944930000000001
 50
125.38767799999999
 51
148.773943
  0
ARC
  5
AE
  8
0
 62
     7
 10
154.76466099999999
 20
92.035505000000001
 30
0.0
 40
0.8417569999999999
 50
56.454622000000001
 51
89.906396999999998
  0
ARC
  5
AF
  8
0
 62
     7
 10
154.94486000000001
 20
92.335611999999998
 30
0.0
 40
0.4923040000000001
 50
31.15149000000001
 51
54.632736999999999
  0
ARC
  5
B0
  8
0
 62
     7
 10
154.76740899999999
 20
92.036299000000014
 30
0.0
 40
0.8409629999999999
 50
90.093507999999986
 51
123.56165
  0
ARC
  5
B1
  8
0
 62
     7
 10
154.58757
 20
92.335808999999983
 30
0.0
 40
0.4922140000000001
 50
125.391969
 51
148.86889400000001
  0
LINE
  5
B2
  8
0
 62
     7
 10
156.36600000000001
 20
62.755200000000002
 30
0.0
 11
154.36600000000001
 21
62.755200000000002
 31
0.0
  0
LINE
  5
B3
  8
0
 62
     7
 10
156.36600000000001
 20
60.755000000000003
 30
0.0
 11
154.36600000000001
 21
60.755000000000003
 31
0.0
  0
LINE
  5
B4
  8
0
 62
     7
 10
153.88999999999999
 20
70.027500000000003
 30
0.0
 11
153.88999999999999
 21
68.676299999999998
 31
0.0
  0
LINE
  5
B5
  8
0
 62
     7
 10
153.88999999999999
 20
70.027500000000003
 30
0.0
 11
155.36600000000001
 21
70.027500000000003
 31
0.0
  0
LINE
  5
B6
  8
0
 62
     7
 10
154.10900000000001
 20
68.457599999999999
 30
0.0
 11
154.10900000000001
 21
66.676500000000004
 31
0.0
  0
LINE
  5
B7
  8
0
 62
     7
 10
154.10900000000001
 20
68.457599999999999
 30
0.0
 11
153.88999999999999
 21
68.676299999999998
 31
0.0
  0
LINE
  5
B8
  8
0
 62
     7
 10
154.97300000000001
 20
68.457599999999999
 30
0.0
 11
154.97300000000001
 21
66.676500000000004
 31
0.0
  0
LINE
  5
B9
  8
0
 62
     7
 10
154.661
 20
68.457599999999999
 30
0.0
 11
154.661
 21
66.676500000000004
 31
0.0
  0
LINE
  5
BA
  8
0
 62
     7
 10
154.661
 20
68.457599999999999
 30
0.0
 11
154.10900000000001
 21
68.457599999999999
 31
0.0
  0
LINE
  5
BB
  8
0
 62
     7
 10
155.36600000000001
 20
68.457599999999999
 30
0.0
 11
154.97300000000001
 21
68.457599999999999
 31
0.0
  0
ARC
  5
BC
  8
0
 62
     7
 10
154.12264300000001
 20
66.329712999999998
 30
0.0
 40
0.374912
 50
182.18688599999999
 51
267.92259200000001
  0
ARC
  5
BD
  8
0
 62
     7
 10
154.12308899999999
 20
66.301371000000003
 30
0.0
 40
0.375347
 50
92.143049000000005
 51
177.856921
  0
LINE
  5
BE
  8
0
 62
     7
 10
154.661
 20
66.676500000000004
 30
0.0
 11
154.10900000000001
 21
66.676500000000004
 31
0.0
  0
LINE
  5
BF
  8
0
 62
     7
 10
155.36600000000001
 20
66.676500000000004
 30
0.0
 11
154.97300000000001
 21
66.676500000000004
 31
0.0
  0
LINE
  5
C0
  8
0
 62
     7
 10
154.36600000000001
 20
60.755000000000003
 30
0.0
 11
154.36600000000001
 21
65.954999999999998
 31
0.0
  0
LINE
  5
C1
  8
0
 62
     7
 10
155.36600000000001
 20
65.954999999999998
 30
0.0
 11
154.10900000000001
 21
65.954999999999998
 31
0.0
  0
LINE
  5
C2
  8
0
 62
     7
 10
156.84200000000001
 20
70.027500000000003
 30
0.0
 11
156.84200000000001
 21
68.676299999999998
 31
0.0
  0
LINE
  5
C3
  8
0
 62
     7
 10
156.84200000000001
 20
70.027500000000003
 30
0.0
 11
155.36600000000001
 21
70.027500000000003
 31
0.0
  0
LINE
  5
C4
  8
0
 62
     7
 10
156.624
 20
68.457599999999999
 30
0.0
 11
156.624
 21
66.676500000000004
 31
0.0
  0
LINE
  5
C5
  8
0
 62
     7
 10
156.624
 20
68.457599999999999
 30
0.0
 11
156.84200000000001
 21
68.676299999999998
 31
0.0
  0
LINE
  5
C6
  8
0
 62
     7
 10
155.75899999999999
 20
68.457599999999999
 30
0.0
 11
155.75899999999999
 21
66.676500000000004
 31
0.0
  0
LINE
  5
C7
  8
0
 62
     7
 10
156.072
 20
68.457599999999999
 30
0.0
 11
156.072
 21
66.676500000000004
 31
0.0
  0
LINE
  5
C8
  8
0
 62
     7
 10
156.072
 20
68.457599999999999
 30
0.0
 11
156.624
 21
68.457599999999999
 31
0.0
  0
LINE
  5
C9
  8
0
 62
     7
 10
155.36600000000001
 20
68.457599999999999
 30
0.0
 11
155.75899999999999
 21
68.457599999999999
 31
0.0
  0
ARC
  5
CA
  8
0
 62
     7
 10
156.610004
 20
66.301767999999996
 30
0.0
 40
0.374936
 50
2.0847329999999999
 51
87.915256999999997
  0
ARC
  5
CB
  8
0
 62
     7
 10
156.61028899999999
 20
66.329476
 30
0.0
 40
0.374667
 50
272.04263600000002
 51
357.84792700000003
  0
LINE
  5
CC
  8
0
 62
     7
 10
156.072
 20
66.676500000000004
 30
0.0
 11
156.624
 21
66.676500000000004
 31
0.0
  0
LINE
  5
CD
  8
0
 62
     7
 10
155.36600000000001
 20
66.676500000000004
 30
0.0
 11
155.75899999999999
 21
66.676500000000004
 31
0.0
  0
LINE
  5
CE
  8
0
 62
     7
 10
156.36600000000001
 20
60.755000000000003
 30
0.0
 11
156.36600000000001
 21
65.954999999999998
 31
0.0
  0
LINE
  5
CF
  8
0
 62
     7
 10
155.36600000000001
 20
65.954999999999998
 30
0.0
 11
156.624
 21
65.954999999999998
 31
0.0
  0
LINE
  5
D0
  8
0
 62
     7
 10
156.566
 20
70.027900000000002
 30
0.0
 11
156.566
 21
92.590299999999999
 31
0.0
  0
LINE
  5
D1
  8
0
 62
     7
 10
154.166
 20
70.027900000000002
 30
0.0
 11
154.166
 21
92.590299999999999
 31
0.0
  0
LINE
  5
D2
  8
0
  6
AIGENLINE001
 62
     7
 10
155.36600000000001
 20
124.75700000000001
 30
0.0
 11
155.36600000000001
 21
59.603999999999992
 31
0.0
  0
LINE
  5
D3
  8
0
 62
     7
 10
156.566
 20
94.072000000000017
 30
0.0
 11
156.566
 21
117.684
 31
0.0
  0
LINE
  5
D4
  8
0
 62
     7
 10
154.166
 20
94.072000000000017
 30
0.0
 11
154.166
 21
117.684
 31
0.0
  0
ARC
  5
D5
  8
0
 62
     7
 10
154.765356
 20
93.519897999999998
 30
0.0
 40
0.8394530000000001
 50
56.39664299999999
 51
89.906502000000003
  0
ARC
  5
D6
  8
0
 62
     7
 10
154.94521499999999
 20
93.818641999999997
 30
0.0
 40
0.491337
 50
31.04467
 51
54.584913999999998
  0
ARC
  5
D7
  8
0
 62
     7
 10
154.768101
 20
93.517808000000002
 30
0.0
 40
0.841544
 50
90.093676000000016
 51
123.56034200000001
  0
ARC
  5
D8
  8
0
 62
     7
 10
154.584654
 20
93.822176999999996
 30
0.0
 40
0.4867430000000001
 50
125.372544
 51
149.11532600000001
  0
ARC
  5
D9
  8
0
 62
     7
 10
154.768101
 20
94.627020999999985
 30
0.0
 40
0.8419729999999999
 50
236.459082
 51
269.90639599999997
  0
ARC
  5
DA
  8
0
 62
     7
 10
154.5851449999999
 20
94.323031
 30
0.0
 40
0.4877570000000001
 50
210.971328
 51
234.64126899999999
  0
ARC
  5
DB
  8
0
 62
     7
 10
154.765356
 20
94.624930000000006
 30
0.0
 40
0.839882
 50
270.09342600000002
 51
303.583911
  0
ARC
  5
DC
  8
0
 62
     7
 10
154.94470999999999
 20
94.326587000000004
 30
0.0
 40
0.4923760000000001
 50
305.40129899999999
 51
328.86863399999999
  0
ARC
  5
DD
  8
0
 62
     7
 10
155.96802600000001
 20
94.627347999999984
 30
0.0
 40
0.8423000000000001
 50
236.46578400000001
 51
269.90705800000001
  0
ARC
  5
DE
  8
0
 62
     7
 10
155.78875400000001
 20
94.328206999999978
 30
0.0
 40
0.494166
 50
211.22548699999999
 51
234.63091900000001
  0
ARC
  5
DF
  8
0
 62
     7
 10
155.96529000000001
 20
94.625218000000004
 30
0.0
 40
0.8401700000000001
 50
270.09345300000001
 51
303.57797799999997
  0
ARC
  5
E0
  8
0
 62
     7
 10
156.14359999999999
 20
94.328380000000024
 30
0.0
 40
0.4944930000000001
 50
305.387697
 51
328.77396299999998
  0
LINE
  5
E1
  8
0
 62
     7
 10
152.96199999999999
 20
117.27
 30
0.0
 11
152.548
 21
117.684
 31
0.0
  0
LINE
  5
E2
  8
0
 62
     7
 10
150.976
 20
117.684
 30
0.0
 11
150.56200000000001
 21
117.27
 31
0.0
  0
LINE
  5
E3
  8
0
 62
     7
 10
152.96199999999999
 20
116.389
 30
0.0
 11
151.667
 21
117.684
 31
0.0
  0
LINE
  5
E4
  8
0
 62
     7
 10
151.857
 20
117.684
 30
0.0
 11
150.56200000000001
 21
116.389
 31
0.0
  0
LINE
  5
E5
  8
0
 62
     7
 10
152.96199999999999
 20
115.508
 30
0.0
 11
150.786
 21
117.684
 31
0.0
  0
LINE
  5
E6
  8
0
 62
     7
 10
152.738
 20
117.684
 30
0.0
 11
150.56200000000001
 21
115.508
 31
0.0
  0
LINE
  5
E7
  8
0
 62
     7
 10
152.38499999999999
 20
115.20399999999999
 30
0.0
 11
150.56200000000001
 21
117.027
 31
0.0
  0
LINE
  5
E8
  8
0
 62
     7
 10
152.96199999999999
 20
117.027
 30
0.0
 11
151.13900000000001
 21
115.20399999999999
 31
0.0
  0
LINE
  5
E9
  8
0
 62
     7
 10
151.50399999999999
 20
115.20399999999999
 30
0.0
 11
150.56200000000001
 21
116.146
 31
0.0
  0
LINE
  5
EA
  8
0
 62
     7
 10
152.96199999999999
 20
116.146
 30
0.0
 11
152.02000000000001
 21
115.20399999999999
 31
0.0
  0
ARC
  5
EB
  8
0
 62
     7
 10
152.36305999999999
 20
93.142005000000012
 30
0.0
 40
0.8390459999999999
 50
236.37101100000001
 51
269.90637700000002
  0
ARC
  5
EC
  8
0
 62
     7
 10
152.185722
 20
92.847213999999994
 30
0.0
 40
0.495624
 50
211.224962
 51
234.56733299999999
  0
ARC
  5
ED
  8
0
 62
     7
 10
152.36031600000001
 20
93.142797000000002
 30
0.0
 40
0.8398379999999999
 50
270.09371800000002
 51
303.61268100000001
  0
ARC
  5
EE
  8
0
 62
     7
 10
152.53918899999999
 20
92.845329000000007
 30
0.0
 40
0.493337
 50
305.43698599999999
 51
328.86999600000001
  0
ARC
  5
EF
  8
0
 62
     7
 10
152.36031600000001
 20
92.036299000000014
 30
0.0
 40
0.8409629999999999
 50
56.438330000000001
 51
89.906471999999994
  0
ARC
  5
F0
  8
0
 62
     7
 10
152.540156
 20
92.335808999999983
 30
0.0
 40
0.4922140000000001
 50
31.131086
 51
54.608010999999998
  0
ARC
  5
F1
  8
0
 62
     7
 10
152.36305899999999
 20
92.037092000000001
 30
0.0
 40
0.8401700000000001
 50
90.093432999999976
 51
123.577958
  0
ARC
  5
F2
  8
0
 62
     7
 10
152.18474900000001
 20
92.333930000000009
 30
0.0
 40
0.4944930000000001
 50
125.38767799999999
 51
148.773943
  0
ARC
  5
F3
  8
0
 62
     7
 10
151.16038
 20
92.035505000000001
 30
0.0
 40
0.8417569999999999
 50
56.454622000000001
 51
89.906396999999998
  0
ARC
  5
F4
  8
0
 62
     7
 10
151.34057899999999
 20
92.335611999999998
 30
0.0
 40
0.4923040000000001
 50
31.15149000000001
 51
54.632736999999999
  0
ARC
  5
F5
  8
0
 62
     7
 10
151.163127
 20
92.036299000000014
 30
0.0
 40
0.8409629999999999
 50
90.093507999999986
 51
123.56165
  0
ARC
  5
F6
  8
0
 62
     7
 10
150.98328799999999
 20
92.335808999999983
 30
0.0
 40
0.4922140000000001
 50
125.391969
 51
148.86889400000001
  0
LINE
  5
F7
  8
0
 62
     7
 10
152.762
 20
62.755200000000002
 30
0.0
 11
150.762
 21
62.755200000000002
 31
0.0
  0
LINE
  5
F8
  8
0
 62
     7
 10
152.762
 20
60.755000000000003
 30
0.0
 11
150.762
 21
60.755000000000003
 31
0.0
  0
LINE
  5
F9
  8
0
 62
     7
 10
150.286
 20
70.027500000000003
 30
0.0
 11
150.286
 21
68.676299999999998
 31
0.0
  0
LINE
  5
FA
  8
0
 62
     7
 10
150.286
 20
70.027500000000003
 30
0.0
 11
151.762
 21
70.027500000000003
 31
0.0
  0
LINE
  5
FB
  8
0
 62
     7
 10
150.505
 20
68.457599999999999
 30
0.0
 11
150.505
 21
66.676500000000004
 31
0.0
  0
LINE
  5
FC
  8
0
 62
     7
 10
150.505
 20
68.457599999999999
 30
0.0
 11
150.286
 21
68.676299999999998
 31
0.0
  0
LINE
  5
FD
  8
0
 62
     7
 10
151.369
 20
68.457599999999999
 30
0.0
 11
151.369
 21
66.676500000000004
 31
0.0
  0
LINE
  5
FE
  8
0
 62
     7
 10
151.05600000000001
 20
68.457599999999999
 30
0.0
 11
151.05600000000001
 21
66.676500000000004
 31
0.0
  0
LINE
  5
FF
  8
0
 62
     7
 10
151.05600000000001
 20
68.457599999999999
 30
0.0
 11
150.505
 21
68.457599999999999
 31
0.0
  0
LINE
  5
100
  8
0
 62
     7
 10
151.762
 20
68.457599999999999
 30
0.0
 11
151.369
 21
68.457599999999999
 31
0.0
  0
ARC
  5
101
  8
0
 62
     7
 10
150.518361
 20
66.329712999999998
 30
0.0
 40
0.374912
 50
182.18688599999999
 51
267.92259200000001
  0
ARC
  5
102
  8
0
 62
     7
 10
150.51880700000001
 20
66.301371000000003
 30
0.0
 40
0.375347
 50
92.143049000000005
 51
177.856921
  0
LINE
  5
103
  8
0
 62
     7
 10
151.05600000000001
 20
66.676500000000004
 30
0.0
 11
150.505
 21
66.676500000000004
 31
0.0
  0
LINE
  5
104
  8
0
 62
     7
 10
151.762
 20
66.676500000000004
 30
0.0
 11
151.369
 21
66.676500000000004
 31
0.0
  0
LINE
  5
105
  8
0
 62
     7
 10
150.762
 20
60.755000000000003
 30
0.0
 11
150.762
 21
65.954999999999998
 31
0.0
  0
LINE
  5
106
  8
0
 62
     7
 10
151.762
 20
65.954999999999998
 30
0.0
 11
150.505
 21
65.954999999999998
 31
0.0
  0
LINE
  5
107
  8
0
 62
     7
 10
153.238
 20
70.027500000000003
 30
0.0
 11
153.238
 21
68.676299999999998
 31
0.0
  0
LINE
  5
108
  8
0
 62
     7
 10
153.238
 20
70.027500000000003
 30
0.0
 11
151.762
 21
70.027500000000003
 31
0.0
  0
LINE
  5
109
  8
0
 62
     7
 10
153.01900000000001
 20
68.457599999999999
 30
0.0
 11
153.01900000000001
 21
66.676500000000004
 31
0.0
  0
LINE
  5
10A
  8
0
 62
     7
 10
153.01900000000001
 20
68.457599999999999
 30
0.0
 11
153.238
 21
68.676299999999998
 31
0.0
  0
LINE
  5
10B
  8
0
 62
     7
 10
152.155
 20
68.457599999999999
 30
0.0
 11
152.155
 21
66.676500000000004
 31
0.0
  0
LINE
  5
10C
  8
0
 62
     7
 10
152.46700000000001
 20
68.457599999999999
 30
0.0
 11
152.46700000000001
 21
66.676500000000004
 31
0.0
  0
LINE
  5
10D
  8
0
 62
     7
 10
152.46700000000001
 20
68.457599999999999
 30
0.0
 11
153.01900000000001
 21
68.457599999999999
 31
0.0
  0
LINE
  5
10E
  8
0
 62
     7
 10
151.762
 20
68.457599999999999
 30
0.0
 11
152.155
 21
68.457599999999999
 31
0.0
  0
ARC
  5
10F
  8
0
 62
     7
 10
153.00572299999999
 20
66.301767999999996
 30
0.0
 40
0.374936
 50
2.0847329999999999
 51
87.915256999999997
  0
ARC
  5
110
  8
0
 62
     7
 10
153.00600800000001
 20
66.329476
 30
0.0
 40
0.374667
 50
272.04263600000002
 51
357.84792700000003
  0
LINE
  5
111
  8
0
 62
     7
 10
152.46700000000001
 20
66.676500000000004
 30
0.0
 11
153.01900000000001
 21
66.676500000000004
 31
0.0
  0
LINE
  5
112
  8
0
 62
     7
 10
151.762
 20
66.676500000000004
 30
0.0
 11
152.155
 21
66.676500000000004
 31
0.0
  0
LINE
  5
113
  8
0
 62
     7
 10
152.762
 20
60.755000000000003
 30
0.0
 11
152.762
 21
65.954999999999998
 31
0.0
  0
LINE
  5
114
  8
0
 62
     7
 10
151.762
 20
65.954999999999998
 30
0.0
 11
153.01900000000001
 21
65.954999999999998
 31
0.0
  0
LINE
  5
115
  8
0
 62
     7
 10
152.96199999999999
 20
70.027900000000002
 30
0.0
 11
152.96199999999999
 21
92.590299999999999
 31
0.0
  0
LINE
  5
116
  8
0
 62
     7
 10
150.56200000000001
 20
70.027900000000002
 30
0.0
 11
150.56200000000001
 21
92.590299999999999
 31
0.0
  0
LINE
  5
117
  8
0
  6
AIGENLINE001
 62
     7
 10
151.762
 20
124.75700000000001
 30
0.0
 11
151.762
 21
59.603999999999992
 31
0.0
  0
LINE
  5
118
  8
0
 62
     7
 10
152.96199999999999
 20
94.072000000000017
 30
0.0
 11
152.96199999999999
 21
117.684
 31
0.0
  0
LINE
  5
119
  8
0
 62
     7
 10
150.56200000000001
 20
94.072000000000017
 30
0.0
 11
150.56200000000001
 21
117.684
 31
0.0
  0
ARC
  5
11A
  8
0
 62
     7
 10
151.16107400000001
 20
93.519897999999998
 30
0.0
 40
0.8394530000000001
 50
56.39664299999999
 51
89.906502000000003
  0
ARC
  5
11B
  8
0
 62
     7
 10
151.340934
 20
93.818641999999997
 30
0.0
 40
0.491337
 50
31.04467
 51
54.584913999999998
  0
ARC
  5
11C
  8
0
 62
     7
 10
151.16381999999999
 20
93.517808000000002
 30
0.0
 40
0.841544
 50
90.093676000000016
 51
123.56034200000001
  0
ARC
  5
11D
  8
0
 62
     7
 10
150.9803729999999
 20
93.822176999999996
 30
0.0
 40
0.4867430000000001
 50
125.372544
 51
149.11532600000001
  0
ARC
  5
11E
  8
0
 62
     7
 10
151.16381899999999
 20
94.627020999999985
 30
0.0
 40
0.8419729999999999
 50
236.459082
 51
269.90639599999997
  0
ARC
  5
11F
  8
0
 62
     7
 10
150.980864
 20
94.323031
 30
0.0
 40
0.4877570000000001
 50
210.971328
 51
234.64126899999999
  0
ARC
  5
120
  8
0
 62
     7
 10
151.16107400000001
 20
94.624930000000006
 30
0.0
 40
0.839882
 50
270.09342600000002
 51
303.583911
  0
ARC
  5
121
  8
0
 62
     7
 10
151.340428
 20
94.326587000000004
 30
0.0
 40
0.4923760000000001
 50
305.40129899999999
 51
328.86863399999999
  0
ARC
  5
122
  8
0
 62
     7
 10
152.36374499999999
 20
94.627347999999984
 30
0.0
 40
0.8423000000000001
 50
236.46578400000001
 51
269.90705800000001
  0
ARC
  5
123
  8
0
 62
     7
 10
152.184472
 20
94.328206999999978
 30
0.0
 40
0.494166
 50
211.22548699999999
 51
234.63091900000001
  0
ARC
  5
124
  8
0
 62
     7
 10
152.361008
 20
94.625218000000004
 30
0.0
 40
0.8401700000000001
 50
270.09345300000001
 51
303.57797799999997
  0
ARC
  5
125
  8
0
 62
     7
 10
152.53931800000001
 20
94.328380000000024
 30
0.0
 40
0.4944930000000001
 50
305.387697
 51
328.77396299999998
  0
LINE
  5
126
  8
0
 62
     7
 10
120.67100000000001
 20
145.76499999999999
 30
0.0
 11
122.952
 21
145.952
 31
0.0
  0
LINE
  5
127
  8
0
 62
     7
 10
122.952
 20
145.952
 30
0.0
 11
120.883
 21
146.93000000000001
 31
0.0
  0
LINE
  5
128
  8
0
 62
     7
 10
120.883
 20
146.93000000000001
 30
0.0
 11
120.67100000000001
 21
145.76499999999999
 31
0.0
  0
ARC
  5
129
  8
0
 62
     7
 10
128.15027000000001
 20
171.58695599999999
 30
0.0
 40
26.096608
 50
250.17568
 51
251.17833999999999
  0
ARC
  5
12A
  8
0
 62
     7
 10
132.61879300000001
 20
184.61346399999999
 30
0.0
 40
39.868214999999999
 50
251.13965400000001
 51
255.15053399999999
  0
ARC
  5
12B
  8
0
 62
     7
 10
124.736508
 20
155.10663
 30
0.0
 40
9.3269350000000006
 50
255.500742
 51
258.968166
  0
ARC
  5
12C
  8
0
 62
     7
 10
124.373536
 20
153.774193
 30
0.0
 40
7.9503079999999997
 50
259.69820299999998
 51
269.93312100000003
  0
LINE
  5
12D
  8
0
 62
     7
 10
126.575
 20
146.40899999999999
 30
0.0
 11
124.364
 21
145.81899999999999
 31
0.0
  0
LINE
  5
12E
  8
0
 62
     7
 10
124.364
 20
145.81899999999999
 30
0.0
 11
126.574
 21
145.22399999999999
 31
0.0
  0
LINE
  5
12F
  8
0
 62
     7
 10
126.574
 20
145.22399999999999
 30
0.0
 11
126.575
 21
146.40899999999999
 31
0.0
  0
ARC
  5
130
  8
0
 62
     7
 10
124.367743
 20
150.682331
 30
0.0
 40
4.8584420000000001
 50
269.95886899999999
 51
272.44289199999997
  0
ARC
  5
131
  8
0
 62
     7
 10
124.20527
 20
154.880214
 30
0.0
 40
9.05945
 50
272.33788800000002
 51
274.52889399999998
  0
ARC
  5
132
  8
0
 62
     7
 10
123.68922999999999
 20
161.39546100000001
 30
0.0
 40
15.595102000000001
 50
274.52879999999999
 51
277.94653799999998
  0
ARC
  5
133
  8
0
 62
     7
 10
123.21078799999999
 20
165.32431
 30
0.0
 40
19.552492000000001
 50
277.74343199999998
 51
283.64435400000002
  0
ARC
  5
134
  8
0
 62
     7
 10
125.157184
 20
157.03494599999999
 30
0.0
 40
11.038105
 50
283.97628700000001
 51
287.90444200000002
  0
ARC
  5
135
  8
0
 62
     7
 10
126.634235
 20
152.41041899999999
 30
0.0
 40
6.1834720000000001
 50
288.05456600000002
 51
293.19145900000001
  0
ARC
  5
136
  8
0
 62
     7
 10
127.68296100000001
 20
149.91325800000001
 30
0.0
 40
3.4751569999999989
 50
293.511504
 51
297.25808699999999
  0
LINE
  5
137
  8
0
 62
     7
 10
124.02500000000001
 20
151.87700000000001
 30
0.0
 11
122.869
 21
145.49100000000001
 31
0.0
  0
LINE
  5
138
  8
0
  6
AIGENLINE001
 62
     7
 10
124.81399999999999
 20
156.24299999999999
 30
0.0
 11
124.02500000000001
 21
151.87700000000001
 31
0.0
  0
LINE
  5
139
  8
0
 62
     7
 10
124.364
 20
145.35599999999999
 30
0.0
 11
124.364
 21
176.79400000000001
 31
0.0
  0
LINE
  5
13A
  8
0
 62
     7
 10
122.913
 20
156.46299999999999
 30
0.0
 11
126.663
 21
155.785
 31
0.0
  0
LINE
  5
13B
  8
0
 62
     7
 10
155.465
 20
154.83500000000001
 30
0.0
 11
159.91900000000001
 21
154.83500000000001
 31
0.0
  0
LINE
  5
13C
  8
0
 62
     7
 10
157.67500000000001
 20
155.4199999999999
 30
0.0
 11
155.465
 21
154.827
 31
0.0
  0
LINE
  5
13D
  8
0
 62
     7
 10
155.465
 20
154.827
 30
0.0
 11
157.67500000000001
 21
154.23500000000001
 31
0.0
  0
LINE
  5
13E
  8
0
 62
     7
 10
157.67500000000001
 20
154.23500000000001
 30
0.0
 11
157.67500000000001
 21
155.4199999999999
 31
0.0
  0
LINE
  5
13F
  8
0
 62
     7
 10
143.15899999999999
 20
154.83500000000001
 30
0.0
 11
151.66499999999999
 21
154.83500000000001
 31
0.0
  0
LINE
  5
140
  8
0
 62
     7
 10
155.465
 20
154.83500000000001
 30
0.0
 11
151.66499999999999
 21
154.83500000000001
 31
0.0
  0
LINE
  5
141
  8
0
  6
AIGENLINE002
 62
     7
 10
144.59
 20
143.00899999999999
 30
0.0
 11
145.03700000000001
 21
144.33500000000001
 31
0.0
  0
LINE
  5
142
  8
0
  6
AIGENLINE002
 62
     7
 10
149.77500000000001
 20
142.73500000000001
 30
0.0
 11
145.03700000000001
 21
144.33500000000001
 31
0.0
  0
LINE
  5
143
  8
0
  6
AIGENLINE002
 62
     7
 10
148.083
 20
141.82900000000001
 30
0.0
 11
144.59
 21
143.00899999999999
 31
0.0
  0
LINE
  5
144
  8
0
 62
     7
 10
144.56399999999999
 20
140.05500000000001
 30
0.0
 11
144.56399999999999
 21
141.45500000000001
 31
0.0
  0
LINE
  5
145
  8
0
 62
     7
 10
149.565
 20
141.45500000000001
 30
0.0
 11
144.56399999999999
 21
141.45500000000001
 31
0.0
  0
LINE
  5
146
  8
0
 62
     7
 10
149.565
 20
140.05500000000001
 30
0.0
 11
144.56399999999999
 21
140.05500000000001
 31
0.0
  0
LINE
  5
147
  8
0
 62
     7
 10
149.565
 20
141.756
 30
0.0
 11
157.56399999999999
 21
141.756
 31
0.0
  0
LINE
  5
148
  8
0
 62
     7
 10
157.56399999999999
 20
134.155
 30
0.0
 11
157.56399999999999
 21
141.756
 31
0.0
  0
LINE
  5
149
  8
0
 62
     7
 10
147.56399999999999
 20
133.756
 30
0.0
 11
159.56399999999999
 21
133.756
 31
0.0
  0
LINE
  5
14A
  8
0
 62
     7
 10
150.06399999999999
 20
133.756
 30
0.0
 11
150.06399999999999
 21
134.155
 31
0.0
  0
LINE
  5
14B
  8
0
 62
     7
 10
147.56399999999999
 20
132.756
 30
0.0
 11
147.56399999999999
 21
133.756
 31
0.0
  0
LINE
  5
14C
  8
0
 62
     7
 10
159.56399999999999
 20
132.756
 30
0.0
 11
159.56399999999999
 21
133.756
 31
0.0
  0
LINE
  5
14D
  8
0
 62
     7
 10
149.565
 20
134.155
 30
0.0
 11
157.56399999999999
 21
134.155
 31
0.0
  0
LINE
  5
14E
  8
0
 62
     7
 10
147.56399999999999
 20
132.756
 30
0.0
 11
159.56399999999999
 21
132.756
 31
0.0
  0
LINE
  5
14F
  8
0
 62
     7
 10
149.565
 20
134.155
 30
0.0
 11
149.565
 21
141.756
 31
0.0
  0
LINE
  5
150
  8
0
 62
     7
 10
157.065
 20
133.756
 30
0.0
 11
157.065
 21
134.155
 31
0.0
  0
ARC
  5
151
  8
0
 62
     7
 10
139.78118499999999
 20
153.61440300000001
 30
0.0
 40
11.883646000000001
 50
0.222243
 51
41.163460999999998
  0
ARC
  5
152
  8
0
 62
     7
 10
138.93727000000001
 20
152.8894949999999
 30
0.0
 40
12.996119999999999
 50
41.120530999999993
 51
89.361288000000002
  0
ARC
  5
153
  8
0
 62
     7
 10
139.164466
 20
152.706064
 30
0.0
 40
13.179001
 50
90.357903000000022
 51
138.23773399999999
  0
ARC
  5
154
  8
0
 62
     7
 10
138.160921
 20
153.85201499999999
 30
0.0
 40
11.668678999999999
 50
139.152939
 51
167.37304900000001
  0
ARC
  5
155
  8
0
 62
     7
 10
139.72559200000001
 20
153.59563399999999
 30
0.0
 40
15.739248
 50
0.236126
 51
42.106731000000003
  0
ARC
  5
156
  8
0
 62
     7
 10
138.912746
 20
152.838142
 30
0.0
 40
16.850214000000001
 50
42.164388000000002
 51
89.432189000000008
  0
ARC
  5
157
  8
0
 62
     7
 10
139.31201899999999
 20
152.69291000000001
 30
0.0
 40
16.996205
 50
90.783086999999995
 51
152.67828499999999
  0
ARC
  5
158
  8
0
 62
     7
 10
137.90949000000001
 20
153.821269
 30
0.0
 40
15.236461
 50
154.02743599999999
 51
167.73736599999989
  0
ARC
  5
159
  8
0
  6
AIGENLINE001
 62
     7
 10
139.757373
 20
153.60862299999999
 30
0.0
 40
13.807104000000001
 50
0.215269
 51
40.917219999999993
  0
ARC
  5
15A
  8
0
  6
AIGENLINE001
 62
     7
 10
138.91140899999999
 20
152.85992400000001
 30
0.0
 40
14.93674
 50
40.962024
 51
89.388683000000015
  0
ARC
  5
15B
  8
0
  6
AIGENLINE001
 62
     7
 10
139.27051
 20
152.80561700000001
 30
0.0
 40
14.991529
 50
90.763389000000004
 51
152.208201
  0
ARC
  5
15C
  8
0
  6
AIGENLINE001
 62
     7
 10
138.07503399999999
 20
153.76271399999999
 30
0.0
 40
13.4908
 50
153.436924
 51
169.406057
  0
LINE
  5
15D
  8
0
 62
     7
 10
122.502
 20
154.09299999999999
 30
0.0
 11
126.24299999999999
 21
153.416
 31
0.0
  0
LINE
  5
15E
  8
0
 62
     7
 10
123.021
 20
157.05699999999999
 30
0.0
 11
122.502
 21
154.09299999999999
 31
0.0
  0
LINE
  5
15F
  8
0
 62
     7
 10
126.774
 20
156.40299999999999
 30
0.0
 11
126.24299999999999
 21
153.416
 31
0.0
  0
LINE
  5
160
  8
0
 62
     7
 10
126.575
 20
176.64699999999999
 30
0.0
 11
124.364
 21
176.05500000000001
 31
0.0
  0
LINE
  5
161
  8
0
 62
     7
 10
124.364
 20
176.05500000000001
 30
0.0
 11
126.575
 21
175.46299999999999
 31
0.0
  0
LINE
  5
162
  8
0
 62
     7
 10
126.575
 20
175.46299999999999
 30
0.0
 11
126.575
 21
176.64699999999999
 31
0.0
  0
LINE
  5
163
  8
0
 62
     7
 10
151.35400000000001
 20
175.477
 30
0.0
 11
153.56399999999999
 21
176.06999999999999
 31
0.0
  0
LINE
  5
164
  8
0
 62
     7
 10
153.56399999999999
 20
176.06999999999999
 30
0.0
 11
151.35400000000001
 21
176.66200000000001
 31
0.0
  0
LINE
  5
165
  8
0
 62
     7
 10
151.35400000000001
 20
176.66200000000001
 30
0.0
 11
151.35400000000001
 21
175.477
 31
0.0
  0
LINE
  5
166
  8
0
 62
     7
 10
124.364
 20
176.06200000000001
 30
0.0
 11
153.56399999999999
 21
176.06200000000001
 31
0.0
  0
LINE
  5
167
  8
0
 62
     7
 10
166.97999999999999
 20
134.96700000000001
 30
0.0
 11
167.572
 21
132.756
 31
0.0
  0
LINE
  5
168
  8
0
 62
     7
 10
167.572
 20
132.756
 30
0.0
 11
168.16399999999999
 21
134.96700000000001
 31
0.0
  0
LINE
  5
169
  8
0
 62
     7
 10
168.16399999999999
 20
134.96700000000001
 30
0.0
 11
166.97999999999999
 21
134.96700000000001
 31
0.0
  0
LINE
  5
16A
  8
0
 62
     7
 10
168.15000000000001
 20
167.54499999999999
 30
0.0
 11
167.55699999999999
 21
169.756
 31
0.0
  0
LINE
  5
16B
  8
0
 62
     7
 10
167.55699999999999
 20
169.756
 30
0.0
 11
166.965
 21
167.54499999999999
 31
0.0
  0
LINE
  5
16C
  8
0
 62
     7
 10
166.965
 20
167.54499999999999
 30
0.0
 11
168.15000000000001
 21
167.54499999999999
 31
0.0
  0
LINE
  5
16D
  8
0
 62
     7
 10
167.565
 20
132.756
 30
0.0
 11
167.565
 21
169.756
 31
0.0
  0
LINE
  5
16E
  8
0
 62
     7
 10
153.56399999999999
 20
177.14699999999999
 30
0.0
 11
153.56399999999999
 21
153.66
 31
0.0
  0
LINE
  5
16F
  8
0
 62
     7
 10
135.059
 20
134.96700000000001
 30
0.0
 11
135.65100000000001
 21
132.756
 31
0.0
  0
LINE
  5
170
  8
0
 62
     7
 10
135.65100000000001
 20
132.756
 30
0.0
 11
136.24299999999999
 21
134.96700000000001
 31
0.0
  0
LINE
  5
171
  8
0
 62
     7
 10
136.24299999999999
 20
134.96700000000001
 30
0.0
 11
135.059
 21
134.96700000000001
 31
0.0
  0
LINE
  5
172
  8
0
 62
     7
 10
136.22900000000001
 20
151.20599999999999
 30
0.0
 11
135.637
 21
153.416
 31
0.0
  0
LINE
  5
173
  8
0
 62
     7
 10
135.637
 20
153.416
 30
0.0
 11
135.04400000000001
 21
151.20599999999999
 31
0.0
  0
LINE
  5
174
  8
0
 62
     7
 10
135.04400000000001
 20
151.20599999999999
 30
0.0
 11
136.22900000000001
 21
151.20599999999999
 31
0.0
  0
LINE
  5
175
  8
0
 62
     7
 10
135.64400000000001
 20
132.756
 30
0.0
 11
135.64400000000001
 21
153.417
 31
0.0
  0
LINE
  5
176
  8
0
 62
     7
 10
115.667
 20
134.96700000000001
 30
0.0
 11
116.26000000000001
 21
132.756
 31
0.0
  0
LINE
  5
177
  8
0
 62
     7
 10
116.26000000000001
 20
132.756
 30
0.0
 11
116.852
 21
134.96700000000001
 31
0.0
  0
LINE
  5
178
  8
0
 62
     7
 10
116.852
 20
134.96700000000001
 30
0.0
 11
115.667
 21
134.96700000000001
 31
0.0
  0
LINE
  5
179
  8
0
 62
     7
 10
116.837
 20
151.54499999999999
 30
0.0
 11
116.245
 21
153.756
 31
0.0
  0
LINE
  5
17A
  8
0
 62
     7
 10
116.245
 20
153.756
 30
0.0
 11
115.65300000000001
 21
151.54499999999999
 31
0.0
  0
LINE
  5
17B
  8
0
 62
     7
 10
115.65300000000001
 20
151.54499999999999
 30
0.0
 11
116.837
 21
151.54499999999999
 31
0.0
  0
LINE
  5
17C
  8
0
 62
     7
 10
116.252
 20
132.756
 30
0.0
 11
116.252
 21
153.756
 31
0.0
  0
LINE
  5
17D
  8
0
 62
     7
 10
155.465
 20
141.756
 30
0.0
 11
155.465
 21
153.66
 31
0.0
  0
LINE
  5
17E
  8
0
 62
     7
 10
151.66499999999999
 20
141.755
 30
0.0
 11
151.66499999999999
 21
153.66
 31
0.0
  0
LINE
  5
17F
  8
0
  6
AIGENLINE001
 62
     7
 10
153.56399999999999
 20
119.84999999999999
 30
0.0
 11
153.56399999999999
 21
153.66
 31
0.0
  0
LINE
  5
180
  8
0
 62
     7
 10
168.36500000000001
 20
169.756
 30
0.0
 11
143.53700000000001
 21
169.756
 31
0.0
  0
LINE
  5
181
  8
0
 62
     7
 10
126.943
 20
153.416
 30
0.0
 11
136.428
 21
153.416
 31
0.0
  0
LINE
  5
182
  8
0
 62
     7
 10
115.303
 20
153.756
 30
0.0
 11
121.88800000000001
 21
153.756
 31
0.0
  0
LINE
  5
183
  8
0
 62
     7
 10
160.66
 20
132.756
 30
0.0
 11
168.44799999999989
 21
132.756
 31
0.0
  0
LINE
  5
184
  8
0
 62
     7
 10
115.121
 20
132.756
 30
0.0
 11
146.69900000000001
 21
132.756
 31
0.0
  0
LINE
  5
185
  8
0
 62
     7
 10
82.012900000000002
 20
54.386000000000003
 30
0.0
 11
89.279700000000005
 21
54.386000000000003
 31
0.0
  0
LINE
  5
186
  8
0
 62
     7
 10
84.223600000000005
 20
54.970999999999997
 30
0.0
 11
82.012900000000002
 21
54.378799999999991
 31
0.0
  0
LINE
  5
187
  8
0
 62
     7
 10
82.012900000000002
 20
54.378799999999991
 30
0.0
 11
84.223600000000005
 21
53.786499999999997
 31
0.0
  0
LINE
  5
188
  8
0
 62
     7
 10
84.223600000000005
 20
53.786499999999997
 30
0.0
 11
84.223600000000005
 21
54.970999999999997
 31
0.0
  0
LINE
  5
189
  8
0
 62
     7
 10
77.801900000000003
 20
53.801000000000002
 30
0.0
 11
80.012699999999995
 21
54.3932
 31
0.0
  0
LINE
  5
18A
  8
0
 62
     7
 10
80.012699999999995
 20
54.3932
 30
0.0
 11
77.801900000000003
 21
54.985399999999998
 31
0.0
  0
LINE
  5
18B
  8
0
 62
     7
 10
77.801900000000003
 20
54.985399999999998
 30
0.0
 11
77.801900000000003
 21
53.801000000000002
 31
0.0
  0
LINE
  5
18C
  8
0
 62
     7
 10
76.325699999999998
 20
54.386000000000003
 30
0.0
 11
80.012699999999995
 21
54.386000000000003
 31
0.0
  0
LINE
  5
18D
  8
0
 62
     7
 10
80.012699999999995
 20
53.585999999999999
 30
0.0
 11
80.012699999999995
 21
60.054900000000004
 31
0.0
  0
LINE
  5
18E
  8
0
 62
     7
 10
82.012900000000002
 20
53.585999999999999
 30
0.0
 11
82.012900000000002
 21
60.054900000000004
 31
0.0
  0
LINE
  5
18F
  8
0
 62
     7
 10
82.012900000000002
 20
54.386000000000003
 30
0.0
 11
80.012699999999995
 21
54.386000000000003
 31
0.0
  0
LINE
  5
190
  8
0
 62
     7
 10
83.985900000000001
 20
121.756
 30
0.0
 11
95.189099999999996
 21
121.756
 31
0.0
  0
LINE
  5
191
  8
0
 62
     7
 10
69.404799999999994
 20
127.756
 30
0.0
 11
73.200000000000003
 21
127.756
 31
0.0
  0
LINE
  5
192
  8
0
 62
     7
 10
93.896500000000003
 20
123.967
 30
0.0
 11
94.489099999999993
 21
121.756
 31
0.0
  0
LINE
  5
193
  8
0
 62
     7
 10
94.489099999999993
 20
121.756
 30
0.0
 11
95.080900000000014
 21
123.967
 31
0.0
  0
LINE
  5
194
  8
0
 62
     7
 10
95.080900000000014
 20
123.967
 30
0.0
 11
93.896500000000003
 21
123.967
 31
0.0
  0
LINE
  5
195
  8
0
 62
     7
 10
70.489999999999995
 20
130.53399999999999
 30
0.0
 11
69.897499999999994
 21
132.745
 31
0.0
  0
LINE
  5
196
  8
0
 62
     7
 10
69.897499999999994
 20
132.745
 30
0.0
 11
69.305300000000003
 21
130.53399999999999
 31
0.0
  0
LINE
  5
197
  8
0
 62
     7
 10
69.305300000000003
 20
130.53399999999999
 30
0.0
 11
70.489999999999995
 21
130.53399999999999
 31
0.0
  0
LINE
  5
198
  8
0
 62
     7
 10
69.320099999999996
 20
129.96700000000001
 30
0.0
 11
69.911900000000003
 21
127.756
 31
0.0
  0
LINE
  5
199
  8
0
 62
     7
 10
69.911900000000003
 20
127.756
 30
0.0
 11
70.504499999999993
 21
129.96700000000001
 31
0.0
  0
LINE
  5
19A
  8
0
 62
     7
 10
70.504499999999993
 20
129.96700000000001
 30
0.0
 11
69.320099999999996
 21
129.96700000000001
 31
0.0
  0
LINE
  5
19B
  8
0
 62
     7
 10
69.897499999999994
 20
132.74600000000001
 30
0.0
 11
69.897499999999994
 21
127.756
 31
0.0
  0
LINE
  5
19C
  8
0
 62
     7
 10
69.547399999999996
 20
132.756
 30
0.0
 11
72.776899999999983
 21
132.756
 31
0.0
  0
LINE
  5
19D
  8
0
 62
     7
 10
83.211100000000002
 20
132.392
 30
0.0
 11
83.010599999999997
 21
132.19200000000001
 31
0.0
  0
LINE
  5
19E
  8
0
 62
     7
 10
75.211200000000005
 20
132.392
 30
0.0
 11
75.411000000000001
 21
132.19200000000001
 31
0.0
  0
LINE
  5
19F
  8
0
 62
     7
 10
75.211200000000005
 20
121.956
 30
0.0
 11
75.411000000000001
 21
121.756
 31
0.0
  0
LINE
  5
1A0
  8
0
 62
     7
 10
83.010599999999997
 20
121.756
 30
0.0
 11
83.211100000000002
 21
121.956
 31
0.0
  0
LINE
  5
1A1
  8
0
 62
     7
 10
75.211200000000005
 20
121.956
 30
0.0
 11
75.211200000000005
 21
125.256
 31
0.0
  0
LINE
  5
1A2
  8
0
 62
     7
 10
83.211100000000002
 20
121.956
 30
0.0
 11
83.211100000000002
 21
125.256
 31
0.0
  0
LINE
  5
1A3
  8
0
 62
     7
 10
83.211100000000002
 20
121.956
 30
0.0
 11
75.211200000000005
 21
121.956
 31
0.0
  0
LINE
  5
1A4
  8
0
 62
     7
 10
83.010599999999997
 20
121.756
 30
0.0
 11
75.411000000000001
 21
121.756
 31
0.0
  0
LINE
  5
1A5
  8
0
 62
     7
 10
83.010599999999997
 20
125.256
 30
0.0
 11
83.010599999999997
 21
121.756
 31
0.0
  0
LINE
  5
1A6
  8
0
 62
     7
 10
73.735799999999998
 20
124.256
 30
0.0
 11
73.735799999999998
 21
125.256
 31
0.0
  0
LINE
  5
1A7
  8
0
 62
     7
 10
74.736299999999986
 20
124.256
 30
0.0
 11
74.736299999999986
 21
125.256
 31
0.0
  0
LINE
  5
1A8
  8
0
 62
     7
 10
73.735799999999998
 20
126.256
 30
0.0
 11
73.735799999999998
 21
127.256
 31
0.0
  0
LINE
  5
1A9
  8
0
 62
     7
 10
74.736299999999986
 20
126.256
 30
0.0
 11
74.736299999999986
 21
127.256
 31
0.0
  0
LINE
  5
1AA
  8
0
  6
AIGENLINE001
 62
     7
 10
74.236099999999993
 20
122.41800000000001
 30
0.0
 11
74.236099999999993
 21
128.57400000000001
 31
0.0
  0
LINE
  5
1AB
  8
0
 62
     7
 10
73.396199999999993
 20
123.256
 30
0.0
 11
73.396199999999993
 21
124.256
 31
0.0
  0
LINE
  5
1AC
  8
0
 62
     7
 10
73.396199999999993
 20
124.256
 30
0.0
 11
75.075999999999993
 21
124.256
 31
0.0
  0
LINE
  5
1AD
  8
0
 62
     7
 10
75.075999999999993
 20
124.256
 30
0.0
 11
75.075999999999993
 21
123.256
 31
0.0
  0
LINE
  5
1AE
  8
0
 62
     7
 10
75.075999999999993
 20
123.256
 30
0.0
 11
73.396199999999993
 21
123.256
 31
0.0
  0
LINE
  5
1AF
  8
0
 62
     7
 10
83.7363
 20
124.256
 30
0.0
 11
83.7363
 21
125.256
 31
0.0
  0
LINE
  5
1B0
  8
0
 62
     7
 10
84.736099999999979
 20
124.256
 30
0.0
 11
84.736099999999979
 21
125.256
 31
0.0
  0
LINE
  5
1B1
  8
0
 62
     7
 10
83.7363
 20
126.256
 30
0.0
 11
83.7363
 21
127.256
 31
0.0
  0
LINE
  5
1B2
  8
0
 62
     7
 10
84.736099999999979
 20
126.256
 30
0.0
 11
84.736099999999979
 21
127.256
 31
0.0
  0
LINE
  5
1B3
  8
0
  6
AIGENLINE001
 62
     7
 10
84.235900000000001
 20
122.41800000000001
 30
0.0
 11
84.235900000000001
 21
128.57400000000001
 31
0.0
  0
LINE
  5
1B4
  8
0
 62
     7
 10
83.010599999999997
 20
132.19200000000001
 30
0.0
 11
83.010599999999997
 21
127.756
 31
0.0
  0
LINE
  5
1B5
  8
0
 62
     7
 10
83.211100000000002
 20
127.756
 30
0.0
 11
83.211100000000002
 21
132.756
 31
0.0
  0
LINE
  5
1B6
  8
0
 62
     7
 10
75.411000000000001
 20
132.19200000000001
 30
0.0
 11
75.411000000000001
 21
127.756
 31
0.0
  0
LINE
  5
1B7
  8
0
 62
     7
 10
75.211200000000005
 20
127.756
 30
0.0
 11
75.211200000000005
 21
132.756
 31
0.0
  0
LINE
  5
1B8
  8
0
 62
     7
 10
83.010599999999997
 20
127.256
 30
0.0
 11
83.010599999999997
 21
126.256
 31
0.0
  0
LINE
  5
1B9
  8
0
 62
     7
 10
83.211100000000002
 20
126.256
 30
0.0
 11
83.211100000000002
 21
127.256
 31
0.0
  0
LINE
  5
1BA
  8
0
 62
     7
 10
75.411000000000001
 20
127.256
 30
0.0
 11
75.411000000000001
 21
126.256
 31
0.0
  0
LINE
  5
1BB
  8
0
 62
     7
 10
75.211200000000005
 20
126.256
 30
0.0
 11
75.211200000000005
 21
127.256
 31
0.0
  0
LINE
  5
1BC
  8
0
 62
     7
 10
75.411000000000001
 20
125.256
 30
0.0
 11
75.411000000000001
 21
121.756
 31
0.0
  0
LINE
  5
1BD
  8
0
 62
     7
 10
83.396000000000001
 20
123.256
 30
0.0
 11
83.396000000000001
 21
124.256
 31
0.0
  0
LINE
  5
1BE
  8
0
 62
     7
 10
83.396000000000001
 20
124.256
 30
0.0
 11
85.076499999999996
 21
124.256
 31
0.0
  0
LINE
  5
1BF
  8
0
 62
     7
 10
85.076499999999996
 20
124.256
 30
0.0
 11
85.076499999999996
 21
123.256
 31
0.0
  0
LINE
  5
1C0
  8
0
 62
     7
 10
85.076499999999996
 20
123.256
 30
0.0
 11
83.396000000000001
 21
123.256
 31
0.0
  0
LINE
  5
1C1
  8
0
 62
     7
 10
73.235799999999983
 20
125.256
 30
0.0
 11
73.235799999999983
 21
126.256
 31
0.0
  0
LINE
  5
1C2
  8
0
 62
     7
 10
73.235799999999983
 20
126.256
 30
0.0
 11
85.236199999999997
 21
126.256
 31
0.0
  0
LINE
  5
1C3
  8
0
 62
     7
 10
85.236199999999997
 20
126.256
 30
0.0
 11
85.236199999999997
 21
125.256
 31
0.0
  0
LINE
  5
1C4
  8
0
 62
     7
 10
85.236199999999997
 20
125.256
 30
0.0
 11
73.235799999999983
 21
125.256
 31
0.0
  0
LINE
  5
1C5
  8
0
 62
     7
 10
73.235799999999983
 20
127.256
 30
0.0
 11
73.235799999999983
 21
127.556
 31
0.0
  0
LINE
  5
1C6
  8
0
 62
     7
 10
73.235799999999983
 20
127.556
 30
0.0
 11
85.236199999999997
 21
127.556
 31
0.0
  0
LINE
  5
1C7
  8
0
 62
     7
 10
85.236199999999997
 20
127.556
 30
0.0
 11
85.236199999999997
 21
127.256
 31
0.0
  0
LINE
  5
1C8
  8
0
 62
     7
 10
85.236199999999997
 20
127.256
 30
0.0
 11
73.235799999999983
 21
127.256
 31
0.0
  0
LINE
  5
1C9
  8
0
 62
     7
 10
73.736000000000004
 20
127.556
 30
0.0
 11
73.736000000000004
 21
127.756
 31
0.0
  0
LINE
  5
1CA
  8
0
 62
     7
 10
73.736000000000004
 20
127.756
 30
0.0
 11
84.735899999999987
 21
127.756
 31
0.0
  0
LINE
  5
1CB
  8
0
 62
     7
 10
84.735899999999987
 20
127.756
 30
0.0
 11
84.735899999999987
 21
127.556
 31
0.0
  0
LINE
  5
1CC
  8
0
 62
     7
 10
84.735899999999987
 20
127.556
 30
0.0
 11
73.736000000000004
 21
127.556
 31
0.0
  0
LINE
  5
1CD
  8
0
 62
     7
 10
75.411000000000001
 20
132.19200000000001
 30
0.0
 11
83.010599999999997
 21
132.19200000000001
 31
0.0
  0
LINE
  5
1CE
  8
0
 62
     7
 10
37.56130000000001
 20
126.27800000000001
 30
0.0
 11
37.56130000000001
 21
127.27800000000001
 31
0.0
  0
LINE
  5
1CF
  8
0
 62
     7
 10
37.3611
 20
126.27800000000001
 30
0.0
 11
37.3611
 21
127.27800000000001
 31
0.0
  0
LINE
  5
1D0
  8
0
 62
     7
 10
37.56130000000001
 20
127.578
 30
0.0
 11
37.56130000000001
 21
132.55500000000001
 31
0.0
  0
LINE
  5
1D1
  8
0
 62
     7
 10
40.961199999999991
 20
126.27800000000001
 30
0.0
 11
40.961199999999991
 21
127.27800000000001
 31
0.0
  0
LINE
  5
1D2
  8
0
 62
     7
 10
41.16109999999999
 20
126.27800000000001
 30
0.0
 11
41.16109999999999
 21
127.27800000000001
 31
0.0
  0
LINE
  5
1D3
  8
0
 62
     7
 10
40.961199999999991
 20
127.578
 30
0.0
 11
40.961199999999991
 21
132.55500000000001
 31
0.0
  0
LINE
  5
1D4
  8
0
 62
     7
 10
37.3611
 20
127.578
 30
0.0
 11
37.3611
 21
132.55500000000001
 31
0.0
  0
LINE
  5
1D5
  8
0
 62
     7
 10
41.16109999999999
 20
127.578
 30
0.0
 11
41.16109999999999
 21
132.55500000000001
 31
0.0
  0
LINE
  5
1D6
  8
0
 62
     7
 10
37.3611
 20
122.627
 30
0.0
 11
37.3611
 21
125.279
 31
0.0
  0
LINE
  5
1D7
  8
0
 62
     7
 10
41.16109999999999
 20
122.627
 30
0.0
 11
41.16109999999999
 21
125.279
 31
0.0
  0
LINE
  5
1D8
  8
0
 62
     7
 10
40.961199999999991
 20
125.279
 30
0.0
 11
40.961199999999991
 21
122.627
 31
0.0
  0
LINE
  5
1D9
  8
0
 62
     7
 10
37.56130000000001
 20
125.279
 30
0.0
 11
37.56130000000001
 21
122.627
 31
0.0
  0
LINE
  5
1DA
  8
0
 62
     7
 10
35.535499999999999
 20
124.27800000000001
 30
0.0
 11
35.535499999999999
 21
125.27800000000001
 31
0.0
  0
LINE
  5
1DB
  8
0
 62
     7
 10
36.535600000000009
 20
124.27800000000001
 30
0.0
 11
36.535600000000009
 21
125.27800000000001
 31
0.0
  0
LINE
  5
1DC
  8
0
 62
     7
 10
35.535499999999999
 20
126.27800000000001
 30
0.0
 11
35.535499999999999
 21
127.27800000000001
 31
0.0
  0
LINE
  5
1DD
  8
0
 62
     7
 10
36.535600000000009
 20
126.27800000000001
 30
0.0
 11
36.535600000000009
 21
127.27800000000001
 31
0.0
  0
LINE
  5
1DE
  8
0
  6
AIGENLINE001
 62
     7
 10
36.035800000000002
 20
122.441
 30
0.0
 11
36.035800000000002
 21
128.596
 31
0.0
  0
LINE
  5
1DF
  8
0
 62
     7
 10
35.195799999999998
 20
123.27800000000001
 30
0.0
 11
35.195799999999998
 21
124.27800000000001
 31
0.0
  0
LINE
  5
1E0
  8
0
 62
     7
 10
35.195799999999998
 20
124.27800000000001
 30
0.0
 11
36.875700000000002
 21
124.27800000000001
 31
0.0
  0
LINE
  5
1E1
  8
0
 62
     7
 10
36.875700000000002
 20
124.27800000000001
 30
0.0
 11
36.875700000000002
 21
123.27800000000001
 31
0.0
  0
LINE
  5
1E2
  8
0
 62
     7
 10
36.875700000000002
 20
123.27800000000001
 30
0.0
 11
35.195799999999998
 21
123.27800000000001
 31
0.0
  0
LINE
  5
1E3
  8
0
 62
     7
 10
41.93589999999999
 20
124.27800000000001
 30
0.0
 11
41.93589999999999
 21
125.27800000000001
 31
0.0
  0
LINE
  5
1E4
  8
0
 62
     7
 10
42.935600000000001
 20
124.27800000000001
 30
0.0
 11
42.935600000000001
 21
125.27800000000001
 31
0.0
  0
LINE
  5
1E5
  8
0
 62
     7
 10
41.93589999999999
 20
126.27800000000001
 30
0.0
 11
41.93589999999999
 21
127.27800000000001
 31
0.0
  0
LINE
  5
1E6
  8
0
 62
     7
 10
42.935600000000001
 20
126.27800000000001
 30
0.0
 11
42.935600000000001
 21
127.27800000000001
 31
0.0
  0
LINE
  5
1E7
  8
0
  6
AIGENLINE001
 62
     7
 10
42.435699999999997
 20
122.441
 30
0.0
 11
42.435699999999997
 21
128.596
 31
0.0
  0
LINE
  5
1E8
  8
0
 62
     7
 10
41.595799999999997
 20
123.27800000000001
 30
0.0
 11
41.595799999999997
 21
124.27800000000001
 31
0.0
  0
LINE
  5
1E9
  8
0
 62
     7
 10
41.595799999999997
 20
124.27800000000001
 30
0.0
 11
43.275700000000001
 21
124.27800000000001
 31
0.0
  0
LINE
  5
1EA
  8
0
 62
     7
 10
43.275700000000001
 20
124.27800000000001
 30
0.0
 11
43.275700000000001
 21
123.27800000000001
 31
0.0
  0
LINE
  5
1EB
  8
0
 62
     7
 10
43.275700000000001
 20
123.27800000000001
 30
0.0
 11
41.595799999999997
 21
123.27800000000001
 31
0.0
  0
LINE
  5
1EC
  8
0
 62
     7
 10
35.1355
 20
125.27800000000001
 30
0.0
 11
35.1355
 21
126.27800000000001
 31
0.0
  0
LINE
  5
1ED
  8
0
 62
     7
 10
35.1355
 20
126.27800000000001
 30
0.0
 11
43.335999999999999
 21
126.27800000000001
 31
0.0
  0
LINE
  5
1EE
  8
0
 62
     7
 10
43.335999999999999
 20
126.27800000000001
 30
0.0
 11
43.335999999999999
 21
125.27800000000001
 31
0.0
  0
LINE
  5
1EF
  8
0
 62
     7
 10
43.335999999999999
 20
125.27800000000001
 30
0.0
 11
35.1355
 21
125.27800000000001
 31
0.0
  0
LINE
  5
1F0
  8
0
 62
     7
 10
35.1355
 20
127.27800000000001
 30
0.0
 11
35.1355
 21
127.578
 31
0.0
  0
LINE
  5
1F1
  8
0
 62
     7
 10
35.1355
 20
127.578
 30
0.0
 11
43.335999999999999
 21
127.578
 31
0.0
  0
LINE
  5
1F2
  8
0
 62
     7
 10
43.335999999999999
 20
127.578
 30
0.0
 11
43.335999999999999
 21
127.27800000000001
 31
0.0
  0
LINE
  5
1F3
  8
0
 62
     7
 10
43.335999999999999
 20
127.27800000000001
 30
0.0
 11
35.1355
 21
127.27800000000001
 31
0.0
  0
LINE
  5
1F4
  8
0
 62
     7
 10
35.435600000000001
 20
132.55500000000001
 30
0.0
 11
35.435600000000001
 21
132.755
 31
0.0
  0
LINE
  5
1F5
  8
0
 62
     7
 10
35.435600000000001
 20
132.755
 30
0.0
 11
43.035899999999991
 21
132.755
 31
0.0
  0
LINE
  5
1F6
  8
0
 62
     7
 10
43.035899999999991
 20
132.755
 30
0.0
 11
43.035899999999991
 21
132.55500000000001
 31
0.0
  0
LINE
  5
1F7
  8
0
 62
     7
 10
43.035899999999991
 20
132.55500000000001
 30
0.0
 11
35.435600000000001
 21
132.55500000000001
 31
0.0
  0
LINE
  5
1F8
  8
0
 62
     7
 10
30.564900000000002
 20
127.578
 30
0.0
 11
34.576700000000002
 21
127.578
 31
0.0
  0
LINE
  5
1F9
  8
0
 62
     7
 10
31.857199999999999
 20
130.54499999999999
 30
0.0
 11
31.265000000000001
 21
132.756
 31
0.0
  0
LINE
  5
1FA
  8
0
 62
     7
 10
31.265000000000001
 20
132.756
 30
0.0
 11
30.672699999999999
 21
130.54499999999999
 31
0.0
  0
LINE
  5
1FB
  8
0
 62
     7
 10
30.672699999999999
 20
130.54499999999999
 30
0.0
 11
31.857199999999999
 21
130.54499999999999
 31
0.0
  0
LINE
  5
1FC
  8
0
 62
     7
 10
30.687200000000001
 20
129.78899999999999
 30
0.0
 11
31.279399999999999
 21
127.578
 31
0.0
  0
LINE
  5
1FD
  8
0
 62
     7
 10
31.279399999999999
 20
127.578
 30
0.0
 11
31.871600000000001
 21
129.78899999999999
 31
0.0
  0
LINE
  5
1FE
  8
0
 62
     7
 10
31.871600000000001
 20
129.78899999999999
 30
0.0
 11
30.687200000000001
 21
129.78899999999999
 31
0.0
  0
LINE
  5
1FF
  8
0
 62
     7
 10
31.265000000000001
 20
132.75700000000001
 30
0.0
 11
31.265000000000001
 21
127.577
 31
0.0
  0
LINE
  5
200
  8
0
 62
     7
 10
34.436199999999999
 20
132.755
 30
0.0
 11
30.564900000000002
 21
132.755
 31
0.0
  0
LINE
  5
201
  8
0
 62
     7
 10
67.210999999999984
 20
92.329099999999997
 30
0.0
 11
51.235599999999998
 21
92.329099999999997
 31
0.0
  0
LINE
  5
202
  8
0
 62
     7
 10
67.210999999999984
 20
90.328900000000004
 30
0.0
 11
51.235999999999997
 21
90.328900000000004
 31
0.0
  0
LINE
  5
203
  8
0
  6
AIGENLINE001
 62
     7
 10
67.210999999999984
 20
91.328999999999994
 30
0.0
 11
51.235999999999997
 21
91.328999999999994
 31
0.0
  0
ARC
  5
204
  8
0
 62
     7
 10
51.235782
 20
103.328883
 30
0.0
 40
11.000085
 50
179.99907300000001
 51
269.999123
  0
ARC
  5
205
  8
0
 62
     7
 10
51.235782
 20
103.329228
 30
0.0
 40
12.999974999999999
 50
180.00076899999999
 51
270.00077900000002
  0
ARC
  5
206
  8
0
  6
AIGENLINE001
 62
     7
 10
51.235782
 20
103.329228
 30
0.0
 40
12.000203000000001
 50
180.000832
 51
270.00084199999998
  0
ARC
  5
207
  8
0
 62
     7
 10
67.134276
 20
103.493572
 30
0.0
 40
11.167793
 50
270.393463
 51
319.868968
  0
ARC
  5
208
  8
0
 62
     7
 10
67.162936999999999
 20
103.457795
 30
0.0
 40
13.125875000000001
 50
270.20965699999999
 51
310.41596600000003
  0
ARC
  5
209
  8
0
  6
AIGENLINE001
 62
     7
 10
67.210963000000007
 20
103.32906
 30
0.0
 40
12.000035
 50
270.00002000000001
 51
359.99999000000003
  0
LINE
  5
20A
  8
0
 62
     7
 10
37.6355
 20
115.82599999999999
 30
0.0
 11
37.001199999999997
 21
117.128
 31
0.0
  0
ARC
  5
20B
  8
0
 62
     7
 10
36.760548
 20
117.84034
 30
0.0
 40
1.0751090000000001
 50
359.93936000000002
 51
10.780792999999999
  0
ARC
  5
20C
  8
0
 62
     7
 10
37.261064000000012
 20
117.930232
 30
0.0
 40
0.566637
 50
11.31846
 51
36.986189000000003
  0
ARC
  5
20D
  8
0
 62
     7
 10
37.395938999999998
 20
118.007345
 30
0.0
 40
0.412972
 50
39.699221999999999
 51
81.855727999999999
  0
ARC
  5
20E
  8
0
 62
     7
 10
37.339159000000002
 20
117.76386100000001
 30
0.0
 40
0.6624
 50
79.977264000000005
 51
90.323030000000003
  0
ARC
  5
20F
  8
0
 62
     7
 10
37.334654999999998
 20
117.80536600000001
 30
0.0
 40
0.620885
 50
89.928943000000004
 51
112.484669
  0
ARC
  5
210
  8
0
 62
     7
 10
37.270094999999998
 20
118.010301
 30
0.0
 40
0.407269
 50
115.11950899999999
 51
156.75059300000001
  0
ARC
  5
211
  8
0
 62
     7
 10
37.475206
 20
117.912442
 30
0.0
 40
0.634415
 50
155.94241
 51
172.866085
  0
ARC
  5
212
  8
0
 62
     7
 10
37.886237000000001
 20
117.845315
 30
0.0
 40
1.0507159999999991
 50
172.017483
 51
180.33336299999999
  0
ARC
  5
213
  8
0
 62
     7
 10
38.450595
 20
117.842906
 30
0.0
 40
1.6150610000000001
 50
180.13141200000001
 51
209.23272
  0
ARC
  5
214
  8
0
 62
     7
 10
37.64883300000001
 20
117.41388600000001
 30
0.0
 40
0.706102
 50
210.62566000000001
 51
225.94793000000001
  0
ARC
  5
215
  8
0
 62
     7
 10
37.383524999999999
 20
117.147643
 30
0.0
 40
0.330326
 50
226.911979
 51
250.22782100000001
  0
ARC
  5
216
  8
0
 62
     7
 10
37.33631900000001
 20
117.037702
 30
0.0
 40
0.211021
 50
252.191621
 51
269.75715099999991
  0
ARC
  5
217
  8
0
 62
     7
 10
37.334135000000003
 20
117.05522000000001
 30
0.0
 40
0.228541
 50
270.323305
 51
309.10957200000001
  0
ARC
  5
218
  8
0
 62
     7
 10
37.183798000000003
 20
117.27436899999999
 30
0.0
 40
0.493894
 50
306.60440399999999
 51
326.32739199999997
  0
ARC
  5
219
  8
0
 62
     7
 10
36.749516
 20
117.59222699999999
 30
0.0
 40
1.031819
 50
325.00897600000002
 51
338.52832000000001
  0
ARC
  5
21A
  8
0
 62
     7
 10
36.138196000000001
 20
117.85637800000001
 30
0.0
 40
1.6975469999999999
 50
337.78406000000001
 51
359.42028399999998
  0
LINE
  5
21B
  8
0
 62
     7
 10
40.835700000000003
 20
115.82599999999999
 30
0.0
 11
41.470299999999988
 21
117.128
 31
0.0
  0
ARC
  5
21C
  8
0
 62
     7
 10
41.717041999999992
 20
117.839753
 30
0.0
 40
1.0813680000000001
 50
169.25065499999999
 51
180.02919299999999
  0
ARC
  5
21D
  8
0
 62
     7
 10
41.210420999999997
 20
117.930195
 30
0.0
 40
0.566796
 50
143.02113700000001
 51
168.680882
  0
ARC
  5
21E
  8
0
 62
     7
 10
41.075347999999991
 20
118.007429
 30
0.0
 40
0.412897
 50
98.153960999999995
 51
140.30727400000001
  0
ARC
  5
21F
  8
0
 62
     7
 10
41.131996999999998
 20
117.76467700000001
 30
0.0
 40
0.6615840000000001
 50
89.676419999999993
 51
100.028926
  0
ARC
  5
220
  8
0
 62
     7
 10
41.136510999999999
 20
117.804998
 30
0.0
 40
0.6212530000000001
 50
67.522044999999991
 51
90.071706000000006
  0
ARC
  5
221
  8
0
 62
     7
 10
41.201222999999999
 20
118.01045499999999
 30
0.0
 40
0.407097
 50
23.236297
 51
64.881309000000002
  0
ARC
  5
222
  8
0
 62
     7
 10
40.995468000000002
 20
117.91239
 30
0.0
 40
0.6349140000000001
 50
7.1329650000000004
 51
24.042587999999999
  0
ARC
  5
223
  8
0
 62
     7
 10
40.584288000000001
 20
117.845347
 30
0.0
 40
1.051350999999999
 50
359.66514999999998
 51
7.9759250000000002
  0
ARC
  5
224
  8
0
 62
     7
 10
40.023254000000001
 20
117.842066
 30
0.0
 40
1.612368
 50
330.74796500000002
 51
359.89823699999999
  0
ARC
  5
225
  8
0
 62
     7
 10
40.822989999999997
 20
117.413438
 30
0.0
 40
0.7053659999999999
 50
314.04262999999997
 51
329.38124800000003
  0
ARC
  5
226
  8
0
 62
     7
 10
41.087740999999987
 20
117.147643
 30
0.0
 40
0.3303
 50
289.75999000000002
 51
313.08338700000002
  0
ARC
  5
227
  8
0
 62
     7
 10
41.134844999999999
 20
117.037873
 30
0.0
 40
0.211192
 50
270.24114900000001
 51
287.80111299999999
  0
ARC
  5
228
  8
0
 62
     7
 10
41.137025999999992
 20
117.05500000000001
 30
0.0
 40
0.228321
 50
230.870824
 51
269.67576100000002
  0
ARC
  5
229
  8
0
 62
     7
 10
41.287457000000003
 20
117.27424000000001
 30
0.0
 40
0.493799
 50
213.661888
 51
233.38520500000001
  0
ARC
  5
22A
  8
0
 62
     7
 10
41.722259999999999
 20
117.592347
 30
0.0
 40
1.0322929999999999
 50
201.46852999999999
 51
214.98078899999999
  0
ARC
  5
22B
  8
0
 62
     7
 10
42.333557999999996
 20
117.85642199999999
 30
0.0
 40
1.6979699999999991
 50
180.581096
 51
202.21175400000001
  0
ARC
  5
22C
  8
0
 62
     7
 10
38.762765000000002
 20
117.839128
 30
0.0
 40
0.527131
 50
146.34317300000001
 51
179.99187599999999
  0
ARC
  5
22D
  8
0
 62
     7
 10
38.747211999999998
 20
117.82077700000001
 30
0.0
 40
0.5249000000000001
 50
115.631923
 51
143.734083
  0
ARC
  5
22E
  8
0
 62
     7
 10
38.950594000000002
 20
117.457949
 30
0.0
 40
0.9403739999999999
 50
103.070584
 51
117.241359
  0
ARC
  5
22F
  8
0
 62
     7
 10
39.14087
 20
116.731373
 30
0.0
 40
1.6912879999999999
 50
93.204224999999994
 51
103.783044
  0
ARC
  5
230
  8
0
 62
     7
 10
39.231345000000012
 20
115.67902100000001
 30
0.0
 40
2.747231999999999
 50
89.911681000000016
 51
93.861454000000009
  0
ARC
  5
231
  8
0
 62
     7
 10
39.237585000000003
 20
115.779838
 30
0.0
 40
2.646412999999999
 50
83.083061000000015
 51
90.043410999999992
  0
ARC
  5
232
  8
0
 62
     7
 10
39.368893
 20
116.93094600000001
 30
0.0
 40
1.4878929999999999
 50
72.181414000000004
 51
82.764366000000024
  0
ARC
  5
233
  8
0
 62
     7
 10
39.561036999999999
 20
117.551815
 30
0.0
 40
0.8380399999999999
 50
57.219223
 51
71.698633000000001
  0
ARC
  5
234
  8
0
 62
     7
 10
39.737012
 20
117.842422
 30
0.0
 40
0.498523
 50
359.629932
 51
56.139805000000003
  0
ARC
  5
235
  8
0
 62
     7
 10
39.459747999999998
 20
117.84044
 30
0.0
 40
0.775778
 50
338.79238099999998
 51
359.90859899999998
  0
ARC
  5
236
  8
0
 62
     7
 10
39.079295000000002
 20
117.968856
 30
0.0
 40
1.1770549999999991
 50
292.04886800000003
 51
339.66418599999997
  0
ARC
  5
237
  8
0
 62
     7
 10
39.230457000000001
 20
117.677245
 30
0.0
 40
0.8505780000000001
 50
270.345078
 51
289.984713
  0
ARC
  5
238
  8
0
 62
     7
 10
39.238225
 20
117.68883
 30
0.0
 40
0.862152
 50
235.38244
 51
269.82418799999999
  0
ARC
  5
239
  8
0
 62
     7
 10
39.402408000000001
 20
117.96758
 30
0.0
 40
1.1850519999999991
 50
195.14729399999999
 51
236.506136
  0
ARC
  5
23A
  8
0
 62
     7
 10
39.022302000000003
 20
117.846468
 30
0.0
 40
0.786701
 50
180.52914799999999
 51
193.86664200000001
  0
ARC
  5
23B
  8
0
 62
     7
 10
36.873187999999999
 20
122.17307700000001
 30
0.0
 40
0.443751
 50
143.65644800000001
 51
170.470609
  0
ARC
  5
23C
  8
0
 62
     7
 10
36.833229000000003
 20
122.18120500000001
 30
0.0
 40
0.407108
 50
108.852397
 51
141.24443099999999
  0
ARC
  5
23D
  8
0
 62
     7
 10
36.987611000000001
 20
121.808818
 30
0.0
 40
0.809814
 50
95.902074999999996
 51
110.675963
  0
ARC
  5
23E
  8
0
 62
     7
 10
37.115772999999997
 20
120.85415399999999
 30
0.0
 40
1.7728379999999999
 50
89.358931999999996
 51
96.849575999999999
  0
ARC
  5
23F
  8
0
 62
     7
 10
37.399609000000012
 20
122.173665
 30
0.0
 40
0.442095
 50
9.4881360000000008
 51
36.406849000000001
  0
ARC
  5
240
  8
0
 62
     7
 10
37.437903000000013
 20
122.181054
 30
0.0
 40
0.4072350000000001
 50
38.768503000000003
 51
71.161137999999994
  0
ARC
  5
241
  8
0
 62
     7
 10
37.283406999999997
 20
121.80854600000001
 30
0.0
 40
0.810091
 50
69.326559000000003
 51
84.095363000000006
  0
ARC
  5
242
  8
0
 62
     7
 10
37.155386999999997
 20
120.855394
 30
0.0
 40
1.771598
 50
83.148151999999996
 51
90.639691999999997
  0
ARC
  5
243
  8
0
 62
     7
 10
40.086368999999991
 20
121.924886
 30
0.0
 40
0.6362550000000001
 50
30.367481999999999
 51
70.200645999999992
  0
ARC
  5
244
  8
0
 62
     7
 10
39.884101000000001
 20
121.4344
 30
0.0
 40
1.166509999999999
 50
69.013385
 51
81.785852000000006
  0
ARC
  5
245
  8
0
 62
     7
 10
39.688646000000013
 20
120.32455400000001
 30
0.0
 40
2.293161
 50
80.914267000000009
 51
85.198530000000005
  0
ARC
  5
246
  8
0
 62
     7
 10
39.535035000000001
 20
118.49071499999999
 30
0.0
 40
4.1334210000000002
 50
85.204429000000019
 51
88.392895999999979
  0
ARC
  5
247
  8
0
 62
     7
 10
39.309443999999999
 20
109.907234
 30
0.0
 40
12.719863
 50
88.461478
 51
90.332710999999975
  0
ARC
  5
248
  8
0
 62
     7
 10
38.384999999999998
 20
121.924324
 30
0.0
 40
0.6368700000000001
 50
109.80371599999999
 51
149.60629800000001
  0
ARC
  5
249
  8
0
 62
     7
 10
38.587133000000001
 20
121.433875
 30
0.0
 40
1.1670430000000001
 50
98.214916000000017
 51
110.982812
  0
ARC
  5
24A
  8
0
 62
     7
 10
38.782477
 20
120.32455899999999
 30
0.0
 40
2.2931529999999989
 50
94.800591000000011
 51
99.085267999999999
  0
ARC
  5
24B
  8
0
 62
     7
 10
38.936124
 20
118.49071499999999
 30
0.0
 40
4.1334210000000002
 50
91.607084
 51
94.795551000000003
  0
ARC
  5
24C
  8
0
 62
     7
 10
39.161714000000011
 20
109.907234
 30
0.0
 40
12.719863
 50
89.667269000000005
 51
91.538501999999994
  0
ARC
  5
24D
  8
0
 62
     7
 10
41.071373000000001
 20
122.17398
 30
0.0
 40
0.4420390000000001
 50
143.638509
 51
170.55205699999999
  0
ARC
  5
24E
  8
0
 62
     7
 10
41.032749000000003
 20
122.181314
 30
0.0
 40
0.406942
 50
108.831262
 51
141.245293
  0
ARC
  5
24F
  8
0
 62
     7
 10
41.187478999999989
 20
121.808032
 30
0.0
 40
0.810603
 50
95.901402000000019
 51
110.666427
  0
ARC
  5
250
  8
0
 62
     7
 10
41.315578000000002
 20
120.853956
 30
0.0
 40
1.7730360000000001
 50
89.360146999999984
 51
96.849082999999993
  0
ARC
  5
251
  8
0
 62
     7
 10
41.598652999999999
 20
122.17353900000001
 30
0.0
 40
0.442832
 50
9.4886119999999998
 51
36.356681999999999
  0
ARC
  5
252
  8
0
 62
     7
 10
41.637815000000003
 20
122.181151
 30
0.0
 40
0.40714
 50
38.761861000000003
 51
71.158426000000006
  0
ARC
  5
253
  8
0
 62
     7
 10
41.483290999999987
 20
121.808415
 30
0.0
 40
0.8102189999999998
 50
69.328806999999998
 51
84.097880000000004
  0
ARC
  5
254
  8
0
 62
     7
 10
41.355178000000002
 20
120.85423400000001
 30
0.0
 40
1.7727589999999991
 50
83.150355000000005
 51
90.639943000000002
  0
ARC
  5
255
  8
0
 62
     7
 10
36.872647000000001
 20
120.079551
 30
0.0
 40
0.4432020000000001
 50
189.528932
 51
216.365047
  0
ARC
  5
256
  8
0
 62
     7
 10
36.832526999999999
 20
120.071439
 30
0.0
 40
0.406452
 50
218.79832300000001
 51
251.22055800000001
  0
ARC
  5
257
  8
0
 62
     7
 10
36.986820000000002
 20
120.444738
 30
0.0
 40
0.809964
 50
249.38781499999999
 51
264.15526
  0
ARC
  5
258
  8
0
 62
     7
 10
37.115662
 20
121.40937
 30
0.0
 40
1.7829520000000001
 50
263.19305000000003
 51
270.64099299999998
  0
ARC
  5
259
  8
0
 62
     7
 10
37.400145999999999
 20
120.0789639999999
 30
0.0
 40
0.44155
 50
323.57164900000009
 51
350.5123220000001
  0
ARC
  5
25A
  8
0
 62
     7
 10
37.438605000000003
 20
120.071591
 30
0.0
 40
0.406579
 50
288.76593200000002
 51
321.188737
  0
ARC
  5
25B
  8
0
 62
     7
 10
37.284198000000004
 20
120.44501
 30
0.0
 40
0.8102399999999999
 50
275.84729399999998
 51
290.60967099999999
  0
ARC
  5
25C
  8
0
 62
     7
 10
37.155498000000001
 20
121.40812200000001
 30
0.0
 40
1.781704
 50
269.36037099999999
 51
276.80920900000001
  0
ARC
  5
25D
  8
0
 62
     7
 10
40.087083
 20
120.32741799999999
 30
0.0
 40
0.6354270000000001
 50
289.75778200000002
 51
329.63248199999998
  0
ARC
  5
25E
  8
0
 62
     7
 10
39.884988
 20
120.818352
 30
0.0
 40
1.166029999999999
 50
278.17353700000001
 51
290.949003
  0
ARC
  5
25F
  8
0
 62
     7
 10
39.688040000000001
 20
121.94549600000001
 30
0.0
 40
2.3099849999999988
 50
274.781519
 51
279.03424100000001
  0
ARC
  5
260
  8
0
 62
     7
 10
39.534745000000001
 20
123.802645
 30
0.0
 40
4.1734489999999989
 50
271.59566000000001
 51
274.75345600000003
  0
ARC
  5
261
  8
0
 62
     7
 10
39.310411000000002
 20
132.50798399999999
 30
0.0
 40
12.881672
 50
269.66716600000001
 51
271.51488799999998
  0
ARC
  5
262
  8
0
 62
     7
 10
38.384284999999998
 20
120.327979
 30
0.0
 40
0.636041
 50
210.39373599999999
 51
250.237853
  0
ARC
  5
263
  8
0
 62
     7
 10
38.586246000000003
 20
120.818877
 30
0.0
 40
1.1665620000000001
 50
249.05479299999999
 51
261.825695
  0
ARC
  5
264
  8
0
 62
     7
 10
38.783084000000002
 20
121.945491
 30
0.0
 40
2.3099759999999989
 50
260.96622100000002
 51
265.219356
  0
ARC
  5
265
  8
0
 62
     7
 10
38.936413000000002
 20
123.802645
 30
0.0
 40
4.1734489999999989
 50
265.24656399999998
 51
268.40436
  0
ARC
  5
266
  8
0
 62
     7
 10
39.160747000000001
 20
132.50798399999999
 30
0.0
 40
12.881672
 50
268.48513199999991
 51
270.332854
  0
ARC
  5
267
  8
0
 62
     7
 10
41.070836
 20
120.07865
 30
0.0
 40
0.441494
 50
189.447485
 51
216.38296299999999
  0
ARC
  5
268
  8
0
 62
     7
 10
41.032047999999989
 20
120.071331
 30
0.0
 40
0.4062860000000001
 50
218.79746499999999
 51
251.24167399999999
  0
ARC
  5
269
  8
0
 62
     7
 10
41.186687999999997
 20
120.445525
 30
0.0
 40
0.8107529999999998
 50
249.39732599999999
 51
264.15591499999999
  0
ARC
  5
26A
  8
0
 62
     7
 10
41.315468000000003
 20
121.409569
 30
0.0
 40
1.783150999999999
 50
263.19353999999998
 51
270.63978700000001
  0
ARC
  5
26B
  8
0
 62
     7
 10
41.59919099999999
 20
120.079089
 30
0.0
 40
0.4422850000000001
 50
323.62183299999998
 51
350.5118470000001
  0
ARC
  5
26C
  8
0
 62
     7
 10
41.638517
 20
120.071494
 30
0.0
 40
0.406483
 50
288.76863500000002
 51
321.195381
  0
ARC
  5
26D
  8
0
 62
     7
 10
41.484082000000001
 20
120.445142
 30
0.0
 40
0.810369
 50
275.84479199999998
 51
290.60742800000003
  0
ARC
  5
26E
  8
0
 62
     7
 10
41.355288999999992
 20
121.40929
 30
0.0
 40
1.782870999999999
 50
269.36012299999999
 51
276.80702000000002
  0
LINE
  5
26F
  8
0
 62
     7
 10
36.435600000000001
 20
122.247
 30
0.0
 11
36.435600000000001
 21
120.006
 31
0.0
  0
LINE
  5
270
  8
0
 62
     7
 10
37.835700000000003
 20
122.247
 30
0.0
 11
37.835700000000003
 21
120.006
 31
0.0
  0
LINE
  5
271
  8
0
 62
     7
 10
37.135599999999997
 20
119.627
 30
0.0
 11
41.335399999999993
 21
119.627
 31
0.0
  0
LINE
  5
272
  8
0
 62
     7
 10
37.135599999999997
 20
122.627
 30
0.0
 11
41.335399999999993
 21
122.627
 31
0.0
  0
LINE
  5
273
  8
0
 62
     7
 10
40.635300000000001
 20
122.247
 30
0.0
 11
40.635300000000001
 21
120.006
 31
0.0
  0
LINE
  5
274
  8
0
 62
     7
 10
42.035400000000003
 20
122.247
 30
0.0
 11
42.035400000000003
 21
120.006
 31
0.0
  0
LINE
  5
275
  8
0
 62
     7
 10
41.1357
 20
118.426
 30
0.0
 11
37.3354
 21
118.426
 31
0.0
  0
LINE
  5
276
  8
0
 62
     7
 10
40.835700000000003
 20
115.82599999999999
 30
0.0
 11
37.6355
 21
115.82599999999999
 31
0.0
  0
LINE
  5
277
  8
0
 62
     7
 10
40.685499999999998
 20
118.426
 30
0.0
 11
40.685499999999998
 21
119.627
 31
0.0
  0
LINE
  5
278
  8
0
 62
     7
 10
40.885399999999997
 20
118.426
 30
0.0
 11
40.885399999999997
 21
119.627
 31
0.0
  0
LINE
  5
279
  8
0
 62
     7
 10
37.785699999999999
 20
118.426
 30
0.0
 11
37.785699999999999
 21
119.627
 31
0.0
  0
LINE
  5
27A
  8
0
 62
     7
 10
37.585500000000003
 20
118.426
 30
0.0
 11
37.585500000000003
 21
119.627
 31
0.0
  0
LINE
  5
27B
  8
0
 62
     7
 10
37.585500000000003
 20
119.404
 30
0.0
 11
40.885399999999997
 21
119.404
 31
0.0
  0
LINE
  5
27C
  8
0
 62
     7
 10
58.400799999999997
 20
114.806
 30
0.0
 11
47.966700000000003
 21
114.806
 31
0.0
  0
LINE
  5
27D
  8
0
 62
     7
 10
44.030799999999999
 20
119.474
 30
0.0
 11
42.035400000000003
 21
120.59399999999999
 31
0.0
  0
LINE
  5
27E
  8
0
 62
     7
 10
42.035400000000003
 20
120.59399999999999
 30
0.0
 11
43.203499999999998
 21
118.626
 31
0.0
  0
LINE
  5
27F
  8
0
 62
     7
 10
43.203499999999998
 20
118.626
 30
0.0
 11
44.030799999999999
 21
119.474
 31
0.0
  0
LINE
  5
280
  8
0
 62
     7
 10
42.035400000000003
 20
120.59399999999999
 30
0.0
 11
47.966700000000003
 21
114.806
 31
0.0
  0
LINE
  5
281
  8
0
 62
     7
 10
38.238900000000001
 20
104.3
 30
0.0
 11
40.232599999999991
 21
106.753
 31
0.0
  0
LINE
  5
282
  8
0
 62
     7
 10
40.232599999999991
 20
105.27800000000001
 30
0.0
 11
38.238900000000001
 21
107.73099999999999
 31
0.0
  0
LINE
  5
283
  8
0
 62
     7
 10
38.238900000000001
 20
105.27800000000001
 30
0.0
 11
40.232599999999991
 21
107.73099999999999
 31
0.0
  0
LINE
  5
284
  8
0
 62
     7
 10
40.232599999999991
 20
106.25700000000001
 30
0.0
 11
38.238900000000001
 21
108.70999999999999
 31
0.0
  0
LINE
  5
285
  8
0
 62
     7
 10
38.238900000000001
 20
106.25700000000001
 30
0.0
 11
40.232599999999991
 21
108.70999999999999
 31
0.0
  0
LINE
  5
286
  8
0
 62
     7
 10
40.232599999999991
 20
104.3
 30
0.0
 11
38.238900000000001
 21
106.753
 31
0.0
  0
LINE
  5
287
  8
0
 62
     7
 10
38.6327
 20
103.806
 30
0.0
 11
40.232599999999991
 21
105.774
 31
0.0
  0
LINE
  5
288
  8
0
 62
     7
 10
39.570399999999999
 20
104.137
 30
0.0
 11
38.238900000000001
 21
105.774
 31
0.0
  0
LINE
  5
289
  8
0
 62
     7
 10
39.747199999999999
 20
104.199
 30
0.0
 11
40.232599999999991
 21
104.79600000000001
 31
0.0
  0
LINE
  5
28A
  8
0
 62
     7
 10
38.951999999999998
 20
103.91800000000001
 30
0.0
 11
38.238900000000001
 21
104.79600000000001
 31
0.0
  0
LINE
  5
28B
  8
0
 62
     7
 10
38.235799999999998
 20
111.45399999999999
 30
0.0
 11
38.235799999999998
 21
103.32899999999999
 31
0.0
  0
LINE
  5
28C
  8
0
 62
     7
 10
38.235799999999998
 20
115.827
 30
0.0
 11
38.235799999999998
 21
115.47
 31
0.0
  0
LINE
  5
28D
  8
0
 62
     7
 10
40.235700000000001
 20
115.827
 30
0.0
 11
40.235700000000001
 21
115.47
 31
0.0
  0
LINE
  5
28E
  8
0
 62
     7
 10
40.235700000000001
 20
111.45399999999999
 30
0.0
 11
40.235700000000001
 21
103.32899999999999
 31
0.0
  0
LINE
  5
28F
  8
0
 62
     7
 10
40.712200000000003
 20
111.45399999999999
 30
0.0
 11
39.235599999999998
 21
111.45399999999999
 31
0.0
  0
LINE
  5
290
  8
0
 62
     7
 10
37.759700000000002
 20
111.45399999999999
 30
0.0
 11
39.235599999999998
 21
111.45399999999999
 31
0.0
  0
LINE
  5
291
  8
0
 62
     7
 10
37.759700000000002
 20
111.45399999999999
 30
0.0
 11
37.759700000000002
 21
112.806
 31
0.0
  0
LINE
  5
292
  8
0
 62
     7
 10
38.035600000000002
 20
111.45399999999999
 30
0.0
 11
39.235599999999998
 21
111.45399999999999
 31
0.0
  0
LINE
  5
293
  8
0
 62
     7
 10
37.978099999999998
 20
113.02500000000001
 30
0.0
 11
37.978099999999998
 21
114.749
 31
0.0
  0
LINE
  5
294
  8
0
 62
     7
 10
37.978099999999998
 20
113.02500000000001
 30
0.0
 11
37.759700000000002
 21
112.806
 31
0.0
  0
LINE
  5
295
  8
0
 62
     7
 10
38.842500000000001
 20
113.02500000000001
 30
0.0
 11
38.842500000000001
 21
114.749
 31
0.0
  0
LINE
  5
296
  8
0
 62
     7
 10
38.53070000000001
 20
113.02500000000001
 30
0.0
 11
38.53070000000001
 21
114.749
 31
0.0
  0
LINE
  5
297
  8
0
 62
     7
 10
38.53070000000001
 20
113.02500000000001
 30
0.0
 11
37.978099999999998
 21
113.02500000000001
 31
0.0
  0
LINE
  5
298
  8
0
 62
     7
 10
39.235599999999998
 20
113.02500000000001
 30
0.0
 11
38.842500000000001
 21
113.02500000000001
 31
0.0
  0
ARC
  5
299
  8
0
 62
     7
 10
37.976649000000002
 20
114.74994
 30
0.0
 40
0.720057
 50
89.883594999999985
 51
102.950169
  0
ARC
  5
29A
  8
0
 62
     7
 10
37.882793999999997
 20
115.184145
 30
0.0
 40
0.275924
 50
104.162847
 51
131.943207
  0
ARC
  5
29B
  8
0
 62
     7
 10
37.851007000000003
 20
115.23703500000001
 30
0.0
 40
0.215656
 50
135.055441
 51
160.123445
  0
ARC
  5
29C
  8
0
 62
     7
 10
38.005780000000001
 20
115.171335
 30
0.0
 40
0.383656
 50
158.75464500000001
 51
169.323353
  0
ARC
  5
29D
  8
0
 62
     7
 10
38.285604999999997
 20
115.11935099999999
 30
0.0
 40
0.6682680000000002
 50
169.38834299999999
 51
180.83297399999989
  0
ARC
  5
29E
  8
0
 62
     7
 10
38.351489000000001
 20
115.109435
 30
0.0
 40
0.7340810000000002
 50
179.98429200000001
 51
192.83621299999999
  0
ARC
  5
29F
  8
0
 62
     7
 10
37.902774999999998
 20
115.013768
 30
0.0
 40
0.275402
 50
194.17025000000001
 51
222.079655
  0
ARC
  5
2A0
  8
0
 62
     7
 10
37.848658
 20
114.979778
 30
0.0
 40
0.212744
 50
225.05421699999999
 51
250.455555
  0
ARC
  5
2A1
  8
0
 62
     7
 10
37.917188000000003
 20
115.140709
 30
0.0
 40
0.387477
 50
248.86671699999999
 51
259.33598999999998
  0
ARC
  5
2A2
  8
0
 62
     7
 10
37.968826
 20
115.42141599999999
 30
0.0
 40
0.6728930000000001
 50
259.43804299999999
 51
270.790705
  0
LINE
  5
2A3
  8
0
 62
     7
 10
38.53070000000001
 20
114.749
 30
0.0
 11
37.978099999999998
 21
114.749
 31
0.0
  0
LINE
  5
2A4
  8
0
 62
     7
 10
39.235599999999998
 20
114.749
 30
0.0
 11
38.842500000000001
 21
114.749
 31
0.0
  0
LINE
  5
2A5
  8
0
 62
     7
 10
39.235599999999998
 20
115.47
 30
0.0
 11
37.978099999999998
 21
115.47
 31
0.0
  0
LINE
  5
2A6
  8
0
 62
     7
 10
40.712200000000003
 20
111.45399999999999
 30
0.0
 11
40.712200000000003
 21
112.806
 31
0.0
  0
LINE
  5
2A7
  8
0
 62
     7
 10
40.435899999999997
 20
111.45399999999999
 30
0.0
 11
39.235599999999998
 21
111.45399999999999
 31
0.0
  0
LINE
  5
2A8
  8
0
 62
     7
 10
40.493399999999987
 20
113.02500000000001
 30
0.0
 11
40.493399999999987
 21
114.749
 31
0.0
  0
LINE
  5
2A9
  8
0
 62
     7
 10
40.493399999999987
 20
113.02500000000001
 30
0.0
 11
40.712200000000003
 21
112.806
 31
0.0
  0
LINE
  5
2AA
  8
0
 62
     7
 10
39.628999999999998
 20
113.02500000000001
 30
0.0
 11
39.628999999999998
 21
114.749
 31
0.0
  0
LINE
  5
2AB
  8
0
 62
     7
 10
39.941499999999998
 20
113.02500000000001
 30
0.0
 11
39.941499999999998
 21
114.749
 31
0.0
  0
LINE
  5
2AC
  8
0
 62
     7
 10
39.941499999999998
 20
113.02500000000001
 30
0.0
 11
40.493399999999987
 21
113.02500000000001
 31
0.0
  0
LINE
  5
2AD
  8
0
 62
     7
 10
39.235599999999998
 20
113.02500000000001
 30
0.0
 11
39.628999999999998
 21
113.02500000000001
 31
0.0
  0
ARC
  5
2AE
  8
0
 62
     7
 10
40.494853999999997
 20
115.46902300000001
 30
0.0
 40
0.720436
 50
269.88367499999998
 51
282.94676500000003
  0
ARC
  5
2AF
  8
0
 62
     7
 10
40.588277000000012
 20
115.036224
 30
0.0
 40
0.2777719999999999
 50
284.167665
 51
311.81604800000002
  0
ARC
  5
2B0
  8
0
 62
     7
 10
40.575765999999987
 20
115.025758
 30
0.0
 40
0.278791
 50
315.16850699999998
 51
356.70377500000001
  0
LINE
  5
2B1
  8
0
 62
     7
 10
40.854100000000003
 20
115.01000000000001
 30
0.0
 11
40.854100000000003
 21
115.209
 31
0.0
  0
ARC
  5
2B2
  8
0
 62
     7
 10
40.609057999999997
 20
115.20769300000001
 30
0.0
 40
0.24504
 50
0.271903
 51
47.855815
  0
ARC
  5
2B3
  8
0
 62
     7
 10
40.622737000000001
 20
115.237711
 30
0.0
 40
0.213838
 50
45.175614000000003
 51
70.506097999999994
  0
ARC
  5
2B4
  8
0
 62
     7
 10
40.554093999999999
 20
115.07659200000001
 30
0.0
 40
0.388782
 50
68.893237999999997
 51
79.335697999999994
  0
ARC
  5
2B5
  8
0
 62
     7
 10
40.502657999999997
 20
114.796701
 30
0.0
 40
0.673358
 50
79.441828000000001
 51
90.788457999999991
  0
LINE
  5
2B6
  8
0
 62
     7
 10
39.941499999999998
 20
114.749
 30
0.0
 11
40.493399999999987
 21
114.749
 31
0.0
  0
LINE
  5
2B7
  8
0
 62
     7
 10
39.235599999999998
 20
114.749
 30
0.0
 11
39.628999999999998
 21
114.749
 31
0.0
  0
LINE
  5
2B8
  8
0
 62
     7
 10
39.235599999999998
 20
115.47
 30
0.0
 11
40.493399999999987
 21
115.47
 31
0.0
  0
LINE
  5
2B9
  8
0
 62
     7
 10
40.232599999999991
 20
107.235
 30
0.0
 11
38.238900000000001
 21
109.688
 31
0.0
  0
LINE
  5
2BA
  8
0
 62
     7
 10
38.238900000000001
 20
107.235
 30
0.0
 11
40.232599999999991
 21
109.688
 31
0.0
  0
LINE
  5
2BB
  8
0
 62
     7
 10
40.232599999999991
 20
108.214
 30
0.0
 11
38.238900000000001
 21
110.666
 31
0.0
  0
LINE
  5
2BC
  8
0
 62
     7
 10
40.232599999999991
 20
109.19199999999999
 30
0.0
 11
38.393599999999999
 21
111.45399999999999
 31
0.0
  0
LINE
  5
2BD
  8
0
 62
     7
 10
40.232599999999991
 20
110.17
 30
0.0
 11
39.189100000000003
 21
111.45399999999999
 31
0.0
  0
LINE
  5
2BE
  8
0
 62
     7
 10
40.232599999999991
 20
111.149
 30
0.0
 11
39.984200000000001
 21
111.45399999999999
 31
0.0
  0
LINE
  5
2BF
  8
0
 62
     7
 10
38.238900000000001
 20
108.214
 30
0.0
 11
40.232599999999991
 21
110.666
 31
0.0
  0
LINE
  5
2C0
  8
0
 62
     7
 10
38.238900000000001
 20
109.19199999999999
 30
0.0
 11
40.077899999999993
 21
111.45399999999999
 31
0.0
  0
LINE
  5
2C1
  8
0
 62
     7
 10
38.238900000000001
 20
110.17
 30
0.0
 11
39.282400000000003
 21
111.45399999999999
 31
0.0
  0
LINE
  5
2C2
  8
0
 62
     7
 10
38.238900000000001
 20
111.149
 30
0.0
 11
38.487299999999998
 21
111.45399999999999
 31
0.0
  0
LINE
  5
2C3
  8
0
  6
AIGENLINE001
 62
     7
 10
79.236099999999993
 20
232.017
 30
0.0
 11
72.187399999999997
 21
224.96799999999999
 31
0.0
  0
LINE
  5
2C4
  8
0
  6
AIGENLINE002
 62
     7
 10
72.377300000000005
 20
226.148
 30
0.0
 11
73.367000000000004
 21
225.15799999999999
 31
0.0
  0
LINE
  5
2C5
  8
0
  6
AIGENLINE002
 62
     7
 10
76.946200000000005
 20
228.73699999999999
 30
0.0
 11
73.367000000000004
 21
225.15799999999999
 31
0.0
  0
LINE
  5
2C6
  8
0
  6
AIGENLINE002
 62
     7
 10
75.956400000000002
 20
229.727
 30
0.0
 11
72.377300000000005
 21
226.148
 31
0.0
  0
LINE
  5
2C7
  8
0
 62
     7
 10
71.794200000000004
 20
224.57499999999999
 30
0.0
 11
70.290400000000005
 21
223.071
 31
0.0
  0
LINE
  5
2C8
  8
0
  6
AIGENLINE001
 62
     7
 10
79.236099999999993
 20
232.017
 30
0.0
 11
86.284899999999993
 21
224.96799999999999
 31
0.0
  0
LINE
  5
2C9
  8
0
  6
AIGENLINE002
 62
     7
 10
86.094999999999999
 20
226.148
 30
0.0
 11
85.105199999999996
 21
225.15799999999999
 31
0.0
  0
LINE
  5
2CA
  8
0
  6
AIGENLINE002
 62
     7
 10
81.526100000000014
 20
228.73699999999999
 30
0.0
 11
85.105199999999996
 21
225.15799999999999
 31
0.0
  0
LINE
  5
2CB
  8
0
  6
AIGENLINE002
 62
     7
 10
82.515900000000002
 20
229.727
 30
0.0
 11
86.094999999999999
 21
226.148
 31
0.0
  0
LINE
  5
2CC
  8
0
 62
     7
 10
82.213099999999997
 20
117.27
 30
0.0
 11
81.798999999999992
 21
117.684
 31
0.0
  0
LINE
  5
2CD
  8
0
 62
     7
 10
80.227000000000004
 20
117.684
 30
0.0
 11
79.812899999999999
 21
117.27
 31
0.0
  0
LINE
  5
2CE
  8
0
 62
     7
 10
82.213099999999997
 20
116.389
 30
0.0
 11
80.918099999999995
 21
117.684
 31
0.0
  0
LINE
  5
2CF
  8
0
 62
     7
 10
81.107899999999987
 20
117.684
 30
0.0
 11
79.812899999999999
 21
116.389
 31
0.0
  0
LINE
  5
2D0
  8
0
 62
     7
 10
82.213099999999997
 20
115.508
 30
0.0
 11
80.037099999999995
 21
117.684
 31
0.0
  0
LINE
  5
2D1
  8
0
 62
     7
 10
81.988500000000002
 20
117.684
 30
0.0
 11
79.812899999999999
 21
115.508
 31
0.0
  0
LINE
  5
2D2
  8
0
 62
     7
 10
81.635699999999986
 20
115.20399999999999
 30
0.0
 11
79.812899999999999
 21
117.027
 31
0.0
  0
LINE
  5
2D3
  8
0
 62
     7
 10
82.213099999999997
 20
117.027
 30
0.0
 11
80.389600000000016
 21
115.20399999999999
 31
0.0
  0
LINE
  5
2D4
  8
0
 62
     7
 10
80.755099999999985
 20
115.20399999999999
 30
0.0
 11
79.812899999999999
 21
116.146
 31
0.0
  0
LINE
  5
2D5
  8
0
 62
     7
 10
82.213099999999997
 20
116.146
 30
0.0
 11
81.270499999999998
 21
115.20399999999999
 31
0.0
  0
ARC
  5
2D6
  8
0
 62
     7
 10
81.613964999999993
 20
93.142004
 30
0.0
 40
0.8390450000000002
 50
236.37098900000001
 51
269.90602899999999
  0
ARC
  5
2D7
  8
0
 62
     7
 10
81.436672000000016
 20
92.847270999999992
 30
0.0
 40
0.495697
 50
211.22761199999999
 51
234.566935
  0
ARC
  5
2D8
  8
0
 62
     7
 10
81.611219999999975
 20
93.142797999999985
 30
0.0
 40
0.8398389999999999
 50
270.09336999999999
 51
303.61265900000001
  0
ARC
  5
2D9
  8
0
 62
     7
 10
81.789969999999997
 20
92.84542900000001
 30
0.0
 40
0.4934910000000001
 50
305.44204000000002
 51
328.86719900000003
  0
ARC
  5
2DA
  8
0
 62
     7
 10
81.611221
 20
92.036297999999988
 30
0.0
 40
0.8409639999999999
 50
56.438350999999997
 51
89.906818999999999
  0
ARC
  5
2DB
  8
0
 62
     7
 10
81.790935999999988
 20
92.335708999999994
 30
0.0
 40
0.492367
 50
31.133882
 51
54.602957999999987
  0
ARC
  5
2DC
  8
0
 62
     7
 10
81.613963999999996
 20
92.037092999999984
 30
0.0
 40
0.8401690000000001
 50
90.093780999999993
 51
123.57798
  0
ARC
  5
2DD
  8
0
 62
     7
 10
81.435699000000014
 20
92.333872999999997
 30
0.0
 40
0.494565
 50
125.388075
 51
148.77129199999999
  0
ARC
  5
2DE
  8
0
 62
     7
 10
80.411284999999992
 20
92.035539999999997
 30
0.0
 40
0.841722
 50
56.453902999999997
 51
89.906746999999996
  0
ARC
  5
2DF
  8
0
 62
     7
 10
80.591596999999993
 20
92.335712000000001
 30
0.0
 40
0.492151
 50
31.148699000000001
 51
54.637783999999989
  0
ARC
  5
2E0
  8
0
 62
     7
 10
80.414022000000003
 20
92.036297999999988
 30
0.0
 40
0.8409639999999999
 50
90.093160999999995
 51
123.561629
  0
ARC
  5
2E1
  8
0
 62
     7
 10
80.234307000000001
 20
92.335708999999994
 30
0.0
 40
0.492367
 50
125.39702200000001
 51
148.86609899999999
  0
LINE
  5
2E2
  8
0
 62
     7
 10
82.012900000000002
 20
62.755200000000002
 30
0.0
 11
80.013000000000005
 21
62.755200000000002
 31
0.0
  0
LINE
  5
2E3
  8
0
 62
     7
 10
82.012900000000002
 20
60.755000000000003
 30
0.0
 11
80.013000000000005
 21
60.755000000000003
 31
0.0
  0
LINE
  5
2E4
  8
0
 62
     7
 10
79.536900000000003
 20
121.756
 30
0.0
 11
79.536900000000003
 21
120.405
 31
0.0
  0
LINE
  5
2E5
  8
0
 62
     7
 10
79.536900000000003
 20
121.756
 30
0.0
 11
81.012799999999999
 21
121.756
 31
0.0
  0
LINE
  5
2E6
  8
0
 62
     7
 10
79.755700000000004
 20
120.18600000000001
 30
0.0
 11
79.755700000000004
 21
118.405
 31
0.0
  0
LINE
  5
2E7
  8
0
 62
     7
 10
79.755700000000004
 20
120.18600000000001
 30
0.0
 11
79.536900000000003
 21
120.405
 31
0.0
  0
LINE
  5
2E8
  8
0
 62
     7
 10
80.620099999999994
 20
120.18600000000001
 30
0.0
 11
80.620099999999994
 21
118.405
 31
0.0
  0
LINE
  5
2E9
  8
0
 62
     7
 10
80.307199999999995
 20
120.18600000000001
 30
0.0
 11
80.307199999999995
 21
118.405
 31
0.0
  0
LINE
  5
2EA
  8
0
 62
     7
 10
80.307199999999995
 20
120.18600000000001
 30
0.0
 11
79.755700000000004
 21
120.18600000000001
 31
0.0
  0
LINE
  5
2EB
  8
0
 62
     7
 10
81.012799999999999
 20
120.18600000000001
 30
0.0
 11
80.620099999999994
 21
120.18600000000001
 31
0.0
  0
ARC
  5
2EC
  8
0
 62
     7
 10
79.769657999999993
 20
118.05854600000001
 30
0.0
 40
0.375324
 50
182.24523099999999
 51
267.86424699999998
  0
ARC
  5
2ED
  8
0
 62
     7
 10
79.769310000000004
 20
118.030203
 30
0.0
 40
0.374936
 50
92.084706000000025
 51
177.91526399999989
  0
LINE
  5
2EE
  8
0
 62
     7
 10
80.307199999999995
 20
118.405
 30
0.0
 11
79.755700000000004
 21
118.405
 31
0.0
  0
LINE
  5
2EF
  8
0
 62
     7
 10
81.012799999999999
 20
118.405
 30
0.0
 11
80.620099999999994
 21
118.405
 31
0.0
  0
LINE
  5
2F0
  8
0
 62
     7
 10
81.012799999999999
 20
117.68300000000001
 30
0.0
 11
79.755700000000004
 21
117.68300000000001
 31
0.0
  0
LINE
  5
2F1
  8
0
 62
     7
 10
82.48899999999999
 20
121.756
 30
0.0
 11
82.48899999999999
 21
120.405
 31
0.0
  0
LINE
  5
2F2
  8
0
 62
     7
 10
82.48899999999999
 20
121.756
 30
0.0
 11
81.012799999999999
 21
121.756
 31
0.0
  0
LINE
  5
2F3
  8
0
 62
     7
 10
82.270300000000006
 20
120.18600000000001
 30
0.0
 11
82.270300000000006
 21
118.405
 31
0.0
  0
LINE
  5
2F4
  8
0
 62
     7
 10
82.270300000000006
 20
120.18600000000001
 30
0.0
 11
82.48899999999999
 21
120.405
 31
0.0
  0
LINE
  5
2F5
  8
0
 62
     7
 10
81.405900000000017
 20
120.18600000000001
 30
0.0
 11
81.405900000000017
 21
118.405
 31
0.0
  0
LINE
  5
2F6
  8
0
 62
     7
 10
81.718400000000017
 20
120.18600000000001
 30
0.0
 11
81.718400000000017
 21
118.405
 31
0.0
  0
LINE
  5
2F7
  8
0
 62
     7
 10
81.718400000000017
 20
120.18600000000001
 30
0.0
 11
82.270300000000006
 21
120.18600000000001
 31
0.0
  0
LINE
  5
2F8
  8
0
 62
     7
 10
81.012799999999999
 20
120.18600000000001
 30
0.0
 11
81.405900000000017
 21
120.18600000000001
 31
0.0
  0
ARC
  5
2F9
  8
0
 62
     7
 10
82.256225999999984
 20
118.02980599999999
 30
0.0
 40
0.375347
 50
2.143059
 51
87.856931000000003
  0
ARC
  5
2FA
  8
0
 62
     7
 10
82.257299000000003
 20
118.057519
 30
0.0
 40
0.374261
 50
271.98483399999998
 51
357.90572800000001
  0
LINE
  5
2FB
  8
0
 62
     7
 10
81.718400000000017
 20
118.405
 30
0.0
 11
82.270300000000006
 21
118.405
 31
0.0
  0
LINE
  5
2FC
  8
0
 62
     7
 10
81.012799999999999
 20
118.405
 30
0.0
 11
81.405900000000017
 21
118.405
 31
0.0
  0
LINE
  5
2FD
  8
0
 62
     7
 10
81.012799999999999
 20
117.68300000000001
 30
0.0
 11
82.270300000000006
 21
117.68300000000001
 31
0.0
  0
LINE
  5
2FE
  8
0
 62
     7
 10
75.932599999999994
 20
121.756
 30
0.0
 11
75.932599999999994
 21
120.405
 31
0.0
  0
LINE
  5
2FF
  8
0
 62
     7
 10
75.932599999999994
 20
121.756
 30
0.0
 11
77.408500000000004
 21
121.756
 31
0.0
  0
LINE
  5
300
  8
0
 62
     7
 10
76.151399999999995
 20
120.18600000000001
 30
0.0
 11
76.151399999999995
 21
118.405
 31
0.0
  0
LINE
  5
301
  8
0
 62
     7
 10
76.151399999999995
 20
120.18600000000001
 30
0.0
 11
75.932599999999994
 21
120.405
 31
0.0
  0
LINE
  5
302
  8
0
 62
     7
 10
77.015799999999984
 20
120.18600000000001
 30
0.0
 11
77.015799999999984
 21
118.405
 31
0.0
  0
LINE
  5
303
  8
0
 62
     7
 10
76.703000000000003
 20
120.18600000000001
 30
0.0
 11
76.703000000000003
 21
118.405
 31
0.0
  0
LINE
  5
304
  8
0
 62
     7
 10
76.703000000000003
 20
120.18600000000001
 30
0.0
 11
76.151399999999995
 21
120.18600000000001
 31
0.0
  0
LINE
  5
305
  8
0
 62
     7
 10
77.408500000000004
 20
120.18600000000001
 30
0.0
 11
77.015799999999984
 21
120.18600000000001
 31
0.0
  0
ARC
  5
306
  8
0
 62
     7
 10
76.165375999999995
 20
118.05854600000001
 30
0.0
 40
0.375324
 50
182.24523099999999
 51
267.86424699999998
  0
ARC
  5
307
  8
0
 62
     7
 10
76.165028000000007
 20
118.030203
 30
0.0
 40
0.374936
 50
92.084706000000025
 51
177.91526399999989
  0
LINE
  5
308
  8
0
 62
     7
 10
76.703000000000003
 20
118.405
 30
0.0
 11
76.151399999999995
 21
118.405
 31
0.0
  0
LINE
  5
309
  8
0
 62
     7
 10
77.408500000000004
 20
118.405
 30
0.0
 11
77.015799999999984
 21
118.405
 31
0.0
  0
LINE
  5
30A
  8
0
 62
     7
 10
77.408500000000004
 20
117.68300000000001
 30
0.0
 11
76.151399999999995
 21
117.68300000000001
 31
0.0
  0
LINE
  5
30B
  8
0
 62
     7
 10
78.884699999999995
 20
121.756
 30
0.0
 11
78.884699999999995
 21
120.405
 31
0.0
  0
LINE
  5
30C
  8
0
 62
     7
 10
78.884699999999995
 20
121.756
 30
0.0
 11
77.408500000000004
 21
121.756
 31
0.0
  0
LINE
  5
30D
  8
0
 62
     7
 10
78.665999999999997
 20
120.18600000000001
 30
0.0
 11
78.665999999999997
 21
118.405
 31
0.0
  0
LINE
  5
30E
  8
0
 62
     7
 10
78.665999999999997
 20
120.18600000000001
 30
0.0
 11
78.884699999999995
 21
120.405
 31
0.0
  0
LINE
  5
30F
  8
0
 62
     7
 10
77.801599999999993
 20
120.18600000000001
 30
0.0
 11
77.801599999999993
 21
118.405
 31
0.0
  0
LINE
  5
310
  8
0
 62
     7
 10
78.114099999999993
 20
120.18600000000001
 30
0.0
 11
78.114099999999993
 21
118.405
 31
0.0
  0
LINE
  5
311
  8
0
 62
     7
 10
78.114099999999993
 20
120.18600000000001
 30
0.0
 11
78.665999999999997
 21
120.18600000000001
 31
0.0
  0
LINE
  5
312
  8
0
 62
     7
 10
77.408500000000004
 20
120.18600000000001
 30
0.0
 11
77.801599999999993
 21
120.18600000000001
 31
0.0
  0
ARC
  5
313
  8
0
 62
     7
 10
78.651944
 20
118.02980599999999
 30
0.0
 40
0.375347
 50
2.143059
 51
87.856931000000003
  0
ARC
  5
314
  8
0
 62
     7
 10
78.653017000000006
 20
118.057519
 30
0.0
 40
0.374261
 50
271.98483399999998
 51
357.90572800000001
  0
LINE
  5
315
  8
0
 62
     7
 10
78.114099999999993
 20
118.405
 30
0.0
 11
78.665999999999997
 21
118.405
 31
0.0
  0
LINE
  5
316
  8
0
 62
     7
 10
77.408500000000004
 20
118.405
 30
0.0
 11
77.801599999999993
 21
118.405
 31
0.0
  0
LINE
  5
317
  8
0
 62
     7
 10
77.408500000000004
 20
117.68300000000001
 30
0.0
 11
78.665999999999997
 21
117.68300000000001
 31
0.0
  0
LINE
  5
318
  8
0
 62
     7
 10
79.536900000000003
 20
70.027500000000003
 30
0.0
 11
79.536900000000003
 21
68.676299999999998
 31
0.0
  0
LINE
  5
319
  8
0
 62
     7
 10
79.536900000000003
 20
70.027500000000003
 30
0.0
 11
81.012799999999999
 21
70.027500000000003
 31
0.0
  0
LINE
  5
31A
  8
0
 62
     7
 10
79.755700000000004
 20
68.457599999999999
 30
0.0
 11
79.755700000000004
 21
66.676500000000004
 31
0.0
  0
LINE
  5
31B
  8
0
 62
     7
 10
79.755700000000004
 20
68.457599999999999
 30
0.0
 11
79.536900000000003
 21
68.676299999999998
 31
0.0
  0
LINE
  5
31C
  8
0
 62
     7
 10
80.620099999999994
 20
68.457599999999999
 30
0.0
 11
80.620099999999994
 21
66.676500000000004
 31
0.0
  0
LINE
  5
31D
  8
0
 62
     7
 10
80.307199999999995
 20
68.457599999999999
 30
0.0
 11
80.307199999999995
 21
66.676500000000004
 31
0.0
  0
LINE
  5
31E
  8
0
 62
     7
 10
80.307199999999995
 20
68.457599999999999
 30
0.0
 11
79.755700000000004
 21
68.457599999999999
 31
0.0
  0
LINE
  5
31F
  8
0
 62
     7
 10
81.012799999999999
 20
68.457599999999999
 30
0.0
 11
80.620099999999994
 21
68.457599999999999
 31
0.0
  0
ARC
  5
320
  8
0
 62
     7
 10
79.769266000000002
 20
66.329717999999986
 30
0.0
 40
0.374917
 50
182.18759
 51
267.92188700000003
  0
ARC
  5
321
  8
0
 62
     7
 10
79.769314000000008
 20
66.301762999999994
 30
0.0
 40
0.37494
 50
92.085411000000008
 51
177.914559
  0
LINE
  5
322
  8
0
 62
     7
 10
80.307199999999995
 20
66.676500000000004
 30
0.0
 11
79.755700000000004
 21
66.676500000000004
 31
0.0
  0
LINE
  5
323
  8
0
 62
     7
 10
81.012799999999999
 20
66.676500000000004
 30
0.0
 11
80.620099999999994
 21
66.676500000000004
 31
0.0
  0
LINE
  5
324
  8
0
 62
     7
 10
80.013000000000005
 20
60.755000000000003
 30
0.0
 11
80.013000000000005
 21
65.954999999999998
 31
0.0
  0
LINE
  5
325
  8
0
 62
     7
 10
81.012799999999999
 20
65.954999999999998
 30
0.0
 11
79.755700000000004
 21
65.954999999999998
 31
0.0
  0
LINE
  5
326
  8
0
 62
     7
 10
82.48899999999999
 20
70.027500000000003
 30
0.0
 11
82.48899999999999
 21
68.676299999999998
 31
0.0
  0
LINE
  5
327
  8
0
 62
     7
 10
82.48899999999999
 20
70.027500000000003
 30
0.0
 11
81.012799999999999
 21
70.027500000000003
 31
0.0
  0
LINE
  5
328
  8
0
 62
     7
 10
82.270300000000006
 20
68.457599999999999
 30
0.0
 11
82.270300000000006
 21
66.676500000000004
 31
0.0
  0
LINE
  5
329
  8
0
 62
     7
 10
82.270300000000006
 20
68.457599999999999
 30
0.0
 11
82.48899999999999
 21
68.676299999999998
 31
0.0
  0
LINE
  5
32A
  8
0
 62
     7
 10
81.405900000000017
 20
68.457599999999999
 30
0.0
 11
81.405900000000017
 21
66.676500000000004
 31
0.0
  0
LINE
  5
32B
  8
0
 62
     7
 10
81.718400000000017
 20
68.457599999999999
 30
0.0
 11
81.718400000000017
 21
66.676500000000004
 31
0.0
  0
LINE
  5
32C
  8
0
 62
     7
 10
81.718400000000017
 20
68.457599999999999
 30
0.0
 11
82.270300000000006
 21
68.457599999999999
 31
0.0
  0
LINE
  5
32D
  8
0
 62
     7
 10
81.012799999999999
 20
68.457599999999999
 30
0.0
 11
81.405900000000017
 21
68.457599999999999
 31
0.0
  0
ARC
  5
32E
  8
0
 62
     7
 10
82.256618000000003
 20
66.301762999999994
 30
0.0
 40
0.374941
 50
2.085437999999999
 51
87.914551999999986
  0
ARC
  5
32F
  8
0
 62
     7
 10
82.257299000000003
 20
66.329083999999995
 30
0.0
 40
0.374261
 50
271.98483399999998
 51
357.90572800000001
  0
LINE
  5
330
  8
0
 62
     7
 10
81.718400000000017
 20
66.676500000000004
 30
0.0
 11
82.270300000000006
 21
66.676500000000004
 31
0.0
  0
LINE
  5
331
  8
0
 62
     7
 10
81.012799999999999
 20
66.676500000000004
 30
0.0
 11
81.405900000000017
 21
66.676500000000004
 31
0.0
  0
LINE
  5
332
  8
0
 62
     7
 10
82.012900000000002
 20
60.755000000000003
 30
0.0
 11
82.012900000000002
 21
65.954999999999998
 31
0.0
  0
LINE
  5
333
  8
0
 62
     7
 10
81.012799999999999
 20
65.954999999999998
 30
0.0
 11
82.270300000000006
 21
65.954999999999998
 31
0.0
  0
LINE
  5
334
  8
0
 62
     7
 10
82.213099999999997
 20
70.027900000000002
 30
0.0
 11
82.213099999999997
 21
92.590299999999999
 31
0.0
  0
LINE
  5
335
  8
0
 62
     7
 10
79.812899999999999
 20
70.027900000000002
 30
0.0
 11
79.812899999999999
 21
92.590299999999999
 31
0.0
  0
LINE
  5
336
  8
0
  6
AIGENLINE001
 62
     7
 10
81.012799999999999
 20
124.75700000000001
 30
0.0
 11
81.012799999999999
 21
59.603999999999992
 31
0.0
  0
LINE
  5
337
  8
0
 62
     7
 10
82.213099999999997
 20
94.072000000000017
 30
0.0
 11
82.213099999999997
 21
117.684
 31
0.0
  0
LINE
  5
338
  8
0
 62
     7
 10
79.812899999999999
 20
94.072000000000017
 30
0.0
 11
79.812899999999999
 21
117.684
 31
0.0
  0
ARC
  5
339
  8
0
 62
     7
 10
80.411967999999987
 20
93.519863000000001
 30
0.0
 40
0.8394879999999998
 50
56.397364000000003
 51
89.906151000000008
  0
ARC
  5
33A
  8
0
 62
     7
 10
80.591715000000008
 20
93.818543000000005
 30
0.0
 40
0.491489
 50
31.047467000000001
 51
54.579859999999996
  0
ARC
  5
33B
  8
0
 62
     7
 10
80.414714000000004
 20
93.517806999999991
 30
0.0
 40
0.8415450000000001
 50
90.093328999999983
 51
123.56032
  0
ARC
  5
33C
  8
0
 62
     7
 10
80.231554000000003
 20
93.821927000000002
 30
0.0
 40
0.487113
 50
125.38305
 51
149.10708199999999
  0
ARC
  5
33D
  8
0
 62
     7
 10
80.414714000000004
 20
94.627021999999997
 30
0.0
 40
0.841974
 50
236.459104
 51
269.90674300000001
  0
ARC
  5
33E
  8
0
 62
     7
 10
80.232045999999997
 20
94.323282999999989
 30
0.0
 40
0.488129
 50
210.9795720000001
 51
234.630763
  0
ARC
  5
33F
  8
0
 62
     7
 10
80.411968999999999
 20
94.624965000000003
 30
0.0
 40
0.8399169999999999
 50
270.09377699999999
 51
303.583191
  0
ARC
  5
340
  8
0
 62
     7
 10
80.591208999999992
 20
94.326686999999978
 30
0.0
 40
0.4925290000000001
 50
305.40635300000002
 51
328.865837
  0
ARC
  5
341
  8
0
 62
     7
 10
81.614643999999984
 20
94.627347999999984
 30
0.0
 40
0.8423000000000001
 50
236.46578400000001
 51
269.90705800000001
  0
ARC
  5
342
  8
0
 62
     7
 10
81.435541000000015
 20
94.328364000000008
 30
0.0
 40
0.494393
 50
211.23093
 51
234.62547599999999
  0
ARC
  5
343
  8
0
 62
     7
 10
81.611902000000001
 20
94.625217000000006
 30
0.0
 40
0.8401690000000001
 50
270.09379999999999
 51
303.57799899999998
  0
ARC
  5
344
  8
0
 62
     7
 10
81.790167000000011
 20
94.328438000000006
 30
0.0
 40
0.494565
 50
305.38809500000002
 51
328.77131200000002
  0
LINE
  5
345
  8
0
 62
     7
 10
78.608800000000002
 20
117.27
 30
0.0
 11
78.194699999999983
 21
117.684
 31
0.0
  0
LINE
  5
346
  8
0
 62
     7
 10
76.622699999999995
 20
117.684
 30
0.0
 11
76.208600000000004
 21
117.27
 31
0.0
  0
LINE
  5
347
  8
0
 62
     7
 10
78.608800000000002
 20
116.389
 30
0.0
 11
77.313800000000001
 21
117.684
 31
0.0
  0
LINE
  5
348
  8
0
 62
     7
 10
77.503600000000006
 20
117.684
 30
0.0
 11
76.208600000000004
 21
116.389
 31
0.0
  0
LINE
  5
349
  8
0
 62
     7
 10
78.608800000000002
 20
115.508
 30
0.0
 11
76.432900000000004
 21
117.684
 31
0.0
  0
LINE
  5
34A
  8
0
 62
     7
 10
78.384200000000007
 20
117.684
 30
0.0
 11
76.208600000000004
 21
115.508
 31
0.0
  0
LINE
  5
34B
  8
0
 62
     7
 10
78.031400000000005
 20
115.20399999999999
 30
0.0
 11
76.208600000000004
 21
117.027
 31
0.0
  0
LINE
  5
34C
  8
0
 62
     7
 10
78.608800000000002
 20
117.027
 30
0.0
 11
76.785300000000007
 21
115.20399999999999
 31
0.0
  0
LINE
  5
34D
  8
0
 62
     7
 10
77.150800000000004
 20
115.20399999999999
 30
0.0
 11
76.208600000000004
 21
116.146
 31
0.0
  0
LINE
  5
34E
  8
0
 62
     7
 10
78.608800000000002
 20
116.146
 30
0.0
 11
77.666200000000003
 21
115.20399999999999
 31
0.0
  0
ARC
  5
34F
  8
0
 62
     7
 10
78.009682999999995
 20
93.142004
 30
0.0
 40
0.8390450000000002
 50
236.37098900000001
 51
269.90602899999999
  0
ARC
  5
350
  8
0
 62
     7
 10
77.832390000000004
 20
92.847270999999992
 30
0.0
 40
0.495697
 50
211.22761199999999
 51
234.566935
  0
ARC
  5
351
  8
0
 62
     7
 10
78.006939000000003
 20
93.142797999999985
 30
0.0
 40
0.8398389999999999
 50
270.09336999999999
 51
303.61265900000001
  0
ARC
  5
352
  8
0
 62
     7
 10
78.185687999999999
 20
92.84542900000001
 30
0.0
 40
0.4934910000000001
 50
305.44204000000002
 51
328.86719900000003
  0
ARC
  5
353
  8
0
 62
     7
 10
78.006939000000003
 20
92.036297999999988
 30
0.0
 40
0.8409639999999999
 50
56.438350999999997
 51
89.906818999999999
  0
ARC
  5
354
  8
0
 62
     7
 10
78.186655000000002
 20
92.335708999999994
 30
0.0
 40
0.492367
 50
31.133882
 51
54.602957999999987
  0
ARC
  5
355
  8
0
 62
     7
 10
78.009681999999984
 20
92.037092999999984
 30
0.0
 40
0.8401690000000001
 50
90.093780999999993
 51
123.57798
  0
ARC
  5
356
  8
0
 62
     7
 10
77.831417000000002
 20
92.333872999999997
 30
0.0
 40
0.494565
 50
125.388075
 51
148.77129199999999
  0
ARC
  5
357
  8
0
 62
     7
 10
76.807003000000009
 20
92.035539999999997
 30
0.0
 40
0.841722
 50
56.453902999999997
 51
89.906746999999996
  0
ARC
  5
358
  8
0
 62
     7
 10
76.987314999999995
 20
92.335712000000001
 30
0.0
 40
0.492151
 50
31.148699000000001
 51
54.637783999999989
  0
ARC
  5
359
  8
0
 62
     7
 10
76.809740000000005
 20
92.036297999999988
 30
0.0
 40
0.8409639999999999
 50
90.093160999999995
 51
123.561629
  0
ARC
  5
35A
  8
0
 62
     7
 10
76.630025000000003
 20
92.335708999999994
 30
0.0
 40
0.492367
 50
125.39702200000001
 51
148.86609899999999
  0
LINE
  5
35B
  8
0
 62
     7
 10
78.408600000000007
 20
62.755200000000002
 30
0.0
 11
76.408699999999996
 21
62.755200000000002
 31
0.0
  0
LINE
  5
35C
  8
0
 62
     7
 10
78.408600000000007
 20
60.755000000000003
 30
0.0
 11
76.408699999999996
 21
60.755000000000003
 31
0.0
  0
LINE
  5
35D
  8
0
 62
     7
 10
75.932599999999994
 20
70.027500000000003
 30
0.0
 11
75.932599999999994
 21
68.676299999999998
 31
0.0
  0
LINE
  5
35E
  8
0
 62
     7
 10
75.932599999999994
 20
70.027500000000003
 30
0.0
 11
77.408500000000004
 21
70.027500000000003
 31
0.0
  0
LINE
  5
35F
  8
0
 62
     7
 10
76.151399999999995
 20
68.457599999999999
 30
0.0
 11
76.151399999999995
 21
66.676500000000004
 31
0.0
  0
LINE
  5
360
  8
0
 62
     7
 10
76.151399999999995
 20
68.457599999999999
 30
0.0
 11
75.932599999999994
 21
68.676299999999998
 31
0.0
  0
LINE
  5
361
  8
0
 62
     7
 10
77.015799999999984
 20
68.457599999999999
 30
0.0
 11
77.015799999999984
 21
66.676500000000004
 31
0.0
  0
LINE
  5
362
  8
0
 62
     7
 10
76.703000000000003
 20
68.457599999999999
 30
0.0
 11
76.703000000000003
 21
66.676500000000004
 31
0.0
  0
LINE
  5
363
  8
0
 62
     7
 10
76.703000000000003
 20
68.457599999999999
 30
0.0
 11
76.151399999999995
 21
68.457599999999999
 31
0.0
  0
LINE
  5
364
  8
0
 62
     7
 10
77.408500000000004
 20
68.457599999999999
 30
0.0
 11
77.015799999999984
 21
68.457599999999999
 31
0.0
  0
ARC
  5
365
  8
0
 62
     7
 10
76.16498399999999
 20
66.329717999999986
 30
0.0
 40
0.374917
 50
182.18759
 51
267.92188700000003
  0
ARC
  5
366
  8
0
 62
     7
 10
76.165032999999994
 20
66.301762999999994
 30
0.0
 40
0.37494
 50
92.085411000000008
 51
177.914559
  0
LINE
  5
367
  8
0
 62
     7
 10
76.703000000000003
 20
66.676500000000004
 30
0.0
 11
76.151399999999995
 21
66.676500000000004
 31
0.0
  0
LINE
  5
368
  8
0
 62
     7
 10
77.408500000000004
 20
66.676500000000004
 30
0.0
 11
77.015799999999984
 21
66.676500000000004
 31
0.0
  0
LINE
  5
369
  8
0
 62
     7
 10
76.408699999999996
 20
60.755000000000003
 30
0.0
 11
76.408699999999996
 21
65.954999999999998
 31
0.0
  0
LINE
  5
36A
  8
0
 62
     7
 10
77.408500000000004
 20
65.954999999999998
 30
0.0
 11
76.151399999999995
 21
65.954999999999998
 31
0.0
  0
LINE
  5
36B
  8
0
 62
     7
 10
78.884699999999995
 20
70.027500000000003
 30
0.0
 11
78.884699999999995
 21
68.676299999999998
 31
0.0
  0
LINE
  5
36C
  8
0
 62
     7
 10
78.884699999999995
 20
70.027500000000003
 30
0.0
 11
77.408500000000004
 21
70.027500000000003
 31
0.0
  0
LINE
  5
36D
  8
0
 62
     7
 10
78.665999999999997
 20
68.457599999999999
 30
0.0
 11
78.665999999999997
 21
66.676500000000004
 31
0.0
  0
LINE
  5
36E
  8
0
 62
     7
 10
78.665999999999997
 20
68.457599999999999
 30
0.0
 11
78.884699999999995
 21
68.676299999999998
 31
0.0
  0
LINE
  5
36F
  8
0
 62
     7
 10
77.801599999999993
 20
68.457599999999999
 30
0.0
 11
77.801599999999993
 21
66.676500000000004
 31
0.0
  0
LINE
  5
370
  8
0
 62
     7
 10
78.114099999999993
 20
68.457599999999999
 30
0.0
 11
78.114099999999993
 21
66.676500000000004
 31
0.0
  0
LINE
  5
371
  8
0
 62
     7
 10
78.114099999999993
 20
68.457599999999999
 30
0.0
 11
78.665999999999997
 21
68.457599999999999
 31
0.0
  0
LINE
  5
372
  8
0
 62
     7
 10
77.408500000000004
 20
68.457599999999999
 30
0.0
 11
77.801599999999993
 21
68.457599999999999
 31
0.0
  0
ARC
  5
373
  8
0
 62
     7
 10
78.652336000000005
 20
66.301762999999994
 30
0.0
 40
0.374941
 50
2.085437999999999
 51
87.914551999999986
  0
ARC
  5
374
  8
0
 62
     7
 10
78.653017000000006
 20
66.329083999999995
 30
0.0
 40
0.374261
 50
271.98483399999998
 51
357.90572800000001
  0
LINE
  5
375
  8
0
 62
     7
 10
78.114099999999993
 20
66.676500000000004
 30
0.0
 11
78.665999999999997
 21
66.676500000000004
 31
0.0
  0
LINE
  5
376
  8
0
 62
     7
 10
77.408500000000004
 20
66.676500000000004
 30
0.0
 11
77.801599999999993
 21
66.676500000000004
 31
0.0
  0
LINE
  5
377
  8
0
 62
     7
 10
78.408600000000007
 20
60.755000000000003
 30
0.0
 11
78.408600000000007
 21
65.954999999999998
 31
0.0
  0
LINE
  5
378
  8
0
 62
     7
 10
77.408500000000004
 20
65.954999999999998
 30
0.0
 11
78.665999999999997
 21
65.954999999999998
 31
0.0
  0
LINE
  5
379
  8
0
 62
     7
 10
78.608800000000002
 20
70.027900000000002
 30
0.0
 11
78.608800000000002
 21
92.590299999999999
 31
0.0
  0
LINE
  5
37A
  8
0
 62
     7
 10
76.208600000000004
 20
70.027900000000002
 30
0.0
 11
76.208600000000004
 21
92.590299999999999
 31
0.0
  0
LINE
  5
37B
  8
0
  6
AIGENLINE001
 62
     7
 10
77.408500000000004
 20
124.75700000000001
 30
0.0
 11
77.408500000000004
 21
59.603999999999992
 31
0.0
  0
LINE
  5
37C
  8
0
 62
     7
 10
78.608800000000002
 20
94.072000000000017
 30
0.0
 11
78.608800000000002
 21
117.684
 31
0.0
  0
LINE
  5
37D
  8
0
 62
     7
 10
76.208600000000004
 20
94.072000000000017
 30
0.0
 11
76.208600000000004
 21
117.684
 31
0.0
  0
ARC
  5
37E
  8
0
 62
     7
 10
76.807687000000001
 20
93.519863000000001
 30
0.0
 40
0.8394879999999998
 50
56.397364000000003
 51
89.906151000000008
  0
ARC
  5
37F
  8
0
 62
     7
 10
76.987432999999996
 20
93.818543000000005
 30
0.0
 40
0.491489
 50
31.047467000000001
 51
54.579859999999996
  0
ARC
  5
380
  8
0
 62
     7
 10
76.810432999999975
 20
93.517806999999991
 30
0.0
 40
0.8415450000000001
 50
90.093328999999983
 51
123.56032
  0
ARC
  5
381
  8
0
 62
     7
 10
76.627271999999991
 20
93.821927000000002
 30
0.0
 40
0.487113
 50
125.38305
 51
149.10708199999999
  0
ARC
  5
382
  8
0
 62
     7
 10
76.810431999999992
 20
94.627021999999997
 30
0.0
 40
0.841974
 50
236.459104
 51
269.90674300000001
  0
ARC
  5
383
  8
0
 62
     7
 10
76.627764999999997
 20
94.323282999999989
 30
0.0
 40
0.488129
 50
210.9795720000001
 51
234.630763
  0
ARC
  5
384
  8
0
 62
     7
 10
76.807687000000001
 20
94.624965000000003
 30
0.0
 40
0.8399169999999999
 50
270.09377699999999
 51
303.583191
  0
ARC
  5
385
  8
0
 62
     7
 10
76.986927000000009
 20
94.326686999999978
 30
0.0
 40
0.4925290000000001
 50
305.40635300000002
 51
328.865837
  0
ARC
  5
386
  8
0
 62
     7
 10
78.010362000000001
 20
94.627347999999984
 30
0.0
 40
0.8423000000000001
 50
236.46578400000001
 51
269.90705800000001
  0
ARC
  5
387
  8
0
 62
     7
 10
77.83126
 20
94.328364000000008
 30
0.0
 40
0.494393
 50
211.23093
 51
234.62547599999999
  0
ARC
  5
388
  8
0
 62
     7
 10
78.007621
 20
94.625217000000006
 30
0.0
 40
0.8401690000000001
 50
270.09379999999999
 51
303.57799899999998
  0
ARC
  5
389
  8
0
 62
     7
 10
78.185885999999996
 20
94.328438000000006
 30
0.0
 40
0.494565
 50
305.38809500000002
 51
328.77131200000002
  0
ARC
  5
38A
  8
0
 62
     7
 10
79.297460000000001
 20
232.144599
 30
0.0
 40
12.265827
 50
225.23738399999999
 51
269.71360600000003
  0
ARC
  5
38B
  8
0
 62
     7
 10
79.174876999999995
 20
232.14424199999999
 30
0.0
 40
12.265471
 50
270.28622200000001
 51
314.71416399999998
  0
ARC
  5
38C
  8
0
 62
     7
 10
154.396567
 20
206.61796000000001
 30
0.0
 40
4.5714759999999997
 50
272.10952099999997
 51
357.890488
  0
ARC
  5
38D
  8
0
 62
     7
 10
154.73390900000001
 20
206.618753
 30
0.0
 40
4.5722979999999991
 50
182.11909399999999
 51
267.88093600000002
  0
ARC
  5
38E
  8
0
 62
     7
 10
154.733114
 20
206.28141299999999
 30
0.0
 40
4.5714750000000004
 50
92.109483999999995
 51
177.89048600000001
  0
ARC
  5
38F
  8
0
 62
     7
 10
154.39577299999999
 20
206.28061700000001
 30
0.0
 40
4.5722990000000001
 50
2.1190919999999989
 51
87.880899000000014
  0
ARC
  5
390
  8
0
 62
     7
 10
114.468648
 20
206.545491
 30
0.0
 40
2.597515
 50
272.109801
 51
357.88626099999999
  0
ARC
  5
391
  8
0
 62
     7
 10
114.659288
 20
206.54487800000001
 30
0.0
 40
2.5968810000000002
 50
182.100751
 51
267.90322700000002
  0
ARC
  5
392
  8
0
 62
     7
 10
114.659899
 20
206.353881
 30
0.0
 40
2.597513999999999
 50
92.109764000000013
 51
177.886259
  0
ARC
  5
393
  8
0
 62
     7
 10
114.46926000000001
 20
206.35449199999999
 30
0.0
 40
2.5968810000000002
 50
2.1007479999999989
 51
87.903190000000009
  0
LINE
  5
394
  8
0
 62
     7
 10
156.33199999999999
 20
204.68199999999999
 30
0.0
 11
161.31899999999999
 21
199.69499999999999
 31
0.0
  0
LINE
  5
395
  8
0
 62
     7
 10
161.31899999999999
 20
199.69499999999999
 30
0.0
 11
166.773
 21
199.69499999999999
 31
0.0
  0
LINE
  5
397
  8
0
 62
     7
 10
159.63999999999999
 20
202.21000000000001
 30
0.0
 11
157.65899999999999
 21
203.35499999999999
 31
0.0
  0
LINE
  5
398
  8
0
 62
     7
 10
157.65899999999999
 20
203.35499999999999
 30
0.0
 11
158.803
 21
201.37299999999999
 31
0.0
  0
LINE
  5
399
  8
0
 62
     7
 10
158.803
 20
201.37299999999999
 30
0.0
 11
159.63999999999999
 21
202.21000000000001
 31
0.0
  0
LINE
  5
39A
  8
0
 62
     7
 10
157.65899999999999
 20
203.35499999999999
 30
0.0
 11
151.47200000000001
 21
209.54300000000001
 31
0.0
  0
LINE
  5
39B
  8
0
 62
     7
 10
152.797
 20
208.21799999999999
 30
0.0
 11
147.63399999999999
 21
213.381
 31
0.0
  0
LINE
  5
39C
  8
0
  6
AIGENLINE003
 62
     7
 10
106.29900000000001
 20
206.44999999999999
 30
0.0
 11
165.56599999999989
 21
206.44999999999999
 31
0.0
  0
LINE
  5
39D
  8
0
 62
     7
 10
116.33199999999999
 20
204.68199999999999
 30
0.0
 11
121.319
 21
199.69499999999999
 31
0.0
  0
LINE
  5
39E
  8
0
 62
     7
 10
121.319
 20
199.69499999999999
 30
0.0
 11
126.61199999999999
 21
199.69499999999999
 31
0.0
  0
LINE
  5
3A0
  8
0
  6
AIGENLINE003
 62
     7
 10
114.56399999999999
 20
200.60400000000001
 30
0.0
 11
114.56399999999999
 21
213.06899999999999
 31
0.0
  0
LINE
  5
3A1
  8
0
 62
     7
 10
149.49000000000001
 20
210.68799999999999
 30
0.0
 11
151.47200000000001
 21
209.54300000000001
 31
0.0
  0
LINE
  5
3A2
  8
0
 62
     7
 10
151.47200000000001
 20
209.54300000000001
 30
0.0
 11
150.328
 21
211.52600000000001
 31
0.0
  0
LINE
  5
3A3
  8
0
 62
     7
 10
150.328
 20
211.52600000000001
 30
0.0
 11
149.49000000000001
 21
210.68799999999999
 31
0.0
  0
LINE
  5
3A4
  8
0
 62
     7
 10
71.957300000000004
 20
221.55500000000001
 30
0.0
 11
70.657799999999995
 21
223.43799999999999
 31
0.0
  0
LINE
  5
3A5
  8
0
 62
     7
 10
70.657799999999995
 20
223.43799999999999
 30
0.0
 11
72.725200000000001
 21
222.45599999999999
 31
0.0
  0
LINE
  5
3A6
  8
0
 62
     7
 10
72.725200000000001
 20
222.45599999999999
 30
0.0
 11
71.957300000000004
 21
221.55500000000001
 31
0.0
  0
LINE
  5
3A7
  8
0
 62
     7
 10
86.515000000000001
 20
221.55500000000001
 30
0.0
 11
87.814499999999995
 21
223.43799999999999
 31
0.0
  0
LINE
  5
3A8
  8
0
 62
     7
 10
87.814499999999995
 20
223.43799999999999
 30
0.0
 11
85.747100000000003
 21
222.45599999999999
 31
0.0
  0
LINE
  5
3A9
  8
0
 62
     7
 10
85.747100000000003
 20
222.45599999999999
 30
0.0
 11
86.515000000000001
 21
221.55500000000001
 31
0.0
  0
LINE
  5
3AA
  8
0
 62
     7
 10
110.815
 20
209.36199999999999
 30
0.0
 11
112.797
 21
208.21799999999999
 31
0.0
  0
LINE
  5
3AB
  8
0
 62
     7
 10
112.797
 20
208.21799999999999
 30
0.0
 11
111.65300000000001
 21
210.19999999999999
 31
0.0
  0
LINE
  5
3AC
  8
0
 62
     7
 10
111.65300000000001
 20
210.19999999999999
 30
0.0
 11
110.815
 21
209.36199999999999
 31
0.0
  0
LINE
  5
3AD
  8
0
 62
     7
 10
118.313
 20
203.53700000000001
 30
0.0
 11
116.33199999999999
 21
204.68199999999999
 31
0.0
  0
LINE
  5
3AE
  8
0
 62
     7
 10
116.33199999999999
 20
204.68199999999999
 30
0.0
 11
117.476
 21
202.69999999999999
 31
0.0
  0
LINE
  5
3AF
  8
0
 62
     7
 10
117.476
 20
202.69999999999999
 30
0.0
 11
118.313
 21
203.53700000000001
 31
0.0
  0
LINE
  5
3B0
  8
0
 62
     7
 10
117.658
 20
203.35499999999999
 30
0.0
 11
111.471
 21
209.54300000000001
 31
0.0
  0
LINE
  5
3B1
  8
0
 62
     7
 10
112.797
 20
208.21799999999999
 30
0.0
 11
107.633
 21
213.381
 31
0.0
  0
LINE
  5
3B2
  8
0
  6
AIGENLINE001
 62
     7
 10
154.565
 20
215.89099999999999
 30
0.0
 11
154.565
 21
196.84100000000001
 31
0.0
  0
LINE
  5
3B3
  8
0
 62
     7
 10
98.304000000000002
 20
145.22399999999999
 30
0.0
 11
89.096400000000017
 21
145.22399999999999
 31
0.0
  0
LINE
  5
3B4
  8
0
 62
     7
 10
84.380600000000001
 20
141.346
 30
0.0
 11
83.236299999999986
 21
139.364
 31
0.0
  0
LINE
  5
3B5
  8
0
 62
     7
 10
83.236299999999986
 20
139.364
 30
0.0
 11
85.218199999999996
 21
140.50899999999999
 31
0.0
  0
LINE
  5
3B6
  8
0
 62
     7
 10
85.218199999999996
 20
140.50899999999999
 30
0.0
 11
84.380600000000001
 21
141.346
 31
0.0
  0
LINE
  5
3B7
  8
0
 62
     7
 10
83.236299999999986
 20
139.364
 30
0.0
 11
89.096400000000017
 21
145.22399999999999
 31
0.0
  0
LINE
  5
3B8
  8
0
 62
     7
 10
95.289000000000001
 20
60.755000000000003
 30
0.0
 11
82.813199999999995
 21
60.755000000000003
 31
0.0
  0
LINE
  5
3B9
  8
0
 62
     7
 10
93.904100000000014
 20
62.966099999999997
 30
0.0
 11
94.495900000000006
 21
60.755299999999998
 31
0.0
  0
LINE
  5
3BA
  8
0
 62
     7
 10
94.495900000000006
 20
60.755299999999998
 30
0.0
 11
95.088499999999996
 21
62.966099999999997
 31
0.0
  0
LINE
  5
3BB
  8
0
 62
     7
 10
95.088499999999996
 20
62.966099999999997
 30
0.0
 11
93.904100000000014
 21
62.966099999999997
 31
0.0
  0
LINE
  5
3BC
  8
0
 62
     7
 10
95.081599999999995
 20
119.54600000000001
 30
0.0
 11
94.489099999999993
 21
121.756
 31
0.0
  0
LINE
  5
3BD
  8
0
 62
     7
 10
94.489099999999993
 20
121.756
 30
0.0
 11
93.896799999999999
 21
119.54600000000001
 31
0.0
  0
LINE
  5
3BE
  8
0
 62
     7
 10
93.896799999999999
 20
119.54600000000001
 30
0.0
 11
95.081599999999995
 21
119.54600000000001
 31
0.0
  0
LINE
  5
3BF
  8
0
 62
     7
 10
95.073999999999998
 20
130.54400000000001
 30
0.0
 11
94.481499999999997
 21
132.755
 31
0.0
  0
LINE
  5
3C0
  8
0
 62
     7
 10
94.481499999999997
 20
132.755
 30
0.0
 11
93.889300000000006
 21
130.54400000000001
 31
0.0
  0
LINE
  5
3C1
  8
0
 62
     7
 10
93.889300000000006
 20
130.54400000000001
 30
0.0
 11
95.073999999999998
 21
130.54400000000001
 31
0.0
  0
LINE
  5
3C2
  8
0
 62
     7
 10
94.489099999999993
 20
60.755000000000003
 30
0.0
 11
94.489099999999993
 21
132.755
 31
0.0
  0
LINE
  5
3C3
  8
0
 62
     7
 10
95.289000000000001
 20
132.755
 30
0.0
 11
86.149299999999997
 21
132.755
 31
0.0
  0
LINE
  5
3C4
  8
0
 62
     7
 10
79.210999999999999
 20
148.78399999999999
 30
0.0
 11
79.210999999999999
 21
144.172
 31
0.0
  0
LINE
  5
3C5
  8
0
 62
     7
 10
75.447000000000003
 20
150.34
 30
0.0
 11
73.236599999999996
 21
149.74799999999999
 31
0.0
  0
LINE
  5
3C6
  8
0
 62
     7
 10
73.236599999999996
 20
149.74799999999999
 30
0.0
 11
75.447000000000003
 21
149.15600000000001
 31
0.0
  0
LINE
  5
3C7
  8
0
 62
     7
 10
75.447000000000003
 20
149.15600000000001
 30
0.0
 11
75.447000000000003
 21
150.34
 31
0.0
  0
LINE
  5
3C8
  8
0
 62
     7
 10
83.025099999999995
 20
149.1699999999999
 30
0.0
 11
85.236000000000004
 21
149.76300000000001
 31
0.0
  0
LINE
  5
3C9
  8
0
 62
     7
 10
85.236000000000004
 20
149.76300000000001
 30
0.0
 11
83.025099999999995
 21
150.35499999999999
 31
0.0
  0
LINE
  5
3CA
  8
0
 62
     7
 10
83.025099999999995
 20
150.35499999999999
 30
0.0
 11
83.025099999999995
 21
149.1699999999999
 31
0.0
  0
LINE
  5
3CB
  8
0
 62
     7
 10
73.236099999999993
 20
149.755
 30
0.0
 11
85.236199999999997
 21
149.755
 31
0.0
  0
LINE
  5
3CC
  8
0
 62
     7
 10
85.236199999999997
 20
134.55600000000001
 30
0.0
 11
85.236199999999997
 21
150.55500000000001
 31
0.0
  0
LINE
  5
3CD
  8
0
 62
     7
 10
73.236099999999993
 20
134.55600000000001
 30
0.0
 11
73.236099999999993
 21
150.55500000000001
 31
0.0
  0
LINE
  5
3CE
  8
0
 62
     7
 10
46.646500000000003
 20
141.755
 30
0.0
 11
43.235700000000001
 21
141.755
 31
0.0
  0
LINE
  5
3CF
  8
0
 62
     7
 10
35.235799999999998
 20
141.755
 30
0.0
 11
27.124099999999999
 21
141.755
 31
0.0
  0
LINE
  5
3D0
  8
0
 62
     7
 10
35.235799999999998
 20
134.55600000000001
 30
0.0
 11
35.235799999999998
 21
142.55500000000001
 31
0.0
  0
LINE
  5
3D1
  8
0
 62
     7
 10
43.235700000000001
 20
134.55600000000001
 30
0.0
 11
43.235700000000001
 21
142.55500000000001
 31
0.0
  0
LINE
  5
3D2
  8
0
 62
     7
 10
45.704599999999992
 20
142.34
 30
0.0
 11
43.494300000000003
 21
141.74799999999999
 31
0.0
  0
LINE
  5
3D3
  8
0
 62
     7
 10
43.494300000000003
 20
141.74799999999999
 30
0.0
 11
45.704599999999992
 21
141.15600000000001
 31
0.0
  0
LINE
  5
3D4
  8
0
 62
     7
 10
45.704599999999992
 20
141.15600000000001
 30
0.0
 11
45.704599999999992
 21
142.34
 31
0.0
  0
LINE
  5
3D5
  8
0
 62
     7
 10
33.024900000000009
 20
141.16999999999999
 30
0.0
 11
35.235799999999998
 21
141.762
 31
0.0
  0
LINE
  5
3D6
  8
0
 62
     7
 10
35.235799999999998
 20
141.762
 30
0.0
 11
33.024900000000009
 21
142.35499999999999
 31
0.0
  0
LINE
  5
3D7
  8
0
 62
     7
 10
33.024900000000009
 20
142.35499999999999
 30
0.0
 11
33.024900000000009
 21
141.16999999999999
 31
0.0
  0
LINE
  5
3D8
  8
0
 62
     7
 10
35.235799999999998
 20
141.755
 30
0.0
 11
43.235700000000001
 21
141.755
 31
0.0
  0
LINE
  5
3D9
  8
0
 62
     7
 10
79.210999999999999
 20
161.96600000000001
 30
0.0
 11
79.210999999999999
 21
154.15799999999999
 31
0.0
  0
LINE
  5
3DA
  8
0
 62
     7
 10
41.445999999999998
 20
161.75
 30
0.0
 11
39.235599999999998
 21
161.15799999999999
 31
0.0
  0
LINE
  5
3DB
  8
0
 62
     7
 10
39.235599999999998
 20
161.15799999999999
 30
0.0
 11
41.445999999999998
 21
160.566
 31
0.0
  0
LINE
  5
3DC
  8
0
 62
     7
 10
41.445999999999998
 20
160.566
 30
0.0
 11
41.445999999999998
 21
161.75
 31
0.0
  0
LINE
  5
3DD
  8
0
 62
     7
 10
76.999899999999997
 20
160.58099999999999
 30
0.0
 11
79.210800000000006
 21
161.173
 31
0.0
  0
LINE
  5
3DE
  8
0
 62
     7
 10
79.210800000000006
 20
161.173
 30
0.0
 11
76.999899999999997
 21
161.76499999999999
 31
0.0
  0
LINE
  5
3DF
  8
0
 62
     7
 10
76.999899999999997
 20
161.76499999999999
 30
0.0
 11
76.999899999999997
 21
160.58099999999999
 31
0.0
  0
LINE
  5
3E0
  8
0
 62
     7
 10
39.235599999999998
 20
161.166
 30
0.0
 11
79.210999999999999
 21
161.166
 31
0.0
  0
LINE
  5
3E1
  8
0
 62
     7
 10
58.999499999999998
 20
170.33799999999999
 30
0.0
 11
46.996099999999991
 21
170.33799999999999
 31
0.0
  0
LINE
  5
3E2
  8
0
 62
     7
 10
42.280199999999986
 20
166.46000000000001
 30
0.0
 11
41.135899999999999
 21
164.47800000000001
 31
0.0
  0
LINE
  5
3E3
  8
0
 62
     7
 10
41.135899999999999
 20
164.47800000000001
 30
0.0
 11
43.117899999999999
 21
165.62200000000001
 31
0.0
  0
LINE
  5
3E4
  8
0
 62
     7
 10
43.117899999999999
 20
165.62200000000001
 30
0.0
 11
42.280199999999986
 21
166.46000000000001
 31
0.0
  0
LINE
  5
3E5
  8
0
 62
     7
 10
41.135899999999999
 20
164.47800000000001
 30
0.0
 11
46.996099999999991
 21
170.33799999999999
 31
0.0
  0
LINE
  5
3E6
  8
0
 62
     7
 10
79.236099999999993
 20
132.755
 30
0.0
 11
85.236199999999997
 21
132.755
 31
0.0
  0
LINE
  5
3E7
  8
0
  6
AIGENLINE001
 62
     7
 10
79.210999999999999
 20
103.32899999999999
 30
0.0
 11
79.210999999999999
 21
143.57599999999999
 31
0.0
  0
LINE
  5
3E8
  8
0
 62
     7
 10
73.236099999999993
 20
132.755
 30
0.0
 11
79.236099999999993
 21
132.755
 31
0.0
  0
LINE
  5
3E9
  8
0
 62
     7
 10
78.236000000000004
 20
139.756
 30
0.0
 11
78.236000000000004
 21
141.755
 31
0.0
  0
LINE
  5
3EA
  8
0
 62
     7
 10
80.2363
 20
139.756
 30
0.0
 11
80.2363
 21
141.755
 31
0.0
  0
LINE
  5
3EB
  8
0
 62
     7
 10
78.236000000000004
 20
139.756
 30
0.0
 11
80.2363
 21
139.756
 31
0.0
  0
ARC
  5
3EC
  8
0
 62
     7
 10
79.209175000000002
 20
140.72846200000001
 30
0.0
 40
0.7275199999999999
 50
2.1246350000000001
 51
87.875354999999999
  0
ARC
  5
3ED
  8
0
 62
     7
 10
79.262726000000001
 20
140.72885400000001
 30
0.0
 40
0.7271130000000001
 50
92.094871999999995
 51
177.90509800000001
  0
ARC
  5
3EE
  8
0
 62
     7
 10
79.263118000000006
 20
140.78240500000001
 30
0.0
 40
0.7275199999999999
 50
182.12465499999999
 51
267.87537500000002
  0
ARC
  5
3EF
  8
0
 62
     7
 10
79.209567000000007
 20
140.78201299999989
 30
0.0
 40
0.7271130000000001
 50
272.09490899999997
 51
357.905101
  0
LINE
  5
3F0
  8
0
 62
     7
 10
75.236000000000004
 20
141.755
 30
0.0
 11
83.236299999999986
 21
141.755
 31
0.0
  0
LINE
  5
3F1
  8
0
 62
     7
 10
83.236299999999986
 20
134.155
 30
0.0
 11
83.236299999999986
 21
141.755
 31
0.0
  0
LINE
  5
3F2
  8
0
 62
     7
 10
73.236099999999993
 20
133.756
 30
0.0
 11
85.236199999999997
 21
133.756
 31
0.0
  0
LINE
  5
3F3
  8
0
 62
     7
 10
75.7363
 20
133.756
 30
0.0
 11
75.7363
 21
134.155
 31
0.0
  0
LINE
  5
3F4
  8
0
 62
     7
 10
73.236099999999993
 20
132.755
 30
0.0
 11
73.236099999999993
 21
133.756
 31
0.0
  0
LINE
  5
3F5
  8
0
 62
     7
 10
85.236199999999997
 20
132.755
 30
0.0
 11
85.236199999999997
 21
133.756
 31
0.0
  0
LINE
  5
3F6
  8
0
 62
     7
 10
75.236000000000004
 20
134.155
 30
0.0
 11
83.236299999999986
 21
134.155
 31
0.0
  0
LINE
  5
3F7
  8
0
 62
     7
 10
75.236000000000004
 20
134.155
 30
0.0
 11
75.236000000000004
 21
141.755
 31
0.0
  0
LINE
  5
3F8
  8
0
 62
     7
 10
82.736000000000004
 20
133.756
 30
0.0
 11
82.736000000000004
 21
134.155
 31
0.0
  0
LINE
  5
3F9
  8
0
 62
     7
 10
86.678100000000015
 20
224.57499999999999
 30
0.0
 11
88.181899999999985
 21
223.071
 31
0.0
  0
LINE
  5
3FA
  8
0
  6
AIGENLINE001
 62
     7
 10
79.236099999999993
 20
239.76900000000001
 30
0.0
 11
79.236099999999993
 21
222.02799999999999
 31
0.0
  0
LINE
  5
3FB
  8
0
  6
AIGENLINE001
 62
     7
 10
39.235900000000001
 20
103.32899999999999
 30
0.0
 11
39.235900000000001
 21
171.97800000000001
 31
0.0
  0
LINE
  5
3FC
  8
0
  6
AIGENLINE001
 62
     7
 10
39.235900000000001
 20
199.39099999999991
 30
0.0
 11
39.235900000000001
 21
237.85599999999999
 31
0.0
  0
LINE
  5
3FD
  8
0
  6
AIGENLINE001
 62
     7
 10
86.983199999999997
 20
231.99600000000001
 30
0.0
 11
32.59170000000001
 21
231.99600000000001
 31
0.0
  0
LINE
  5
3FE
  8
0
 62
     7
 10
80.436099999999996
 20
228.18100000000001
 30
0.0
 11
80.436099999999996
 21
235.81200000000001
 31
0.0
  0
LINE
  5
3FF
  8
0
 62
     7
 10
78.036199999999994
 20
228.18100000000001
 30
0.0
 11
78.036199999999994
 21
235.81200000000001
 31
0.0
  0
LINE
  5
400
  8
0
 62
     7
 10
79.936199999999985
 20
222.99600000000001
 30
0.0
 11
78.536100000000005
 21
222.99600000000001
 31
0.0
  0
LINE
  5
401
  8
0
 62
     7
 10
78.536100000000005
 20
228.05799999999999
 30
0.0
 11
78.536100000000005
 21
222.99600000000001
 31
0.0
  0
LINE
  5
402
  8
0
 62
     7
 10
79.936199999999985
 20
228.05799999999999
 30
0.0
 11
79.936199999999985
 21
222.99600000000001
 31
0.0
  0
ARC
  5
403
  8
0
 62
     7
 10
79.029398999999984
 20
232.18021100000001
 30
0.0
 40
6.209484999999999
 50
278.393958
 51
358.30403100000012
  0
ARC
  5
404
  8
0
 62
     7
 10
79.236145999999991
 20
231.99643499999999
 30
0.0
 40
6.0000169999999988
 50
0.00001
 51
89.999980000000008
  0
ARC
  5
405
  8
0
 62
     7
 10
79.236148
 20
231.99643499999999
 30
0.0
 40
6.0000169999999988
 50
90.0
 51
179.99996999999999
  0
ARC
  5
406
  8
0
 62
     7
 10
79.442651999999995
 20
232.18012100000001
 30
0.0
 40
6.2092390000000002
 50
181.69521800000001
 51
261.60477900000001
  0
ARC
  5
407
  8
0
 62
     7
 10
79.236232000000001
 20
231.99634900000001
 30
0.0
 40
4.0000400000000003
 50
0.001244
 51
90.001214000000004
  0
ARC
  5
408
  8
0
 62
     7
 10
79.236060999999992
 20
231.99634900000001
 30
0.0
 40
4.0000400000000003
 50
89.998766000000003
 51
179.99873700000001
  0
ARC
  5
409
  8
0
 62
     7
 10
79.236145999999991
 20
231.99643499999999
 30
0.0
 40
4.0001249999999988
 50
179.99996999999999
 51
270.00002000000001
  0
ARC
  5
40A
  8
0
 62
     7
 10
79.236145999999991
 20
231.99643699999999
 30
0.0
 40
4.000125999999999
 50
270.00002000000001
 51
359.99999000000003
  0
LINE
  5
40B
  8
0
 62
     7
 10
37.335599999999999
 20
203.55000000000001
 30
0.0
 11
37.335599999999999
 21
231.99600000000001
 31
0.0
  0
LINE
  5
40C
  8
0
 62
     7
 10
41.135899999999999
 20
203.55000000000001
 30
0.0
 11
41.135899999999999
 21
231.99600000000001
 31
0.0
  0
ARC
  5
40D
  8
0
 62
     7
 10
39.235751
 20
203.55061900000001
 30
0.0
 40
1.9001539999999999
 50
180.00520399999999
 51
270.00521400000002
  0
ARC
  5
40E
  8
0
 62
     7
 10
39.163454999999999
 20
203.622916
 30
0.0
 40
1.973781999999999
 50
272.10413599999998
 51
357.89587399999999
  0
ARC
  5
40F
  8
0
 62
     7
 10
39.163078000000013
 20
231.92358999999999
 30
0.0
 40
1.974172
 50
2.1146569999999989
 51
87.885333000000017
  0
ARC
  5
410
  8
0
 62
     7
 10
39.235752000000012
 20
231.996263
 30
0.0
 40
1.9001549999999989
 50
89.994806000000011
 51
179.994776
  0
ARC
  5
411
  8
0
 62
     7
 10
39.153359999999999
 20
232.04551699999999
 30
0.0
 40
4.0826399999999996
 50
299.052052
 51
359.311173
  0
ARC
  5
412
  8
0
 62
     7
 10
39.235836999999997
 20
231.996521
 30
0.0
 40
3.9998680000000002
 50
359.99877600000002
 51
89.998745999999997
  0
ARC
  5
413
  8
0
 62
     7
 10
39.235838000000001
 20
231.99634900000001
 30
0.0
 40
4.0000400000000003
 50
89.998766000000003
 51
179.99873700000001
  0
ARC
  5
414
  8
0
 62
     7
 10
39.321500999999998
 20
232.04752099999999
 30
0.0
 40
4.0860219999999989
 50
180.71637000000001
 51
240.920444
  0
ARC
  5
415
  8
0
 62
     7
 10
39.163068000000003
 20
167.78324799999999
 30
0.0
 40
1.974183
 50
2.1149379999999991
 51
87.885052000000016
  0
ARC
  5
416
  8
0
 62
     7
 10
39.235752000000012
 20
167.855931
 30
0.0
 40
1.9001549999999989
 50
89.994806000000011
 51
179.994776
  0
ARC
  5
417
  8
0
 62
     7
 10
40.703606999999998
 20
153.75576100000001
 30
0.0
 40
0.032321
 50
0.296663
 51
30.164857000000001
  0
ARC
  5
418
  8
0
 62
     7
 10
40.673235999999989
 20
153.737989
 30
0.0
 40
0.06751
 50
30.253109000000009
 51
54.440938000000003
  0
ARC
  5
419
  8
0
 62
     7
 10
40.592795000000002
 20
153.63322700000001
 30
0.0
 40
0.199566
 50
53.144156000000002
 51
66.037796999999998
  0
ARC
  5
41A
  8
0
 62
     7
 10
40.437684999999988
 20
153.29192900000001
 30
0.0
 40
0.5744530000000001
 50
65.725715000000008
 51
74.025345999999999
  0
ARC
  5
41B
  8
0
 62
     7
 10
40.186733999999987
 20
152.43362400000001
 30
0.0
 40
1.4686859999999999
 50
73.828563000000003
 51
79.311785
  0
ARC
  5
41C
  8
0
 62
     7
 10
39.861276000000011
 20
150.7605889999999
 30
0.0
 40
3.1730709999999989
 50
79.139815999999996
 51
82.823892000000001
  0
ARC
  5
41D
  8
0
 62
     7
 10
39.44070700000001
 20
147.419634
 30
0.0
 40
6.540392999999999
 50
82.824552999999995
 51
88.196972000000002
  0
ARC
  5
41E
  8
0
 62
     7
 10
39.240747999999989
 20
143.55992000000001
 30
0.0
 40
10.404783999999999
 50
87.765131999999994
 51
90.026555000000016
  0
ARC
  5
41F
  8
0
 62
     7
 10
39.237031000000002
 20
144.32186899999999
 30
0.0
 40
9.6428329999999995
 50
90.006566999999976
 51
95.602156000000008
  0
ARC
  5
420
  8
0
 62
     7
 10
38.708626000000002
 20
150.116951
 30
0.0
 40
3.824055
 50
96.199069999999992
 51
99.829199000000003
  0
ARC
  5
421
  8
0
 62
     7
 10
38.347299
 20
152.17048500000001
 30
0.0
 40
1.73899
 50
99.649280000000019
 51
105.184404
  0
ARC
  5
422
  8
0
 62
     7
 10
38.051685999999997
 20
153.24717000000001
 30
0.0
 40
0.622474
 50
104.88251099999999
 51
114.053229
  0
ARC
  5
423
  8
0
 62
     7
 10
37.868836000000002
 20
153.651703
 30
0.0
 40
0.178554
 50
113.382141
 51
130.363215
  0
ARC
  5
424
  8
0
 62
     7
 10
37.782145999999997
 20
153.75143199999999
 30
0.0
 40
0.046444
 50
128.55424300000001
 51
174.44503700000001
  0
ARC
  5
425
  8
0
 62
     7
 10
37.768144999999997
 20
153.756091
 30
0.0
 40
0.032225
 50
180.28992700000001
 51
210.21059199999999
  0
ARC
  5
426
  8
0
 62
     7
 10
37.798656999999999
 20
153.773976
 30
0.0
 40
0.067593
 50
210.29802100000009
 51
234.43873400000001
  0
ARC
  5
427
  8
0
 62
     7
 10
37.883375999999998
 20
153.88516899999999
 30
0.0
 40
0.207362
 50
233.26372900000001
 51
247.29787899999999
  0
ARC
  5
428
  8
0
 62
     7
 10
38.051598999999989
 20
154.26838000000001
 30
0.0
 40
0.62585
 50
246.63024300000001
 51
254.44962000000001
  0
ARC
  5
429
  8
0
 62
     7
 10
38.305965
 20
155.16650300000001
 30
0.0
 40
1.5592939999999991
 50
254.292315
 51
259.55107199999998
  0
ARC
  5
42A
  8
0
 62
     7
 10
38.631860000000003
 20
156.88460000000001
 30
0.0
 40
3.3080159999999998
 50
259.39695
 51
262.97543899999999
  0
ARC
  5
42B
  8
0
 62
     7
 10
39.043298999999998
 20
160.23121599999999
 30
0.0
 40
6.6798289999999989
 50
262.98336399999999
 51
268.28237100000001
  0
ARC
  5
42C
  8
0
 62
     7
 10
39.231770000000012
 20
163.99094500000001
 30
0.0
 40
10.443792
 50
267.86711200000002
 51
270.02279900000002
  0
ARC
  5
42D
  8
0
 62
     7
 10
39.234827000000003
 20
163.175724
 30
0.0
 40
9.6285699999999999
 50
270.00653699999998
 51
275.60960499999999
  0
ARC
  5
42E
  8
0
 62
     7
 10
39.759791999999997
 20
157.41663800000001
 30
0.0
 40
3.8459629999999989
 50
276.21293200000002
 51
279.82297699999998
  0
ARC
  5
42F
  8
0
 62
     7
 10
40.124256000000003
 20
155.34285299999999
 30
0.0
 40
1.7404090000000001
 50
279.64770700000003
 51
285.17970000000003
  0
ARC
  5
430
  8
0
 62
     7
 10
40.419688999999991
 20
154.26636300000001
 30
0.0
 40
0.624128
 50
284.88143100000002
 51
294.03027500000002
  0
ARC
  5
431
  8
0
 62
     7
 10
40.603357999999993
 20
153.85981100000001
 30
0.0
 40
0.178032
 50
293.32374099999998
 51
310.357212
  0
ARC
  5
432
  8
0
 62
     7
 10
40.689821999999992
 20
153.760413
 30
0.0
 40
0.046323
 50
308.47478000000001
 51
354.44446799999997
  0
ARC
  5
433
  8
0
 62
     7
 10
41.06543099999999
 20
156.74135699999999
 30
0.0
 40
0.070479
 50
0.6496760000000003
 51
46.418343999999998
  0
ARC
  5
434
  8
0
 62
     7
 10
40.968300999999997
 20
156.65923100000001
 30
0.0
 40
0.19741
 50
42.42604
 51
56.903920999999997
  0
ARC
  5
435
  8
0
 62
     7
 10
40.835981999999987
 20
156.46091000000001
 30
0.0
 40
0.4358140000000001
 50
56.567565000000002
 51
66.106897000000004
  0
ARC
  5
436
  8
0
 62
     7
 10
40.623077000000002
 20
155.989689
 30
0.0
 40
0.952894
 50
65.878359000000003
 51
72.690064000000007
  0
ARC
  5
437
  8
0
 62
     7
 10
40.332510999999997
 20
155.07342399999999
 30
0.0
 40
1.9141209999999991
 50
72.546971999999997
 51
77.142289000000005
  0
ARC
  5
438
  8
0
 62
     7
 10
40.002788000000002
 20
153.63946100000001
 30
0.0
 40
3.385502999999999
 50
77.102434000000002
 51
80.752810999999994
  0
ARC
  5
439
  8
0
 62
     7
 10
39.569445000000002
 20
150.96135799999999
 30
0.0
 40
6.0984379999999989
 50
80.777647000000016
 51
86.383425000000003
  0
ARC
  5
43A
  8
0
 62
     7
 10
39.255978000000013
 20
147.06953100000001
 30
0.0
 40
10.002514
 50
85.997636000000014
 51
90.114865000000009
  0
ARC
  5
43B
  8
0
 62
     7
 10
39.237178
 20
146.85513900000001
 30
0.0
 40
10.216886000000001
 50
90.007021999999992
 51
95.540793999999991
  0
ARC
  5
43C
  8
0
 62
     7
 10
38.761800000000001
 20
152.01095100000001
 30
0.0
 40
5.0393249999999989
 50
95.821178000000003
 51
101.68513400000001
  0
ARC
  5
43D
  8
0
 62
     7
 10
38.171447999999998
 20
154.955569
 30
0.0
 40
2.0362490000000002
 50
102.199118
 51
106.993244
  0
ARC
  5
43E
  8
0
 62
     7
 10
37.864609999999999
 20
155.949353
 30
0.0
 40
0.996183
 50
106.820791
 51
114.004982
  0
ARC
  5
43F
  8
0
 62
     7
 10
37.630507000000001
 20
156.47163900000001
 30
0.0
 40
0.423834
 50
113.81826
 51
124.567111
  0
ARC
  5
440
  8
0
 62
     7
 10
37.457394000000001
 20
156.71634499999999
 30
0.0
 40
0.124164
 50
122.85350200000001
 51
168.002115
  0
ARC
  5
441
  8
0
 62
     7
 10
41.06545599999999
 20
153.75512900000001
 30
0.0
 40
0.070454
 50
0.649461
 51
46.439191999999991
  0
ARC
  5
442
  8
0
 62
     7
 10
40.967874999999999
 20
153.67253299999999
 30
0.0
 40
0.198034
 50
42.445338999999997
 51
56.881770000000003
  0
ARC
  5
443
  8
0
 62
     7
 10
40.834350999999991
 20
153.471913
 30
0.0
 40
0.439021
 50
56.59207700000001
 51
66.064765000000008
  0
ARC
  5
444
  8
0
 62
     7
 10
40.622753999999993
 20
153.00251
 30
0.0
 40
0.953908
 50
65.886856000000009
 51
72.693128000000002
  0
ARC
  5
445
  8
0
 62
     7
 10
40.333562999999998
 20
152.09258600000001
 30
0.0
 40
1.908674
 50
72.530884
 51
77.140359000000004
  0
ARC
  5
446
  8
0
 62
     7
 10
40.001956
 20
150.650858
 30
0.0
 40
3.3880449999999991
 50
77.099535000000003
 51
80.747777999999997
  0
ARC
  5
447
  8
0
 62
     7
 10
39.568019
 20
147.96950200000001
 30
0.0
 40
6.1042870000000002
 50
80.774231999999998
 51
86.374853999999999
  0
ARC
  5
448
  8
0
 62
     7
 10
39.255246999999997
 20
144.074927
 30
0.0
 40
10.011062000000001
 50
85.997699000000011
 51
90.110583000000005
  0
ARC
  5
449
  8
0
 62
     7
 10
39.237161999999998
 20
143.880853
 30
0.0
 40
10.205118000000001
 50
90.006944999999988
 51
95.547117
  0
ARC
  5
44A
  8
0
 62
     7
 10
38.761623
 20
149.02937299999999
 30
0.0
 40
5.0347989999999987
 50
95.824406999999994
 51
101.693731
  0
ARC
  5
44B
  8
0
 62
     7
 10
38.171331000000002
 20
151.970832
 30
0.0
 40
2.0348310000000001
 50
102.20437800000001
 51
107.00200100000001
  0
ARC
  5
44C
  8
0
 62
     7
 10
37.865547999999997
 20
152.96087299999999
 30
0.0
 40
0.998651
 50
106.834204
 51
114.00083100000001
  0
ARC
  5
44D
  8
0
 62
     7
 10
37.631622999999998
 20
153.48364100000001
 30
0.0
 40
0.425934
 50
113.85768400000001
 51
124.5548129999999
  0
ARC
  5
44E
  8
0
 62
     7
 10
37.45749
 20
153.730065
 30
0.0
 40
0.12427
 50
122.875208
 51
167.987752
  0
ARC
  5
44F
  8
0
 62
     7
 10
37.406295
 20
153.75672299999999
 30
0.0
 40
0.070358
 50
180.64765299999999
 51
226.466702
  0
ARC
  5
450
  8
0
 62
     7
 10
37.503844999999998
 20
153.83929599999999
 30
0.0
 40
0.197896
 50
222.45442
 51
236.894485
  0
ARC
  5
451
  8
0
 62
     7
 10
37.636718000000002
 20
154.03887399999999
 30
0.0
 40
0.437655
 50
236.59376900000001
 51
246.091588
  0
ARC
  5
452
  8
0
 62
     7
 10
37.848723
 20
154.508861
 30
0.0
 40
0.953241
 50
245.890852
 51
252.69992300000001
  0
ARC
  5
453
  8
0
 62
     7
 10
38.137914000000002
 20
155.41891799999999
 30
0.0
 40
1.9081330000000001
 50
252.53540899999999
 51
257.145083
  0
ARC
  5
454
  8
0
 62
     7
 10
38.471553999999998
 20
156.87057200000001
 30
0.0
 40
3.3976339999999992
 50
257.10614800000002
 51
260.7435220000001
  0
ARC
  5
455
  8
0
 62
     7
 10
38.902672000000003
 20
159.53525200000001
 30
0.0
 40
6.0969629999999988
 50
260.772854
 51
266.38003500000002
  0
ARC
  5
456
  8
0
 62
     7
 10
39.216563999999998
 20
163.44019800000001
 30
0.0
 40
10.014158
 50
265.998332
 51
270.11077599999999
  0
ARC
  5
457
  8
0
 62
     7
 10
39.234679999999997
 20
163.630448
 30
0.0
 40
10.20439
 50
270.00699100000003
 51
275.54671000000002
  0
ARC
  5
458
  8
0
 62
     7
 10
39.708863000000001
 20
158.493168
 30
0.0
 40
5.0453910000000004
 50
275.82598100000001
 51
281.68346200000002
  0
ARC
  5
459
  8
0
 62
     7
 10
40.298594999999992
 20
155.54907800000001
 30
0.0
 40
2.042961
 50
282.20730700000001
 51
286.986627
  0
ARC
  5
45A
  8
0
 62
     7
 10
40.606172999999991
 20
154.55200500000001
 30
0.0
 40
0.9995329999999999
 50
286.82230399999997
 51
293.98390899999998
  0
ARC
  5
45B
  8
0
 62
     7
 10
40.840735999999993
 20
154.02775600000001
 30
0.0
 40
0.425204
 50
293.82036900000003
 51
304.53632399999998
  0
ARC
  5
45C
  8
0
 62
     7
 10
41.014417000000002
 20
153.78184899999999
 30
0.0
 40
0.124223
 50
302.84724899999998
 51
347.95568600000001
  0
LINE
  5
45D
  8
0
 62
     7
 10
41.135899999999999
 20
133.755
 30
0.0
 11
41.135899999999999
 21
167.85599999999999
 31
0.0
  0
LINE
  5
45E
  8
0
 62
     7
 10
37.335599999999999
 20
133.755
 30
0.0
 11
37.335599999999999
 21
167.85599999999999
 31
0.0
  0
LINE
  5
45F
  8
0
 62
     7
 10
35.235799999999998
 20
133.755
 30
0.0
 11
43.235700000000001
 21
133.755
 31
0.0
  0
LINE
  5
460
  8
0
 62
     7
 10
35.235799999999998
 20
132.755
 30
0.0
 11
43.235700000000001
 21
132.755
 31
0.0
  0
LINE
  5
461
  8
0
 62
     7
 10
35.235799999999998
 20
132.755
 30
0.0
 11
35.235799999999998
 21
133.755
 31
0.0
  0
LINE
  5
462
  8
0
 62
     7
 10
43.235700000000001
 20
132.755
 30
0.0
 11
43.235700000000001
 21
133.755
 31
0.0
  0
TEXT
  5
463
  8
_________2
 62
     7
 10
131.62299999999999
 20
224.73599999999999
 30
0.0
 40
3.3734599999999988
  1
注：色番号はカタログを参照ください
 41
0.5
  0
TEXT
  5
464
  8
_________2
 62
     7
 10
24.5868
 20
0.707283
 30
0.0
 40
3.9357000000000002
  1
  （社）日本水道協会認証品
 41
0.5
  0
TEXT
  5
465
  8
_________2
 62
     7
 10
130.2842016666666
 20
240.06200000000001
 30
0.0
 40
3.3734599999999988
  1
VL090GFR
 41
0.5
 72
     1
 11
136.75
 21
240.06200000000001
 31
0.0
  0
TEXT
  5
466
  8
_________2
 62
     7
 10
152.1718783333333
 20
233.06200000000001
 30
0.0
 40
3.3734599999999988
  1
1
 41
0.5
 72
     1
 11
152.453
 21
233.06200000000001
 31
0.0
  0
TEXT
  5
467
  8
_________2
 62
     7
 10
163.72005390476181
 20
233.06200000000001
 30
0.0
 40
3.3734599999999988
  1
接続アダプタ
 41
0.5
 72
     1
 11
169.47099999999989
 21
233.06200000000001
 31
0.0
  0
TEXT
  5
468
  8
_________2
 62
     7
 10
131.5492491666667
 20
233.06200000000001
 30
0.0
 40
3.3734599999999988
  1
SC06412
 41
0.5
 72
     1
 11
136.75
 21
233.06200000000001
 31
0.0
  0
TEXT
  5
469
  8
_________2
 62
     7
 10
152.1718783333333
 20
240.06200000000001
 30
0.0
 40
3.3734599999999988
  1
1
 41
0.5
 72
     1
 11
152.453
 21
240.06200000000001
 31
0.0
  0
TEXT
  5
46A
  8
_________2
 62
     7
 10
152.1718783333333
 20
247.06200000000001
 30
0.0
 40
3.3734599999999988
  1
1
 41
0.5
 72
     1
 11
152.453
 21
247.06200000000001
 31
0.0
  0
TEXT
  5
46B
  8
_________2
 62
     7
 10
151.66585933333329
 20
254.06200000000001
 30
0.0
 40
3.3734599999999988
  1
数
 41
0.5
 72
     1
 11
152.453
 21
254.06200000000001
 31
0.0
  0
LINE
  5
46C
  8
_________2
 62
     7
 10
124.661
 20
258.911
 30
0.0
 11
124.661
 21
230.911
 31
0.0
  0
LINE
  5
46D
  8
_________2
 62
     7
 10
124.661
 20
230.911
 30
0.0
 11
183.55099999999999
 21
230.911
 31
0.0
  0
LINE
  5
46E
  8
_________2
 62
     7
 10
149.03399999999999
 20
258.911
 30
0.0
 11
149.03399999999999
 21
230.911
 31
0.0
  0
LINE
  5
46F
  8
_________2
 62
     7
 10
155.68700000000001
 20
258.911
 30
0.0
 11
155.68700000000001
 21
230.911
 31
0.0
  0
TEXT
  5
470
  8
_________2
 62
     7
 10
165.70396966666661
 20
240.06200000000001
 30
0.0
 40
3.3734599999999988
  1
スパウト
 41
0.5
 72
     1
 11
169.47099999999989
 21
240.06200000000001
 31
0.0
  0
TEXT
  5
471
  8
_________2
 62
     7
 10
159.4630686666666
 20
247.06200000000001
 30
0.0
 40
3.3734599999999988
  1
シングルレバー混合栓
 41
0.5
 72
     1
 11
169.47099999999989
 21
247.06200000000001
 31
0.0
  0
TEXT
  5
472
  8
_________2
 62
     7
 10
167.6718213333333
 20
254.06200000000001
 30
0.0
 40
3.3734599999999988
  1
名称
 41
0.5
 72
     1
 11
169.47099999999989
 21
254.06200000000001
 31
0.0
  0
TEXT
  5
473
  8
_________2
 62
     7
 10
131.97093166666659
 20
247.06200000000001
 30
0.0
 40
3.3734599999999988
  1
VL500S
 41
0.5
 72
     1
 11
136.75
 21
247.06200000000001
 31
0.0
  0
TEXT
  5
474
  8
_________2
 62
     7
 10
134.95082133333329
 20
254.06200000000001
 30
0.0
 40
3.3734599999999988
  1
品番
 41
0.5
 72
     1
 11
136.75
 21
254.06200000000001
 31
0.0
  0
LINE
  5
475
  8
_________2
 62
     7
 10
205.30099999999999
 20
127.411
 30
0.0
 11
183.55000000000001
 21
127.411
 31
0.0
  0
LINE
  5
476
  8
_________2
 62
     7
 10
100.3
 20
-4.0910799999999998
 30
0.0
 11
100.3
 21
-21.071400000000001
 31
0.0
  0
LINE
  5
477
  8
_________2
 62
     7
 10
100.3
 20
275.93099999999998
 30
0.0
 11
100.3
 21
258.911
 31
0.0
  0
LINE
  5
478
  8
_________2
 62
     7
 10
17.049499999999998
 20
127.411
 30
0.0
 11
-4.70052
 21
127.411
 31
0.0
  0
LINE
  5
479
  8
_________2
 62
     7
 10
76.741
 20
29.8047
 30
0.0
 11
74.554699999999997
 21
29.8047
 31
0.0
  0
LINE
  5
47A
  8
_________2
 62
     7
 10
77.233699999999999
 20
29.8047
 30
0.0
 11
76.981499999999997
 21
29.8047
 31
0.0
  0
LINE
  5
47B
  8
_________2
 62
     7
 10
77.726299999999995
 20
29.8047
 30
0.0
 11
80.651200000000003
 21
29.8047
 31
0.0
  0
LINE
  5
47C
  8
_________2
 62
     7
 10
77.233699999999999
 20
29.8047
 30
0.0
 11
77.485500000000002
 21
29.8047
 31
0.0
  0
LINE
  5
47D
  8
_________2
 62
     7
 10
70.837100000000007
 20
29.8047
 30
0.0
 11
68.650499999999994
 21
29.8047
 31
0.0
  0
LINE
  5
47E
  8
_________2
 62
     7
 10
71.329400000000007
 20
29.8047
 30
0.0
 11
71.077600000000004
 21
29.8047
 31
0.0
  0
LINE
  5
47F
  8
_________2
 62
     7
 10
71.329400000000007
 20
30.2974
 30
0.0
 11
71.329400000000007
 21
32.484400000000001
 31
0.0
  0
LINE
  5
480
  8
_________2
 62
     7
 10
71.329400000000007
 20
29.8047
 30
0.0
 11
71.329400000000007
 21
30.056899999999999
 31
0.0
  0
LINE
  5
481
  8
_________2
 62
     7
 10
71.822100000000006
 20
29.8047
 30
0.0
 11
74.009
 21
29.8047
 31
0.0
  0
LINE
  5
482
  8
_________2
 62
     7
 10
71.329400000000007
 20
29.8047
 30
0.0
 11
71.581599999999995
 21
29.8047
 31
0.0
  0
LINE
  5
483
  8
_________2
 62
     7
 10
71.329400000000007
 20
29.312799999999999
 30
0.0
 11
71.329400000000007
 21
27.125800000000002
 31
0.0
  0
LINE
  5
484
  8
_________2
 62
     7
 10
71.329400000000007
 20
29.8047
 30
0.0
 11
71.329400000000007
 21
29.5532
 31
0.0
  0
LINE
  5
485
  8
_________2
 62
     7
 10
75.040499999999994
 20
28.5852
 30
0.0
 11
80.218500000000006
 21
27.720400000000001
 31
0.0
  0
LINE
  5
486
  8
_________2
 62
     7
 10
75.040499999999994
 20
31.0243
 30
0.0
 11
80.218500000000006
 21
31.889700000000001
 31
0.0
  0
LINE
  5
487
  8
_________2
 62
     7
 10
80.218500000000006
 20
27.720400000000001
 30
0.0
 11
80.218500000000006
 21
31.889700000000001
 31
0.0
  0
LINE
  5
488
  8
_________2
 62
     7
 10
75.040499999999994
 20
28.5852
 30
0.0
 11
75.040499999999994
 21
31.0243
 31
0.0
  0
ARC
  5
489
  8
_________2
 62
     7
 10
71.28285600000001
 20
29.757811
 30
0.0
 40
1.2673589999999999
 50
2.122214
 51
87.893958999999995
  0
ARC
  5
48A
  8
_________2
 62
     7
 10
71.375959999999992
 20
29.758213000000001
 30
0.0
 40
1.2669559999999991
 50
92.104701000000006
 51
177.89526900000001
  0
ARC
  5
48B
  8
_________2
 62
     7
 10
71.376357999999996
 20
29.851671
 30
0.0
 40
1.2673680000000001
 50
182.12203600000001
 51
267.877993
  0
ARC
  5
48C
  8
_________2
 62
     7
 10
71.282531999999989
 20
29.851998999999999
 30
0.0
 40
1.267695999999999
 50
272.12015300000002
 51
357.863674
  0
ARC
  5
48D
  8
_________2
 62
     7
 10
71.329430000000002
 20
29.804742999999998
 30
0.0
 40
2.0849849999999992
 50
0.00001
 51
89.999980000000008
  0
ARC
  5
48E
  8
_________2
 62
     7
 10
71.329603000000006
 20
29.804915000000001
 30
0.0
 40
2.084813
 50
90.004733999999999
 51
180.00474399999999
  0
ARC
  5
48F
  8
_________2
 62
     7
 10
71.409106000000008
 20
29.884775999999999
 30
0.0
 40
2.1657950000000001
 50
182.11776599999999
 51
267.89173399999999
  0
ARC
  5
490
  8
_________2
 62
     7
 10
71.249459000000002
 20
29.885429999999999
 30
0.0
 40
2.1664590000000001
 50
272.11546800000002
 51
357.86560400000002
  0
TEXT
  5
491
  8
_________2
 62
     7
 10
104.605
 20
1.6794899999999999
 30
0.0
 40
3.0923400000000001
  1
図番
 41
0.5
  0
LINE
  5
492
  8
_________2
 62
     7
 10
103.55
 20
5.9087199999999989
 30
0.0
 11
183.55099999999999
 21
5.9087199999999989
 31
0.0
  0
TEXT
  5
493
  8
_________2
 62
     7
 10
104.605
 20
11.6793
 30
0.0
 40
3.0923400000000001
  1
品番
 41
0.5
  0
TEXT
  5
494
  8
_________2
 62
     7
 10
104.605
 20
31.818100000000001
 30
0.0
 40
3.0923400000000001
  1
名称
 41
0.5
  0
TEXT
  5
495
  8
_________2
 62
     7
 10
91.845058333333341
 20
26.821999999999999
 30
0.0
 40
3.6545800000000002
  1
mm
 41
0.5
 72
     1
 11
93.367800000000003
 21
26.821999999999999
 31
0.0
  0
TEXT
  5
496
  8
_________2
 62
     7
 10
85.643199999999993
 20
31.818100000000001
 30
0.0
 40
3.0923400000000001
  1
単位
 41
0.5
  0
TEXT
  5
497
  8
_________2
 62
     7
 10
85.643199999999993
 20
19.410799999999998
 30
0.0
 40
3.0923400000000001
  1
尺度
 41
0.5
  0
TEXT
  5
498
  8
_________2
 62
     7
 10
90.548758666666686
 20
13.2179
 30
0.0
 40
3.6545800000000002
  1
1 ： 5
 41
0.5
 72
     1
 11
93.959699999999998
 21
13.2179
 31
0.0
  0
TEXT
  5
499
  8
_________2
 62
     7
 10
136.66252499999999
 20
9.1078600000000005
 30
0.0
 40
3.9357000000000002
  1
図中の表参照
 41
0.5
 72
     1
 11
143.55000000000001
 21
9.1078600000000005
 31
0.0
  0
TEXT
  5
49A
  8
_________2
 62
     7
 10
132.39885000000001
 20
-0.8926299999999999
 30
0.0
 40
3.9357000000000002
  1
VL500S9GFR12
 41
0.5
 72
     1
 11
143.55000000000001
 21
-0.8926299999999999
 31
0.0
  0
TEXT
  5
49B
  8
_________2
 62
     7
 10
109.179
 20
24.2257
 30
0.0
 40
3.9357000000000002
  1
ボラ　湯水混合栓セット
 41
0.5
  0
TEXT
  5
49C
  8
_________2
 62
     7
 10
39.425300333333333
 20
13.603
 30
0.0
 40
3.6545800000000002
  1
早川
 41
0.5
 72
     1
 11
41.313499999999998
 21
13.603
 31
0.0
  0
TEXT
  5
49D
  8
_________2
 62
     7
 10
20.790090666666671
 20
13.603
 30
0.0
 40
3.6545800000000002
  1
菅原
 41
0.5
 72
     1
 11
22.7392
 21
13.603
 31
0.0
  0
TEXT
  5
49E
  8
_________2
 62
     7
 10
67.785399999999996
 20
13.2179
 30
0.0
 40
3.6545800000000002
  1
16.01.27
 41
0.5
  0
TEXT
  5
49F
  8
_________2
 62
     7
 10
66.593100000000007
 20
19.410799999999998
 30
0.0
 40
3.0923400000000001
  1
日付
 41
0.5
  0
TEXT
  5
4A0
  8
_________2
 62
     7
 10
29.639399999999998
 20
19.410799999999998
 30
0.0
 40
3.0923400000000001
  1
検図
 41
0.5
  0
TEXT
  5
4A1
  8
_________2
 62
     7
 10
18.021100000000001
 20
5.21143
 30
0.0
 40
3.0923400000000001
  1
備考
 41
0.5
  0
TEXT
  5
4A2
  8
_________2
 62
     7
 10
18.021100000000001
 20
19.410799999999998
 30
0.0
 40
3.0923400000000001
  1
製図
 41
0.5
  0
TEXT
  5
4A3
  8
_________2
 62
     7
 10
23.788465333333338
 20
27.936800000000002
 30
0.0
 40
4.4979399999999989
  1
セラトレーディング株式会社
 41
0.5
 72
     1
 11
41.180500000000002
 21
27.936800000000002
 31
0.0
  0
LINE
  5
4A4
  8
_________2
 62
     7
 10
183.55099999999999
 20
-4.0910799999999998
 30
0.0
 11
17.049499999999998
 21
-4.0910799999999998
 31
0.0
  0
LINE
  5
4A5
  8
_________2
 62
     7
 10
17.049499999999998
 20
-4.0910799999999998
 30
0.0
 11
17.049499999999998
 21
258.911
 31
0.0
  0
LINE
  5
4A6
  8
_________2
 62
     7
 10
17.049499999999998
 20
258.911
 30
0.0
 11
183.55099999999999
 21
258.911
 31
0.0
  0
LINE
  5
4A7
  8
_________2
 62
     7
 10
183.55099999999999
 20
258.911
 30
0.0
 11
183.55099999999999
 21
-4.0910799999999998
 31
0.0
  0
LINE
  5
4A8
  8
_________2
 62
     7
 10
65.549599999999998
 20
9.4089600000000004
 30
0.0
 11
65.549599999999998
 21
35.908799999999999
 31
0.0
  0
LINE
  5
4A9
  8
_________2
 62
     7
 10
84.549700000000016
 20
9.4089600000000004
 30
0.0
 11
84.549700000000016
 21
35.908799999999999
 31
0.0
  0
LINE
  5
4AA
  8
_________2
 62
     7
 10
103.55
 20
-4.0910799999999998
 30
0.0
 11
103.55
 21
35.908799999999999
 31
0.0
  0
LINE
  5
4AB
  8
_________2
 62
     7
 10
28.549299999999999
 20
9.4089600000000004
 30
0.0
 11
28.549299999999999
 21
23.409199999999998
 31
0.0
  0
LINE
  5
4AC
  8
_________2
 62
     7
 10
17.049499999999998
 20
9.4089600000000004
 30
0.0
 11
103.55
 21
9.4089600000000004
 31
0.0
  0
LINE
  5
4AD
  8
_________2
 62
     7
 10
17.049499999999998
 20
23.409199999999998
 30
0.0
 11
103.55
 21
23.409199999999998
 31
0.0
  0
LINE
  5
4AE
  8
_________2
 62
     7
 10
103.55
 20
15.9085
 30
0.0
 11
183.55099999999999
 21
15.9085
 31
0.0
  0
LINE
  5
4AF
  8
_________2
 62
     7
 10
124.661
 20
237.911
 30
0.0
 11
183.55099999999999
 21
237.911
 31
0.0
  0
LINE
  5
4B0
  8
_________2
 62
     7
 10
124.661
 20
244.911
 30
0.0
 11
183.55099999999999
 21
244.911
 31
0.0
  0
LINE
  5
4B1
  8
_________2
 62
     7
 10
124.661
 20
251.911
 30
0.0
 11
183.55099999999999
 21
251.911
 31
0.0
  0
LINE
  5
4B2
  8
_________2
 62
     7
 10
17.049499999999998
 20
35.908799999999999
 30
0.0
 11
183.55099999999999
 21
35.908799999999999
 31
0.0
  0
ENDSEC
  0
EOF
