  0
SECTION
  2
HEADER
  9
$ACADVER
  1
AC1009
  9
$INSBASE
 10
0.0
 20
0.0
 30
0.0
  9
$EXTMIN
 10
-4.70052
 20
-21.071400000000001
 30
0.0
  9
$EXTMAX
 10
205.30099999999999
 20
275.93099999999998
 30
0.0
  9
$LIMMIN
 10
0.0
 20
0.0
  9
$LIMMAX
 10
12.0
 20
9.0
  9
$ORTHOMODE
 70
     0
  9
$REGENMODE
 70
     1
  9
$FILLMODE
 70
     1
  9
$QTEXTMODE
 70
     0
  9
$MIRRTEXT
 70
     1
  9
$DRAGMODE
 70
     2
  9
$LTSCALE
 40
1.0
  9
$OSMODE
 70
    37
  9
$ATTMODE
 70
     1
  9
$TEXTSIZE
 40
0.0
  9
$TRACEWID
 40
0.05
  9
$TEXTSTYLE
  7
STANDARD
  9
$CLAYER
  8
0
  9
$CELTYPE
  6
CONTINUOUS
  9
$CECOLOR
 62
   256
  9
$DIMSCALE
 40
1.0
  9
$DIMASZ
 40
0.18
  9
$DIMEXO
 40
0.0625
  9
$DIMDLI
 40
0.38
  9
$DIMRND
 40
0.0
  9
$DIMDLE
 40
0.0
  9
$DIMEXE
 40
0.18
  9
$DIMTP
 40
0.0
  9
$DIMTM
 40
0.0
  9
$DIMTXT
 40
0.18
  9
$DIMCEN
 40
0.09
  9
$DIMTSZ
 40
0.0
  9
$DIMTOL
 70
     0
  9
$DIMLIM
 70
     0
  9
$DIMTIH
 70
     1
  9
$DIMTOH
 70
     1
  9
$DIMSE1
 70
     0
  9
$DIMSE2
 70
     0
  9
$DIMTAD
 70
     0
  9
$DIMZIN
 70
     0
  9
$DIMBLK
  1

  9
$DIMASO
 70
     1
  9
$DIMSHO
 70
     1
  9
$DIMPOST
  1

  9
$DIMAPOST
  1

  9
$DIMALT
 70
     0
  9
$DIMALTD
 70
     2
  9
$DIMALTF
 40
25.399999999999999
  9
$DIMLFAC
 40
1.0
  9
$DIMTOFL
 70
     0
  9
$DIMTVP
 40
0.0
  9
$DIMTIX
 70
     0
  9
$DIMSOXD
 70
     0
  9
$DIMSAH
 70
     0
  9
$DIMBLK1
  1

  9
$DIMBLK2
  1

  9
$DIMSTYLE
  2
STANDARD
  9
$DIMCLRD
 70
     0
  9
$DIMCLRE
 70
     0
  9
$DIMCLRT
 70
     0
  9
$DIMTFAC
 40
1.0
  9
$DIMGAP
 40
0.09
  9
$LUNITS
 70
     2
  9
$LUPREC
 70
     4
  9
$SKETCHINC
 40
0.1
  9
$FILLETRAD
 40
0.0
  9
$AUNITS
 70
     0
  9
$AUPREC
 70
     0
  9
$MENU
  1
.
  9
$ELEVATION
 40
0.0
  9
$PELEVATION
 40
0.0
  9
$THICKNESS
 40
0.0
  9
$LIMCHECK
 70
     0
  9
$BLIPMODE
 70
     0
  9
$CHAMFERA
 40
0.0
  9
$CHAMFERB
 40
0.0
  9
$SKPOLY
 70
     0
  9
$TDCREATE
 40
2444972.375
  9
$TDUPDATE
 40
2457479.2692260989
  9
$TDINDWG
 40
0.0000278009
  9
$TDUSRTIMER
 40
0.0000278009
  9
$USRTIMER
 70
     1
  9
$ANGBASE
 50
0.0
  9
$ANGDIR
 70
     0
  9
$PDMODE
 70
     0
  9
$PDSIZE
 40
0.0
  9
$PLINEWID
 40
0.0
  9
$COORDS
 70
     1
  9
$SPLFRAME
 70
     0
  9
$SPLINETYPE
 70
     6
  9
$SPLINESEGS
 70
     8
  9
$ATTDIA
 70
     1
  9
$ATTREQ
 70
     1
  9
$HANDLING
 70
     1
  9
$HANDSEED
  5
226
  9
$SURFTAB1
 70
     6
  9
$SURFTAB2
 70
     6
  9
$SURFTYPE
 70
     6
  9
$SURFU
 70
     6
  9
$SURFV
 70
     6
  9
$UCSNAME
  2

  9
$UCSORG
 10
0.0
 20
0.0
 30
0.0
  9
$UCSXDIR
 10
1.0
 20
0.0
 30
0.0
  9
$UCSYDIR
 10
0.0
 20
1.0
 30
0.0
  9
$PUCSNAME
  2

  9
$PUCSORG
 10
0.0
 20
0.0
 30
0.0
  9
$PUCSXDIR
 10
1.0
 20
0.0
 30
0.0
  9
$PUCSYDIR
 10
0.0
 20
1.0
 30
0.0
  9
$USERI1
 70
     0
  9
$USERI2
 70
     0
  9
$USERI3
 70
     0
  9
$USERI4
 70
     0
  9
$USERI5
 70
     0
  9
$USERR1
 40
0.0
  9
$USERR2
 40
0.0
  9
$USERR3
 40
0.0
  9
$USERR4
 40
0.0
  9
$USERR5
 40
0.0
  9
$WORLDVIEW
 70
     1
  9
$SHADEDGE
 70
     3
  9
$SHADEDIF
 70
    70
  9
$TILEMODE
 70
     1
  9
$MAXACTVP
 70
    48
  9
$PLIMCHECK
 70
     0
  9
$PEXTMIN
 10
1.0000000000000000E+020
 20
1.0000000000000000E+020
 30
1.0000000000000000E+020
  9
$PEXTMAX
 10
-1.0000000000000000E+020
 20
-1.0000000000000000E+020
 30
-1.0000000000000000E+020
  9
$PLIMMIN
 10
0.0
 20
0.0
  9
$PLIMMAX
 10
12.0
 20
9.0
  9
$UNITMODE
 70
     0
  9
$VISRETAIN
 70
     1
  9
$PLINEGEN
 70
     0
  9
$PSLTSCALE
 70
     1
  0
ENDSEC
  0
SECTION
  2
TABLES
  0
TABLE
  2
VPORT
 70
     1
  0
VPORT
  2
*ACTIVE
 70
     0
 10
0.0
 20
0.0
 11
1.0
 21
1.0
 12
173.0589517274982
 22
127.4298
 13
0.0
 23
0.0
 14
1.0
 24
1.0
 15
0.0
 25
0.0
 16
0.0
 26
0.0
 36
1.0
 17
0.0
 27
0.0
 37
0.0
 40
289.64168420534031
 41
2.1063583815028899
 42
50.0
 43
0.0
 44
0.0
 50
0.0
 51
0.0
 71
     0
 72
   100
 73
     1
 74
     1
 75
     0
 76
     0
 77
     0
 78
     0
  0
ENDTAB
  0
TABLE
  2
LTYPE
 70
     3
  0
LTYPE
  2
CONTINUOUS
 70
     0
  3
Solid line
 72
    65
 73
     0
 40
0.0
  0
LTYPE
  2
AIGENLINE001
 70
     0
  3
generate AI->DXF Converter
 72
    65
 73
     4
 40
5.8561449999999988
 49
3.5278
 49
-0.776115
 49
0.776115
 49
-0.776115
  0
LTYPE
  2
AIGENLINE002
 70
     0
  3
generate AI->DXF Converter
 72
    65
 73
     2
 40
1.5522299999999991
 49
0.776115
 49
-0.776115
  0
ENDTAB
  0
TABLE
  2
LAYER
 70
     2
  0
LAYER
  2
0
 70
     0
 62
     7
  6
CONTINUOUS
  0
LAYER
  2
_________2
 70
     0
 62
     7
  6
CONTINUOUS
  0
ENDTAB
  0
TABLE
  2
STYLE
 70
     1
  0
STYLE
  2
STANDARD
 70
     0
 40
0.0
 41
0.0
 50
0.0
 71
     0
 42
0.0
  3
TXT
  4
EXTFONT.SHX
  0
ENDTAB
  0
TABLE
  2
VIEW
 70
     0
  0
ENDTAB
  0
TABLE
  2
UCS
 70
     0
  0
ENDTAB
  0
TABLE
  2
APPID
 70
     3
  0
APPID
  2
ACAD
 70
     0
  0
APPID
  2
ACAD_NAV_VCDISPLAY
 70
     0
  0
APPID
  2
ACAD_MLEADERVER
 70
     0
  0
ENDTAB
  0
TABLE
  2
DIMSTYLE
 70
     1
  0
DIMSTYLE
  2
STANDARD
 70
     0
  3

  4

  5

  6

  7

 40
1.0
 41
0.18
 42
0.0625
 43
0.38
 44
0.18
 45
0.0
 46
0.0
 47
0.0
 48
0.0
140
0.18
141
0.09
142
0.0
143
25.399999999999999
144
1.0
145
0.0
146
1.0
147
0.09
 71
     0
 72
     0
 73
     1
 74
     1
 75
     0
 76
     0
 77
     0
 78
     0
170
     0
171
     2
172
     0
173
     0
174
     0
175
     0
176
     0
177
     0
178
     0
  0
ENDTAB
  0
ENDSEC
  0
SECTION
  2
BLOCKS
  0
BLOCK
  8
0
  2
$MODEL_SPACE
 70
     0
 10
0.0
 20
0.0
 30
0.0
  3
$MODEL_SPACE
  1

  0
ENDBLK
  5
1A
  8
0
  0
BLOCK
 67
     1
  8
0
  2
$PAPER_SPACE
 70
     0
 10
0.0
 20
0.0
 30
0.0
  3
$PAPER_SPACE
  1

  0
ENDBLK
  5
17
 67
     1
  8
0
  0
ENDSEC
  0
SECTION
  2
ENTITIES
  0
TEXT
  5
23
  8
0
 62
     7
 10
85.760000000000005
 20
113.61799999999999
 30
0.0
 40
3.0923400000000001
  1
パッキン
 41
0.5
  0
TEXT
  5
24
  8
0
 62
     7
 10
111.92080900000001
 20
88.937399999999997
 30
0.0
 40
3.0923400000000001
  1
G1 1/4
 41
0.5
 72
     1
 11
115.477
 21
88.937399999999997
 31
0.0
  0
TEXT
  5
25
  8
0
 62
     7
 10
144.55699999999999
 20
113.8704225
 30
0.0
 40
3.0923400000000001
  1
max.50
 50
90.0
 41
0.5
 72
     1
 11
144.55699999999999
 21
117.607
 31
0.0
  0
TEXT
  5
26
  8
0
 62
     7
 10
113.6992875
 20
203.428
 30
0.0
 40
3.0923400000000001
  1
%%c60
 41
0.5
 72
     1
 11
115.63200000000001
 21
203.428
 31
0.0
  0
ARC
  5
27
  8
0
 62
     7
 10
122.80634000000001
 20
125.256891
 30
0.0
 40
2.0774430000000002
 50
272.11073599999997
 51
357.90901400000001
  0
ARC
  5
28
  8
0
 62
     7
 10
126.95844700000001
 20
128.10479100000001
 30
0.0
 40
2.0774360000000001
 50
92.110368999999992
 51
177.90440699999999
  0
LINE
  5
29
  8
0
 62
     7
 10
124.88200000000001
 20
128.18100000000001
 30
0.0
 11
124.88200000000001
 21
125.181
 31
0.0
  0
LINE
  5
2A
  8
0
 62
     7
 10
117.88200000000001
 20
122.431
 30
0.0
 11
115.63200000000001
 21
122.431
 31
0.0
  0
LINE
  5
2B
  8
0
 62
     7
 10
117.88200000000001
 20
122.431
 30
0.0
 11
118.63200000000001
 21
123.181
 31
0.0
  0
LINE
  5
2C
  8
0
 62
     7
 10
122.883
 20
123.181
 30
0.0
 11
115.63200000000001
 21
123.181
 31
0.0
  0
ARC
  5
2D
  8
0
 62
     7
 10
108.45818
 20
125.2568899999999
 30
0.0
 40
2.0774430000000002
 50
182.09098900000001
 51
267.88930099999999
  0
ARC
  5
2E
  8
0
 62
     7
 10
104.306073
 20
128.10479000000001
 30
0.0
 40
2.0774369999999989
 50
2.0955910000000002
 51
87.889593999999988
  0
LINE
  5
2F
  8
0
 62
     7
 10
106.38200000000001
 20
128.18100000000001
 30
0.0
 11
106.38200000000001
 21
125.181
 31
0.0
  0
LINE
  5
30
  8
0
 62
     7
 10
130.63200000000001
 20
130.18100000000001
 30
0.0
 11
130.63200000000001
 21
130.68100000000001
 31
0.0
  0
LINE
  5
31
  8
0
 62
     7
 10
100.63200000000001
 20
130.68100000000001
 30
0.0
 11
100.63200000000001
 21
130.18100000000001
 31
0.0
  0
LINE
  5
32
  8
0
 62
     7
 10
100.63200000000001
 20
130.68100000000001
 30
0.0
 11
130.63200000000001
 21
130.68100000000001
 31
0.0
  0
LINE
  5
33
  8
0
 62
     7
 10
113.38200000000001
 20
122.431
 30
0.0
 11
115.63200000000001
 21
122.431
 31
0.0
  0
LINE
  5
34
  8
0
 62
     7
 10
113.38200000000001
 20
122.431
 30
0.0
 11
112.63200000000001
 21
123.181
 31
0.0
  0
LINE
  5
35
  8
0
 62
     7
 10
108.38200000000001
 20
123.181
 30
0.0
 11
115.63200000000001
 21
123.181
 31
0.0
  0
LINE
  5
36
  8
0
 62
     7
 10
100.63200000000001
 20
130.18100000000001
 30
0.0
 11
130.63200000000001
 21
130.18100000000001
 31
0.0
  0
LINE
  5
37
  8
0
 62
     7
 10
146.00999999999999
 20
128.471
 30
0.0
 11
145.41800000000001
 21
130.68100000000001
 31
0.0
  0
LINE
  5
38
  8
0
 62
     7
 10
145.41800000000001
 20
130.68100000000001
 30
0.0
 11
144.8249999999999
 21
128.471
 31
0.0
  0
LINE
  5
39
  8
0
 62
     7
 10
144.8249999999999
 20
128.471
 30
0.0
 11
146.00999999999999
 21
128.471
 31
0.0
  0
LINE
  5
3A
  8
0
 62
     7
 10
144.84
 20
107.892
 30
0.0
 11
145.43199999999999
 21
105.681
 31
0.0
  0
LINE
  5
3B
  8
0
 62
     7
 10
145.43199999999999
 20
105.681
 30
0.0
 11
146.024
 21
107.892
 31
0.0
  0
LINE
  5
3C
  8
0
 62
     7
 10
146.024
 20
107.892
 30
0.0
 11
144.84
 21
107.892
 31
0.0
  0
LINE
  5
3D
  8
0
 62
     7
 10
145.42500000000001
 20
130.68100000000001
 30
0.0
 11
145.42500000000001
 21
105.681
 31
0.0
  0
LINE
  5
3E
  8
0
 62
     7
 10
146.18100000000001
 20
130.68100000000001
 30
0.0
 11
131.33199999999999
 21
130.68100000000001
 31
0.0
  0
LINE
  5
3F
  8
0
 62
     7
 10
132.83199999999999
 20
105.681
 30
0.0
 11
146.18100000000001
 21
105.681
 31
0.0
  0
LINE
  5
40
  8
0
 62
     7
 10
107.592
 20
88.957800000000006
 30
0.0
 11
105.38200000000001
 21
88.365200000000002
 31
0.0
  0
LINE
  5
41
  8
0
 62
     7
 10
105.38200000000001
 20
88.365200000000002
 30
0.0
 11
107.592
 21
87.773300000000006
 31
0.0
  0
LINE
  5
42
  8
0
 62
     7
 10
107.592
 20
87.773300000000006
 30
0.0
 11
107.592
 21
88.957800000000006
 31
0.0
  0
LINE
  5
43
  8
0
 62
     7
 10
106.328
 20
106.414
 30
0.0
 11
108.496
 21
105.681
 31
0.0
  0
LINE
  5
44
  8
0
 62
     7
 10
108.496
 20
105.681
 30
0.0
 11
106.98399999999999
 21
107.399
 31
0.0
  0
LINE
  5
45
  8
0
 62
     7
 10
106.98399999999999
 20
107.399
 30
0.0
 11
106.328
 21
106.414
 31
0.0
  0
LINE
  5
46
  8
0
 62
     7
 10
97.621000000000009
 20
112.91800000000001
 30
0.0
 11
108.492
 21
105.67400000000001
 31
0.0
  0
LINE
  5
47
  8
0
 62
     7
 10
123.67100000000001
 20
87.787800000000004
 30
0.0
 11
125.88200000000001
 21
88.380300000000005
 31
0.0
  0
LINE
  5
48
  8
0
 62
     7
 10
125.88200000000001
 20
88.380300000000005
 30
0.0
 11
123.67100000000001
 21
88.972200000000001
 31
0.0
  0
LINE
  5
49
  8
0
 62
     7
 10
123.67100000000001
 20
88.972200000000001
 30
0.0
 11
123.67100000000001
 21
87.787800000000004
 31
0.0
  0
LINE
  5
4A
  8
0
 62
     7
 10
85.760000000000005
 20
112.91800000000001
 30
0.0
 11
97.621000000000009
 21
112.91800000000001
 31
0.0
  0
LINE
  5
4B
  8
0
 62
     7
 10
105.38200000000001
 20
88.372799999999984
 30
0.0
 11
125.88200000000001
 21
88.372799999999984
 31
0.0
  0
LINE
  5
4C
  8
0
 62
     7
 10
125.88200000000001
 20
97.198499999999996
 30
0.0
 11
125.88200000000001
 21
87.600700000000003
 31
0.0
  0
LINE
  5
4D
  8
0
 62
     7
 10
105.38200000000001
 20
87.600700000000003
 30
0.0
 11
105.38200000000001
 21
97.198499999999996
 31
0.0
  0
LINE
  5
4E
  8
0
 62
     7
 10
114.13200000000001
 20
96.180800000000005
 30
0.0
 11
114.63200000000001
 21
95.680899999999994
 31
0.0
  0
LINE
  5
4F
  8
0
 62
     7
 10
117.13200000000001
 20
96.180800000000005
 30
0.0
 11
116.63200000000001
 21
95.680899999999994
 31
0.0
  0
LINE
  5
50
  8
0
 62
     7
 10
114.63200000000001
 20
95.680899999999994
 30
0.0
 11
114.63200000000001
 21
98.180700000000002
 31
0.0
  0
LINE
  5
51
  8
0
 62
     7
 10
116.63200000000001
 20
95.680899999999994
 30
0.0
 11
116.63200000000001
 21
98.180700000000002
 31
0.0
  0
LINE
  5
52
  8
0
 62
     7
 10
114.13200000000001
 20
96.180800000000005
 30
0.0
 11
117.13200000000001
 21
96.180800000000005
 31
0.0
  0
LINE
  5
53
  8
0
 62
     7
 10
114.63200000000001
 20
95.680899999999994
 30
0.0
 11
116.63200000000001
 21
95.680899999999994
 31
0.0
  0
LINE
  5
54
  8
0
 62
     7
 10
117.13200000000001
 20
96.180800000000005
 30
0.0
 11
117.13200000000001
 21
98.180700000000002
 31
0.0
  0
LINE
  5
55
  8
0
 62
     7
 10
114.13200000000001
 20
96.180800000000005
 30
0.0
 11
114.13200000000001
 21
98.180700000000002
 31
0.0
  0
LINE
  5
56
  8
0
 62
     7
 10
125.38200000000001
 20
98.180700000000002
 30
0.0
 11
125.88200000000001
 21
98.680899999999994
 31
0.0
  0
LINE
  5
57
  8
0
 62
     7
 10
105.38200000000001
 20
98.680899999999994
 30
0.0
 11
105.88200000000001
 21
98.180700000000002
 31
0.0
  0
LINE
  5
58
  8
0
 62
     7
 10
125.883
 20
98.680899999999994
 30
0.0
 11
105.38200000000001
 21
98.680899999999994
 31
0.0
  0
LINE
  5
59
  8
0
 62
     7
 10
125.38200000000001
 20
103.181
 30
0.0
 11
125.38200000000001
 21
98.180700000000002
 31
0.0
  0
LINE
  5
5A
  8
0
 62
     7
 10
105.88200000000001
 20
98.180700000000002
 30
0.0
 11
105.88200000000001
 21
103.181
 31
0.0
  0
LINE
  5
5B
  8
0
 62
     7
 10
125.38200000000001
 20
98.180700000000002
 30
0.0
 11
105.88200000000001
 21
98.180700000000002
 31
0.0
  0
LINE
  5
5C
  8
0
 62
     7
 10
125.88200000000001
 20
103.181
 30
0.0
 11
125.88200000000001
 21
98.680899999999994
 31
0.0
  0
LINE
  5
5D
  8
0
 62
     7
 10
105.38200000000001
 20
98.680899999999994
 30
0.0
 11
105.38200000000001
 21
103.181
 31
0.0
  0
LINE
  5
5E
  8
0
 62
     7
 10
131.88200000000001
 20
104.681
 30
0.0
 11
131.88200000000001
 21
103.931
 31
0.0
  0
LINE
  5
5F
  8
0
 62
     7
 10
131.13200000000001
 20
103.181
 30
0.0
 11
100.13200000000001
 21
103.181
 31
0.0
  0
ARC
  5
60
  8
0
 62
     7
 10
131.10324199999999
 20
103.959878
 30
0.0
 40
0.7794979999999999
 50
272.128086
 51
357.84559900000011
  0
LINE
  5
61
  8
0
 62
     7
 10
99.382000000000005
 20
104.681
 30
0.0
 11
99.382000000000005
 21
103.931
 31
0.0
  0
ARC
  5
62
  8
0
 62
     7
 10
100.16061999999999
 20
103.959564
 30
0.0
 40
0.7791730000000001
 50
182.13219100000001
 51
267.89416299999999
  0
LINE
  5
63
  8
0
 62
     7
 10
114.63200000000001
 20
105.681
 30
0.0
 11
114.63200000000001
 21
122.431
 31
0.0
  0
LINE
  5
64
  8
0
 62
     7
 10
116.63200000000001
 20
105.681
 30
0.0
 11
116.63200000000001
 21
122.431
 31
0.0
  0
LINE
  5
65
  8
0
 62
     7
 10
99.132000000000005
 20
104.681
 30
0.0
 11
99.132000000000005
 21
105.681
 31
0.0
  0
LINE
  5
66
  8
0
 62
     7
 10
132.13200000000001
 20
104.681
 30
0.0
 11
132.13200000000001
 21
105.681
 31
0.0
  0
LINE
  5
67
  8
0
 62
     7
 10
132.13200000000001
 20
104.681
 30
0.0
 11
99.132000000000005
 21
104.681
 31
0.0
  0
LINE
  5
68
  8
0
 62
     7
 10
132.13200000000001
 20
105.681
 30
0.0
 11
99.132000000000005
 21
105.681
 31
0.0
  0
LINE
  5
69
  8
0
 62
     7
 10
114.13200000000001
 20
105.681
 30
0.0
 11
114.13200000000001
 21
122.431
 31
0.0
  0
LINE
  5
6A
  8
0
 62
     7
 10
117.13200000000001
 20
105.681
 30
0.0
 11
117.13200000000001
 21
122.431
 31
0.0
  0
LINE
  5
6B
  8
0
  6
AIGENLINE001
 62
     7
 10
115.63200000000001
 20
93.498400000000004
 30
0.0
 11
115.63200000000001
 21
132.29300000000001
 31
0.0
  0
LINE
  5
6C
  8
0
 62
     7
 10
102.843
 20
203.31299999999999
 30
0.0
 11
100.63200000000001
 21
202.72
 31
0.0
  0
LINE
  5
6D
  8
0
 62
     7
 10
100.63200000000001
 20
202.72
 30
0.0
 11
102.843
 21
202.12799999999999
 31
0.0
  0
LINE
  5
6E
  8
0
 62
     7
 10
102.843
 20
202.12799999999999
 30
0.0
 11
102.843
 21
203.31299999999999
 31
0.0
  0
LINE
  5
6F
  8
0
 62
     7
 10
128.42099999999999
 20
202.143
 30
0.0
 11
130.63200000000001
 21
202.73400000000001
 31
0.0
  0
LINE
  5
70
  8
0
 62
     7
 10
130.63200000000001
 20
202.73400000000001
 30
0.0
 11
128.42099999999999
 21
203.327
 31
0.0
  0
LINE
  5
71
  8
0
 62
     7
 10
128.42099999999999
 20
203.327
 30
0.0
 11
128.42099999999999
 21
202.143
 31
0.0
  0
LINE
  5
72
  8
0
 62
     7
 10
100.63200000000001
 20
202.72800000000001
 30
0.0
 11
130.63200000000001
 21
202.72800000000001
 31
0.0
  0
LINE
  5
73
  8
0
 62
     7
 10
130.63200000000001
 20
185.7649999999999
 30
0.0
 11
130.63200000000001
 21
203.44
 31
0.0
  0
LINE
  5
74
  8
0
 62
     7
 10
100.63200000000001
 20
186.80199999999999
 30
0.0
 11
100.63200000000001
 21
203.44
 31
0.0
  0
ARC
  5
75
  8
0
 62
     7
 10
120.395393
 20
184.973772
 30
0.0
 40
1.9999769999999999
 50
359.99754300000001
 51
89.997512999999984
  0
ARC
  5
76
  8
0
 62
     7
 10
120.395394
 20
184.97359900000001
 30
0.0
 40
2.0001489999999991
 50
89.997533000000004
 51
179.99750299999999
  0
ARC
  5
77
  8
0
 62
     7
 10
120.395307
 20
184.97385800000001
 30
0.0
 40
2.0000619999999989
 50
180.00494499999999
 51
270.004954
  0
ARC
  5
78
  8
0
 62
     7
 10
120.39547899999999
 20
184.97368599999999
 30
0.0
 40
1.9998910000000001
 50
270.00002000000001
 51
359.99999000000003
  0
ARC
  5
79
  8
0
 62
     7
 10
120.395393
 20
179.47381399999989
 30
0.0
 40
1.9999769999999999
 50
359.99754300000001
 51
89.997512999999984
  0
ARC
  5
7A
  8
0
 62
     7
 10
120.395394
 20
179.4736419999999
 30
0.0
 40
2.0001489999999991
 50
89.997533000000004
 51
179.99750299999999
  0
ARC
  5
7B
  8
0
 62
     7
 10
120.395393
 20
179.47381399999989
 30
0.0
 40
2.0001489999999991
 50
180.002477
 51
270.00248699999997
  0
ARC
  5
7C
  8
0
 62
     7
 10
120.395393
 20
179.47364300000001
 30
0.0
 40
1.9999769999999999
 50
270.00248699999997
 51
0.002457
  0
ARC
  5
7D
  8
0
 62
     7
 10
115.63217400000001
 20
176.723749
 30
0.0
 40
1.9999769999999999
 50
359.99754300000001
 51
89.997512999999984
  0
ARC
  5
7E
  8
0
 62
     7
 10
115.632347
 20
176.723749
 30
0.0
 40
1.9999769999999999
 50
90.00246700000001
 51
180.002477
  0
ARC
  5
7F
  8
0
 62
     7
 10
115.632346
 20
176.72357700000001
 30
0.0
 40
1.9999759999999991
 50
179.99750299999999
 51
269.99755199999998
  0
ARC
  5
80
  8
0
 62
     7
 10
115.63217400000001
 20
176.723578
 30
0.0
 40
1.9999769999999999
 50
270.00248699999997
 51
0.002457
  0
ARC
  5
81
  8
0
 62
     7
 10
110.869041
 20
179.47372799999999
 30
0.0
 40
1.9998910000000001
 50
0.00001
 51
89.999980000000008
  0
ARC
  5
82
  8
0
 62
     7
 10
110.86904199999999
 20
179.47372799999999
 30
0.0
 40
1.9998910000000001
 50
90.0
 51
179.99996999999999
  0
ARC
  5
83
  8
0
 62
     7
 10
110.86912700000001
 20
179.4736419999999
 30
0.0
 40
1.9999759999999991
 50
179.99750299999999
 51
269.99755199999998
  0
ARC
  5
84
  8
0
 62
     7
 10
110.868955
 20
179.47364300000001
 30
0.0
 40
1.9999769999999999
 50
270.00248699999997
 51
0.002457
  0
ARC
  5
85
  8
0
 62
     7
 10
110.868955
 20
184.973772
 30
0.0
 40
1.9999769999999999
 50
359.99754300000001
 51
89.997512999999984
  0
ARC
  5
86
  8
0
 62
     7
 10
110.869128
 20
184.973772
 30
0.0
 40
1.9999769999999999
 50
90.00246700000001
 51
180.002477
  0
ARC
  5
87
  8
0
 62
     7
 10
110.86912700000001
 20
184.97359900000001
 30
0.0
 40
1.9999759999999991
 50
179.99750299999999
 51
269.99755199999998
  0
ARC
  5
88
  8
0
 62
     7
 10
110.868955
 20
184.9736
 30
0.0
 40
1.9999769999999999
 50
270.00248699999997
 51
0.002457
  0
ARC
  5
89
  8
0
 62
     7
 10
115.63217400000001
 20
187.723837
 30
0.0
 40
1.9999769999999999
 50
359.99754300000001
 51
89.997512999999984
  0
ARC
  5
8A
  8
0
 62
     7
 10
115.632175
 20
187.7236639999999
 30
0.0
 40
2.0001489999999991
 50
89.997533000000004
 51
179.99750299999999
  0
ARC
  5
8B
  8
0
 62
     7
 10
115.63217400000001
 20
187.723837
 30
0.0
 40
2.0001489999999991
 50
180.002477
 51
270.00248699999997
  0
ARC
  5
8C
  8
0
 62
     7
 10
115.63217400000001
 20
187.72366500000001
 30
0.0
 40
1.9999769999999999
 50
270.00248699999997
 51
0.002457
  0
LINE
  5
8D
  8
0
 62
     7
 10
116.00700000000001
 20
184.94799999999989
 30
0.0
 11
116.00700000000001
 21
179.499
 31
0.0
  0
LINE
  5
8E
  8
0
 62
     7
 10
115.25700000000001
 20
184.94799999999989
 30
0.0
 11
115.25700000000001
 21
179.499
 31
0.0
  0
ARC
  5
8F
  8
0
 62
     7
 10
115.63217400000001
 20
182.22370699999999
 30
0.0
 40
2.7499790000000002
 50
359.99821500000002
 51
89.998186000000004
  0
ARC
  5
90
  8
0
 62
     7
 10
115.632347
 20
182.22370699999999
 30
0.0
 40
2.7499790000000002
 50
90.001793999999975
 51
180.00180399999999
  0
ARC
  5
91
  8
0
 62
     7
 10
115.63226
 20
182.22362100000001
 30
0.0
 40
2.749892
 50
179.99996999999999
 51
270.00002000000001
  0
ARC
  5
92
  8
0
 62
     7
 10
115.63226
 20
182.22362100000001
 30
0.0
 40
2.7498930000000001
 50
270.00002000000001
 51
359.99999000000003
  0
ARC
  5
93
  8
0
 62
     7
 10
115.632172
 20
182.223705
 30
0.0
 40
15.000128999999999
 50
359.99968100000001
 51
89.999651
  0
ARC
  5
94
  8
0
 62
     7
 10
115.632349
 20
182.223705
 30
0.0
 40
15.000128999999999
 50
90.000329000000022
 51
180.000339
  0
ARC
  5
95
  8
0
 62
     7
 10
115.63225799999999
 20
182.22361799999999
 30
0.0
 40
15.000038
 50
179.99996999999999
 51
270.00002000000001
  0
ARC
  5
96
  8
0
 62
     7
 10
115.63225799999999
 20
182.223624
 30
0.0
 40
15.000043
 50
270.00002000000001
 51
359.99999000000003
  0
LINE
  5
97
  8
0
  6
AIGENLINE001
 62
     7
 10
133.10599999999999
 20
182.22399999999999
 30
0.0
 11
98.438900000000004
 21
182.22399999999999
 31
0.0
  0
LINE
  5
98
  8
0
  6
AIGENLINE001
 62
     7
 10
115.63200000000001
 20
199.697
 30
0.0
 11
115.63200000000001
 21
165.095
 31
0.0
  0
ARC
  5
99
  8
0
 62
     7
 10
115.63217299999999
 20
182.223705
 30
0.0
 40
9.4999990000000007
 50
359.99948999999998
 51
89.999460999999997
  0
ARC
  5
9A
  8
0
 62
     7
 10
115.632176
 20
182.223533
 30
0.0
 40
9.5001709999999981
 50
89.999481000000003
 51
179.99945099999999
  0
ARC
  5
9B
  8
0
 62
     7
 10
115.632086
 20
182.223792
 30
0.0
 40
9.5000809999999998
 50
180.00104899999999
 51
270.001059
  0
ARC
  5
9C
  8
0
 62
     7
 10
115.632259
 20
182.223623
 30
0.0
 40
9.4999130000000012
 50
270.00002000000001
 51
359.99999000000003
  0
LINE
  5
9D
  8
0
  6
AIGENLINE001
 62
     7
 10
62.958100000000002
 20
154.72300000000001
 30
0.0
 11
62.958100000000002
 21
139.17599999999999
 31
0.0
  0
LINE
  5
9E
  8
0
  6
AIGENLINE001
 62
     7
 10
75.731300000000005
 20
182.22399999999999
 30
0.0
 11
50.68419999999999
 21
182.22399999999999
 31
0.0
  0
LINE
  5
9F
  8
0
  6
AIGENLINE001
 62
     7
 10
62.958100000000002
 20
195.19999999999999
 30
0.0
 11
62.958100000000002
 21
169.63399999999999
 31
0.0
  0
ARC
  5
A0
  8
0
 62
     7
 10
62.958224000000001
 20
182.223533
 30
0.0
 40
9.5001709999999981
 50
0.000529
 51
90.000499999999988
  0
ARC
  5
A1
  8
0
 62
     7
 10
62.958227999999998
 20
182.223705
 30
0.0
 40
9.4999990000000007
 50
90.000518999999997
 51
180.000529
  0
ARC
  5
A2
  8
0
 62
     7
 10
62.958137999999998
 20
182.22361900000001
 30
0.0
 40
9.4999089999999988
 50
179.99996999999999
 51
270.00002000000001
  0
ARC
  5
A3
  8
0
 62
     7
 10
62.958311000000002
 20
182.223795
 30
0.0
 40
9.5000850000000003
 50
269.99898100000001
 51
359.99895099999998
  0
LINE
  5
A4
  8
0
  6
AIGENLINE002
 62
     7
 10
70.250100000000003
 20
142.53100000000001
 30
0.0
 11
70.250100000000003
 21
146.06299999999999
 31
0.0
  0
LINE
  5
A5
  8
0
  6
AIGENLINE002
 62
     7
 10
70.250100000000003
 20
146.06299999999999
 30
0.0
 11
55.666499999999999
 21
146.06299999999999
 31
0.0
  0
LINE
  5
A6
  8
0
  6
AIGENLINE002
 62
     7
 10
55.666499999999999
 20
146.06299999999999
 30
0.0
 11
55.666499999999999
 21
142.53100000000001
 31
0.0
  0
LINE
  5
A7
  8
0
 62
     7
 10
53.458199999999991
 20
147.53100000000001
 30
0.0
 11
53.958100000000002
 21
142.53100000000001
 31
0.0
  0
LINE
  5
A8
  8
0
 62
     7
 10
72.458100000000002
 20
147.53100000000001
 30
0.0
 11
71.958200000000005
 21
142.53100000000001
 31
0.0
  0
LINE
  5
A9
  8
0
 62
     7
 10
71.958200000000005
 20
142.53100000000001
 30
0.0
 11
53.958100000000002
 21
142.53100000000001
 31
0.0
  0
LINE
  5
AA
  8
0
 62
     7
 10
72.458100000000002
 20
147.53100000000001
 30
0.0
 11
53.458199999999991
 21
147.53100000000001
 31
0.0
  0
LINE
  5
AB
  8
0
 62
     7
 10
66.652699999999996
 20
147.53100000000001
 30
0.0
 11
66.001599999999996
 21
148.83799999999999
 31
0.0
  0
LINE
  5
AC
  8
0
 62
     7
 10
66.001599999999996
 20
148.83799999999999
 30
0.0
 11
65.350399999999993
 21
150.14500000000001
 31
0.0
  0
ARC
  5
AD
  8
0
 62
     7
 10
62.957227000000003
 20
150.13655800000001
 30
0.0
 40
0.786624
 50
89.883319
 51
95.547010999999998
  0
ARC
  5
AE
  8
0
 62
     7
 10
62.906453000000013
 20
150.63200699999999
 30
0.0
 40
0.288599
 50
95.021940999999998
 51
110.39784
  0
ARC
  5
AF
  8
0
 62
     7
 10
62.909939000000001
 20
150.65173999999999
 30
0.0
 40
0.2715079999999999
 50
112.539129
 51
134.46996300000001
  0
ARC
  5
B0
  8
0
 62
     7
 10
52.757129000000013
 20
160.71185700000001
 30
0.0
 40
14.021366
 50
314.85752000000002
 51
315.27810099999999
  0
ARC
  5
B1
  8
0
 62
     7
 10
62.835849000000003
 20
150.585792
 30
0.0
 40
0.265621
 50
135.29999799999999
 51
157.63902999999999
  0
ARC
  5
B2
  8
0
 62
     7
 10
62.837094999999998
 20
150.58369999999999
 30
0.0
 40
0.267573
 50
157.32604699999999
 51
179.52806100000001
  0
LINE
  5
B3
  8
0
 62
     7
 10
62.569499999999991
 20
150.58600000000001
 30
0.0
 11
62.569499999999991
 21
150.483
 31
0.0
  0
ARC
  5
B4
  8
0
 62
     7
 10
62.828662999999999
 20
150.483026
 30
0.0
 40
0.259133
 50
180.06731500000001
 51
203.04020800000001
  0
ARC
  5
B5
  8
0
 62
     7
 10
62.842812999999992
 20
150.48689100000001
 30
0.0
 40
0.273673
 50
202.62543600000001
 51
224.32973000000001
  0
ARC
  5
B6
  8
0
 62
     7
 10
55.621684000000002
 20
143.21420699999999
 30
0.0
 40
9.9750969999999999
 50
44.636597000000002
 51
45.227781999999998
  0
ARC
  5
B7
  8
0
 62
     7
 10
62.906142000000003
 20
150.41080500000001
 30
0.0
 40
0.264758
 50
225.24690200000001
 51
247.74400700000001
  0
ARC
  5
B8
  8
0
 62
     7
 10
62.909447
 20
150.417056
 30
0.0
 40
0.271796
 50
247.59824499999999
 51
269.44366300000002
  0
LINE
  5
B9
  8
0
 62
     7
 10
62.906799999999997
 20
150.14500000000001
 30
0.0
 11
62.958500000000001
 21
150.14500000000001
 31
0.0
  0
LINE
  5
BA
  8
0
 62
     7
 10
62.958500000000001
 20
150.14500000000001
 30
0.0
 11
62.958799999999997
 21
150.14500000000001
 31
0.0
  0
LINE
  5
BB
  8
0
 62
     7
 10
62.958799999999997
 20
150.14500000000001
 30
0.0
 11
65.314899999999994
 21
150.14500000000001
 31
0.0
  0
ARC
  5
BC
  8
0
 62
     7
 10
66.493174999999994
 20
-29.450966000000001
 30
0.0
 40
179.60010399999999
 50
89.624110000000016
 51
90.375870000000006
  0
LINE
  5
BD
  8
0
 62
     7
 10
67.671400000000006
 20
150.14500000000001
 30
0.0
 11
67.722700000000003
 21
150.14500000000001
 31
0.0
  0
ARC
  5
BE
  8
0
 62
     7
 10
67.722061999999994
 20
150.40738400000001
 30
0.0
 40
0.262112
 50
270.14759099999998
 51
292.81054
  0
ARC
  5
BF
  8
0
 62
     7
 10
67.721749000000003
 20
150.41330400000001
 30
0.0
 40
0.267698
 50
292.381122
 51
314.62800900000002
  0
ARC
  5
C0
  8
0
 62
     7
 10
76.636449999999996
 20
141.548551
 30
0.0
 40
12.304335999999999
 50
134.692137
 51
135.17254299999999
  0
ARC
  5
C1
  8
0
 62
     7
 10
67.796689000000001
 20
150.480535
 30
0.0
 40
0.262364
 50
315.196461
 51
337.84841299999999
  0
ARC
  5
C2
  8
0
 62
     7
 10
67.791123999999996
 20
150.4850919999999
 30
0.0
 40
0.269245
 50
337.39676100000003
 51
359.49575599999997
  0
LINE
  5
C3
  8
0
 62
     7
 10
68.060400000000001
 20
150.483
 30
0.0
 11
68.060400000000001
 21
150.58600000000001
 31
0.0
  0
ARC
  5
C4
  8
0
 62
     7
 10
67.802210000000002
 20
150.58562800000001
 30
0.0
 40
0.258149
 50
0.061229
 51
23.084623000000001
  0
ARC
  5
C5
  8
0
 62
     7
 10
67.785499999999999
 20
150.58013399999999
 30
0.0
 40
0.275679
 50
22.773403999999999
 51
44.287528000000002
  0
ARC
  5
C6
  8
0
 62
     7
 10
98.053481999999988
 20
180.987393
 30
0.0
 40
42.628338999999997
 50
224.99832799999999
 51
225.13699299999999
  0
ARC
  5
C7
  8
0
 62
     7
 10
67.723675999999983
 20
150.65788800000001
 30
0.0
 40
0.264273
 50
45.225951999999999
 51
67.764918000000009
  0
ARC
  5
C8
  8
0
 62
     7
 10
67.720188000000007
 20
150.65392900000001
 30
0.0
 40
0.269263
 50
67.396601000000004
 51
89.457526999999985
  0
LINE
  5
C9
  8
0
 62
     7
 10
67.722700000000003
 20
150.923
 30
0.0
 11
67.671400000000006
 21
150.923
 31
0.0
  0
ARC
  5
CA
  8
0
 62
     7
 10
66.493174999999994
 20
-29.299237999999999
 30
0.0
 40
180.22627
 50
89.625415999999987
 51
90.374564000000007
  0
ARC
  5
CB
  8
0
 62
     7
 10
64.136887000000002
 20
-27.259765000000002
 30
0.0
 40
178.18683999999999
 50
89.621183999999985
 51
90.37879599999998
  0
LINE
  5
CC
  8
0
 62
     7
 10
59.2639
 20
147.53100000000001
 30
0.0
 11
60.2258
 21
149.46100000000001
 31
0.0
  0
LINE
  5
CD
  8
0
 62
     7
 10
60.2258
 20
149.46100000000001
 30
0.0
 11
61.1877
 21
151.392
 31
0.0
  0
ARC
  5
CE
  8
0
 62
     7
 10
8.3869910000000001
 20
177.79427799999999
 30
0.0
 40
59.033814999999997
 50
333.43333200000001
 51
333.64193299999999
  0
ARC
  5
CF
  8
0
 62
     7
 10
62.478055000000012
 20
150.98639299999999
 30
0.0
 40
1.3359389999999991
 50
134.88466299999999
 51
153.40484900000001
  0
ARC
  5
D0
  8
0
 62
     7
 10
62.493698999999999
 20
150.97422700000001
 30
0.0
 40
1.3556010000000001
 50
116.747028
 51
134.99030099999999
  0
ARC
  5
D1
  8
0
 62
     7
 10
-5.234310999999999
 20
287.39007199999998
 30
0.0
 40
150.947956
 50
296.4004930000001
 51
296.58166800000009
  0
ARC
  5
D2
  8
0
 62
     7
 10
62.903160999999997
 20
151.20339000000001
 30
0.0
 40
1.333132999999999
 50
93.680676000000005
 51
116.38083399999999
  0
ARC
  5
D3
  8
0
 62
     7
 10
62.912531999999992
 20
151.165696
 30
0.0
 40
1.371367999999999
 50
71.919665000000009
 51
93.970314000000016
  0
ARC
  5
D4
  8
0
 62
     7
 10
10.969366000000001
 20
-4.596836999999999
 30
0.0
 40
165.56652700000001
 50
71.379082999999994
 51
71.560652000000005
  0
ARC
  5
D5
  8
0
 62
     7
 10
63.409942000000001
 20
151.04108299999999
 30
0.0
 40
1.3314019999999991
 50
48.642253000000011
 51
71.354320999999999
  0
ARC
  5
D6
  8
0
 62
     7
 10
63.387871999999987
 20
151.00481500000001
 30
0.0
 40
1.373229
 50
26.934366999999991
 51
48.950938000000001
  0
ARC
  5
D7
  8
0
 62
     7
 10
143.03264300000001
 20
190.60418300000001
 30
0.0
 40
87.572872999999987
 50
206.42876899999999
 51
206.600436
  0
LINE
  5
D8
  8
0
 62
     7
 10
64.729299999999995
 20
151.392
 30
0.0
 11
64.846100000000007
 21
151.15799999999999
 31
0.0
  0
ARC
  5
D9
  8
0
 62
     7
 10
-333.31192600000003
 20
-47.336314999999999
 30
0.0
 40
444.8928269999999
 50
26.463923999999999
 51
26.497655999999999
  0
LINE
  5
DA
  8
0
 62
     7
 10
63.347099999999998
 20
183.779
 30
0.0
 11
63.347099999999998
 21
183.851
 31
0.0
  0
LINE
  5
DB
  8
0
 62
     7
 10
63.347099999999998
 20
183.851
 30
0.0
 11
63.347099999999998
 21
183.923
 31
0.0
  0
LINE
  5
DC
  8
0
 62
     7
 10
63.347099999999998
 20
183.923
 30
0.0
 11
63.347099999999998
 21
183.958
 31
0.0
  0
ARC
  5
DD
  8
0
 62
     7
 10
63.617254000000003
 20
183.958494
 30
0.0
 40
0.27016
 50
165.20460600000001
 51
180.05446000000001
  0
ARC
  5
DE
  8
0
 62
     7
 10
63.623627999999997
 20
183.95863199999999
 30
0.0
 40
0.276294
 50
151.03716600000001
 51
165.569759
  0
ARC
  5
DF
  8
0
 62
     7
 10
67.535646999999997
 20
181.848196
 30
0.0
 40
4.7212569999999987
 50
150.528989
 51
151.61812599999999
  0
ARC
  5
E0
  8
0
 62
     7
 10
63.668092999999999
 20
184.03779499999999
 30
0.0
 40
0.276923
 50
128.44238799999999
 51
151.25418999999999
  0
ARC
  5
E1
  8
0
 62
     7
 10
63.676121999999992
 20
184.02845199999999
 30
0.0
 40
0.289232
 50
106.6861389999999
 51
128.53743600000001
  0
LINE
  5
E2
  8
0
 62
     7
 10
63.5931
 20
184.30600000000001
 30
0.0
 11
63.698799999999999
 21
184.33600000000001
 31
0.0
  0
ARC
  5
E3
  8
0
 62
     7
 10
63.775469999999991
 20
184.06659099999999
 30
0.0
 40
0.28009
 50
83.320119999999974
 51
105.877987
  0
ARC
  5
E4
  8
0
 62
     7
 10
63.775781999999992
 20
184.05902599999999
 30
0.0
 40
0.28757
 50
61.627093000000002
 51
83.557203999999999
  0
ARC
  5
E5
  8
0
 62
     7
 10
76.354456999999996
 20
207.02445
 30
0.0
 40
25.897044000000001
 50
241.28575900000001
 51
241.40736100000001
  0
ARC
  5
E6
  8
0
 62
     7
 10
-1270.856
 20
-2239.3539999999998
 30
0.0
 40
2766.9059999999999
 50
61.119337000000002
 51
61.156270999999997
  0
LINE
  5
E7
  8
0
 62
     7
 10
65.5227
 20
183.42500000000001
 30
0.0
 11
67.084999999999994
 21
182.56399999999999
 31
0.0
  0
ARC
  5
E8
  8
0
 62
     7
 10
68.505188000000004
 20
185.09055499999999
 30
0.0
 40
2.898474999999999
 50
240.661945
 51
241.385919
  0
ARC
  5
E9
  8
0
 62
     7
 10
66.984438999999995
 20
182.30747700000001
 30
0.0
 40
0.272999
 50
45.438037999999999
 51
60.929450000000003
  0
ARC
  5
EA
  8
0
 62
     7
 10
66.988903000000008
 20
182.31523100000001
 30
0.0
 40
0.264351
 50
29.007031000000001
 51
44.948153000000012
  0
ARC
  5
EB
  8
0
 62
     7
 10
73.045043000000007
 20
185.6102939999999
 30
0.0
 40
6.6301670000000001
 50
208.531801
 51
209.295356
  0
ARC
  5
EC
  8
0
 62
     7
 10
67.031497999999999
 20
182.24001000000001
 30
0.0
 40
0.263438
 50
6.037647999999999
 51
28.590392000000001
  0
ARC
  5
ED
  8
0
 62
     7
 10
67.021610999999993
 20
182.238832
 30
0.0
 40
0.273394
 50
344.34403500000002
 51
6.0650389999999987
  0
ARC
  5
EE
  8
0
 62
     7
 10
93.676424999999995
 20
174.46583799999999
 30
0.0
 40
27.491681
 50
163.73642100000001
 51
163.95058700000001
  0
ARC
  5
EF
  8
0
 62
     7
 10
67.002960000000002
 20
182.14101199999999
 30
0.0
 40
0.2640820000000001
 50
321.065877
 51
343.57756499999999
  0
ARC
  5
F0
  8
0
 62
     7
 10
67.002630999999994
 20
182.13722300000001
 30
0.0
 40
0.261975
 50
299.13445100000001
 51
321.755628
  0
ARC
  5
F1
  8
0
 62
     7
 10
24.518674000000001
 20
259.92615899999998
 30
0.0
 40
88.896073999999999
 50
298.609217
 51
298.64235600000001
  0
ARC
  5
F2
  8
0
 62
     7
 10
42.92292299999999
 20
225.04155
 30
0.0
 40
49.461126999999998
 50
298.4751
 51
299.242527
  0
LINE
  5
F3
  8
0
 62
     7
 10
66.504800000000003
 20
181.56399999999999
 30
0.0
 11
65.5227
 21
181.023
 31
0.0
  0
ARC
  5
F4
  8
0
 62
     7
 10
1596.4079999999999
 20
-2598.3490000000011
 30
0.0
 40
3173.0929999999998
 50
118.846073
 51
118.87827900000001
  0
ARC
  5
F5
  8
0
 62
     7
 10
61.544924999999992
 20
184.55841699999999
 30
0.0
 40
5.0164989999999987
 50
298.38849699999997
 51
298.78732100000002
  0
ARC
  5
F6
  8
0
 62
     7
 10
63.799494000000003
 20
180.38173599999999
 30
0.0
 40
0.27017
 50
284.08420999999998
 51
298.88669199999998
  0
ARC
  5
F7
  8
0
 62
     7
 10
63.795195999999997
 20
180.39451199999999
 30
0.0
 40
0.28361
 50
270.09132699999998
 51
284.29834199999999
  0
LINE
  5
F8
  8
0
 62
     7
 10
63.7956
 20
180.11099999999999
 30
0.0
 11
63.706099999999999
 21
180.11099999999999
 31
0.0
  0
ARC
  5
F9
  8
0
 62
     7
 10
63.706288000000001
 20
180.388972
 30
0.0
 40
0.278069
 50
247.212298
 51
269.95604500000002
  0
ARC
  5
FA
  8
0
 62
     7
 10
63.704706999999992
 20
180.39143799999999
 30
0.0
 40
0.279741
 50
225.1131959999999
 51
247.70650699999999
  0
ARC
  5
FB
  8
0
 62
     7
 10
71.990756000000005
 20
188.79227
 30
0.0
 40
12.079423
 50
224.86649199999999
 51
225.38762
  0
ARC
  5
FC
  8
0
 62
     7
 10
63.623916000000001
 20
180.46609900000001
 30
0.0
 40
0.275649
 50
202.25389100000001
 51
225.12627599999999
  0
ARC
  5
FD
  8
0
 62
     7
 10
63.635989000000002
 20
180.47159099999999
 30
0.0
 40
0.288903
 50
180.44098500000001
 51
202.35515799999999
  0
LINE
  5
FE
  8
0
 62
     7
 10
63.347099999999998
 20
180.46899999999999
 30
0.0
 11
63.347099999999998
 21
180.524
 31
0.0
  0
LINE
  5
FF
  8
0
 62
     7
 10
63.347099999999998
 20
180.524
 30
0.0
 11
63.347099999999998
 21
180.59599999999989
 31
0.0
  0
LINE
  5
100
  8
0
 62
     7
 10
63.347099999999998
 20
180.59599999999989
 30
0.0
 11
63.347099999999998
 21
180.66800000000001
 31
0.0
  0
LINE
  5
101
  8
0
 62
     7
 10
62.569499999999991
 20
183.779
 30
0.0
 11
62.569499999999991
 21
183.851
 31
0.0
  0
LINE
  5
102
  8
0
 62
     7
 10
62.569499999999991
 20
183.851
 30
0.0
 11
62.569499999999991
 21
183.923
 31
0.0
  0
LINE
  5
103
  8
0
 62
     7
 10
62.569499999999991
 20
183.923
 30
0.0
 11
62.569499999999991
 21
184.024
 31
0.0
  0
ARC
  5
104
  8
0
 62
     7
 10
63.36201299999999
 20
184.023776
 30
0.0
 40
0.7924820000000001
 50
165.42755
 51
180.00586899999999
  0
ARC
  5
105
  8
0
 62
     7
 10
63.362521999999998
 20
184.027477
 30
0.0
 40
0.7920520000000001
 50
151.102013
 51
165.69592900000001
  0
ARC
  5
106
  8
0
 62
     7
 10
-20.853594000000001
 20
230.577878
 30
0.0
 40
95.433172999999996
 50
331.06813
 51
331.22328399999998
  0
ARC
  5
107
  8
0
 62
     7
 10
63.489471999999999
 20
184.253029
 30
0.0
 40
0.794394
 50
128.21001100000001
 51
151.12996999999999
  0
ARC
  5
108
  8
0
 62
     7
 10
63.518265999999997
 20
184.22479200000001
 30
0.0
 40
0.834407
 50
106.746128
 51
128.56425200000001
  0
ARC
  5
109
  8
0
 62
     7
 10
122.08494899999999
 20
-17.580728000000001
 30
0.0
 40
210.96652599999999
 50
106.099841
 51
106.185655
  0
ARC
  5
10A
  8
0
 62
     7
 10
63.801116999999998
 20
184.35873100000001
 30
0.0
 40
0.7843460000000001
 50
83.059152999999995
 51
106.27072699999999
  0
ARC
  5
10B
  8
0
 62
     7
 10
63.807862
 20
184.32765800000001
 30
0.0
 40
0.814444
 50
61.430486000000009
 51
83.794348999999997
  0
LINE
  5
10C
  8
0
 62
     7
 10
64.197299999999998
 20
185.04300000000001
 30
0.0
 11
64.335800000000006
 21
184.96700000000001
 31
0.0
  0
ARC
  5
10D
  8
0
 62
     7
 10
-1270.48101
 20
-2238.6729999999998
 30
0.0
 40
2766.9059999999999
 50
61.119337000000002
 51
61.156270999999997
  0
LINE
  5
10E
  8
0
 62
     7
 10
65.897900000000007
 20
184.10599999999999
 30
0.0
 11
67.4602
 21
183.245
 31
0.0
  0
ARC
  5
10F
  8
0
 62
     7
 10
-38.055058000000002
 20
-8.0940229999999982
 30
0.0
 40
218.50430900000001
 50
61.09626200000001
 51
61.125152
  0
ARC
  5
110
  8
0
 62
     7
 10
67.174964000000003
 20
182.500629
 30
0.0
 40
0.7896350000000001
 50
45.025482999999987
 51
61.091605000000001
  0
ARC
  5
111
  8
0
 62
     7
 10
67.187263000000002
 20
182.510019
 30
0.0
 40
0.774304
 50
28.812353000000002
 51
45.178181000000002
  0
ARC
  5
112
  8
0
 62
     7
 10
92.268220999999997
 20
196.164154
 30
0.0
 40
27.782488000000001
 50
208.557075
 51
209.10369800000001
  0
ARC
  5
113
  8
0
 62
     7
 10
67.308847999999998
 20
182.274675
 30
0.0
 40
0.781276
 50
5.9939260000000001
 51
28.794184000000001
  0
ARC
  5
114
  8
0
 62
     7
 10
67.271618000000004
 20
182.26772099999999
 30
0.0
 40
0.819034
 50
344.45794000000001
 51
6.2057459999999978
  0
ARC
  5
115
  8
0
 62
     7
 10
148.83010400000001
 20
158.48927599999999
 30
0.0
 40
84.135141999999988
 50
163.73896199999999
 51
163.94975600000001
  0
ARC
  5
116
  8
0
 62
     7
 10
67.230000000000004
 20
181.965676
 30
0.0
 40
0.7749189999999999
 50
320.92698200000001
 51
343.91319399999998
  0
ARC
  5
117
  8
0
 62
     7
 10
67.205562999999998
 20
181.976743
 30
0.0
 40
0.800895
 50
299.14469000000003
 51
321.414222
  0
ARC
  5
118
  8
0
 62
     7
 10
36.409965
 20
237.72658100000001
 30
0.0
 40
64.490867000000009
 50
298.781296
 51
298.91862800000001
  0
ARC
  5
119
  8
0
 62
     7
 10
1592.1220000000001
 20
-2586.9349999999999
 30
0.0
 40
3160.2489999999998
 50
118.84550900000001
 51
118.877852
  0
LINE
  5
11A
  8
0
 62
     7
 10
65.897900000000007
 20
180.34200000000001
 30
0.0
 11
64.335800000000006
 21
179.48099999999999
 31
0.0
  0
ARC
  5
11B
  8
0
 62
     7
 10
68.355751999999995
 20
172.051535
 30
0.0
 40
8.446949
 50
118.418002
 51
119.100409
  0
ARC
  5
11C
  8
0
 62
     7
 10
63.860534999999999
 20
180.13570300000001
 30
0.0
 40
0.802964
 50
284.45144500000009
 51
298.82294300000001
  0
ARC
  5
11D
  8
0
 62
     7
 10
63.860737
 20
180.1313419999999
 30
0.0
 40
0.798691
 50
270.051132
 51
284.515469
  0
LINE
  5
11E
  8
0
 62
     7
 10
63.86140000000001
 20
179.333
 30
0.0
 11
63.603099999999998
 21
179.333
 31
0.0
  0
ARC
  5
11F
  8
0
 62
     7
 10
63.602364999999999
 20
180.123471
 30
0.0
 40
0.79082
 50
246.99865199999999
 51
270.05077699999998
  0
ARC
  5
120
  8
0
 62
     7
 10
63.615299999999998
 20
180.16573199999999
 30
0.0
 40
0.8347889999999999
 50
225.49559099999999
 51
247.31488300000001
  0
LINE
  5
121
  8
0
 62
     7
 10
63.030099999999997
 20
179.56999999999999
 30
0.0
 11
62.806899999999992
 21
179.79400000000001
 31
0.0
  0
ARC
  5
122
  8
0
 62
     7
 10
63.373213999999997
 20
180.35917800000001
 30
0.0
 40
0.800364
 50
202.2097399999999
 51
224.96236300000001
  0
ARC
  5
123
  8
0
 62
     7
 10
63.399745999999993
 20
180.373232
 30
0.0
 40
0.830245
 50
180.48626999999999
 51
202.41554500000001
  0
LINE
  5
124
  8
0
 62
     7
 10
62.569499999999991
 20
180.3659999999999
 30
0.0
 11
62.569499999999991
 21
180.524
 31
0.0
  0
LINE
  5
125
  8
0
 62
     7
 10
62.569499999999991
 20
180.524
 30
0.0
 11
62.569499999999991
 21
180.59599999999989
 31
0.0
  0
LINE
  5
126
  8
0
 62
     7
 10
62.569499999999991
 20
180.59599999999989
 30
0.0
 11
62.569499999999991
 21
180.66800000000001
 31
0.0
  0
ARC
  5
127
  8
0
 62
     7
 10
63.86420600000001
 20
-22.582155
 30
0.0
 40
203.252668
 50
89.713885000000005
 51
90.286094999999989
  0
ARC
  5
128
  8
0
 62
     7
 10
61.834342999999997
 20
-21.169832
 30
0.0
 40
201.840362
 50
89.711883999999998
 51
90.288096999999979
  0
ARC
  5
129
  8
0
 62
     7
 10
60.716230000000003
 20
-20.472505000000002
 30
0.0
 40
201.14050900000001
 50
89.970597999999995
 51
90.029381999999998
  0
ARC
  5
12A
  8
0
 62
     7
 10
60.612138999999999
 20
181.69834800000001
 30
0.0
 40
1.03037
 50
246.963458
 51
270.05059299999999
  0
ARC
  5
12B
  8
0
 62
     7
 10
60.626685000000002
 20
181.751971
 30
0.0
 40
1.0854360000000001
 50
225.467825
 51
247.36452
  0
ARC
  5
12C
  8
0
 62
     7
 10
-38.317883000000002
 20
83.028677000000002
 30
0.0
 40
138.68698499999999
 50
44.931693000000003
 51
45.102128999999998
  0
ARC
  5
12D
  8
0
 62
     7
 10
60.313118000000003
 20
182.007125
 30
0.0
 40
1.0442180000000001
 50
202.14587299999999
 51
224.91558000000001
  0
ARC
  5
12E
  8
0
 62
     7
 10
60.340975999999991
 20
182.02576099999999
 30
0.0
 40
1.0770679999999999
 50
180.4431669999999
 51
202.5054540000001
  0
LINE
  5
12F
  8
0
 62
     7
 10
59.2639
 20
182.017
 30
0.0
 11
59.2639
 21
182.43000000000001
 31
0.0
  0
ARC
  5
130
  8
0
 62
     7
 10
60.305609999999987
 20
182.42900499999999
 30
0.0
 40
1.0416700000000001
 50
157.11478500000001
 51
179.95563200000001
  0
ARC
  5
131
  8
0
 62
     7
 10
60.352880999999996
 20
182.41449499999999
 30
0.0
 40
1.090873999999999
 50
135.58681200000001
 51
157.378175
  0
ARC
  5
132
  8
0
 62
     7
 10
360.57724400000001
 20
-117.533868
 30
0.0
 40
425.47707100000002
 50
134.97219999999999
 51
135.027771
  0
ARC
  5
133
  8
0
 62
     7
 10
60.596491
 20
182.73998700000001
 30
0.0
 40
1.032918
 50
112.0368899999999
 51
135.050961
  0
ARC
  5
134
  8
0
 62
     7
 10
60.622959999999992
 20
182.69145499999999
 30
0.0
 40
1.0878540000000001
 50
90.522029000000003
 51
112.370091
  0
ARC
  5
135
  8
0
 62
     7
 10
60.716230000000003
 20
-20.128945999999999
 30
0.0
 40
203.90823599999999
 50
89.970996999999997
 51
90.028982999999997
  0
LINE
  5
136
  8
0
 62
     7
 10
60.819400000000002
 20
183.779
 30
0.0
 11
62.849299999999999
 21
183.779
 31
0.0
  0
ARC
  5
137
  8
0
 62
     7
 10
63.86420600000001
 20
-22.200182000000002
 30
0.0
 40
205.98194599999999
 50
89.717675999999983
 51
90.282303999999996
  0
LINE
  5
138
  8
_________2
 62
     7
 10
205.30099999999999
 20
127.411
 30
0.0
 11
183.55000000000001
 21
127.411
 31
0.0
  0
LINE
  5
139
  8
_________2
 62
     7
 10
100.3
 20
-4.0910799999999998
 30
0.0
 11
100.3
 21
-21.071400000000001
 31
0.0
  0
LINE
  5
13A
  8
_________2
 62
     7
 10
100.3
 20
275.93099999999998
 30
0.0
 11
100.3
 21
258.911
 31
0.0
  0
LINE
  5
13B
  8
_________2
 62
     7
 10
17.049499999999998
 20
127.411
 30
0.0
 11
-4.70052
 21
127.411
 31
0.0
  0
LINE
  5
13C
  8
_________2
 62
     7
 10
76.741
 20
29.8047
 30
0.0
 11
74.554699999999997
 21
29.8047
 31
0.0
  0
LINE
  5
13D
  8
_________2
 62
     7
 10
77.233699999999999
 20
29.8047
 30
0.0
 11
76.981499999999997
 21
29.8047
 31
0.0
  0
LINE
  5
13E
  8
_________2
 62
     7
 10
77.726299999999995
 20
29.8047
 30
0.0
 11
80.651200000000003
 21
29.8047
 31
0.0
  0
LINE
  5
13F
  8
_________2
 62
     7
 10
77.233699999999999
 20
29.8047
 30
0.0
 11
77.485500000000002
 21
29.8047
 31
0.0
  0
LINE
  5
140
  8
_________2
 62
     7
 10
70.837100000000007
 20
29.8047
 30
0.0
 11
68.650499999999994
 21
29.8047
 31
0.0
  0
LINE
  5
141
  8
_________2
 62
     7
 10
71.329400000000007
 20
29.8047
 30
0.0
 11
71.077600000000004
 21
29.8047
 31
0.0
  0
LINE
  5
142
  8
_________2
 62
     7
 10
71.329400000000007
 20
30.2974
 30
0.0
 11
71.329400000000007
 21
32.484400000000001
 31
0.0
  0
LINE
  5
143
  8
_________2
 62
     7
 10
71.329400000000007
 20
29.8047
 30
0.0
 11
71.329400000000007
 21
30.056899999999999
 31
0.0
  0
LINE
  5
144
  8
_________2
 62
     7
 10
71.822100000000006
 20
29.8047
 30
0.0
 11
74.009
 21
29.8047
 31
0.0
  0
LINE
  5
145
  8
_________2
 62
     7
 10
71.329400000000007
 20
29.8047
 30
0.0
 11
71.581599999999995
 21
29.8047
 31
0.0
  0
LINE
  5
146
  8
_________2
 62
     7
 10
71.329400000000007
 20
29.312799999999999
 30
0.0
 11
71.329400000000007
 21
27.125800000000002
 31
0.0
  0
LINE
  5
147
  8
_________2
 62
     7
 10
71.329400000000007
 20
29.8047
 30
0.0
 11
71.329400000000007
 21
29.5532
 31
0.0
  0
LINE
  5
148
  8
_________2
 62
     7
 10
75.040499999999994
 20
28.5852
 30
0.0
 11
80.218500000000006
 21
27.720400000000001
 31
0.0
  0
LINE
  5
149
  8
_________2
 62
     7
 10
75.040499999999994
 20
31.0243
 30
0.0
 11
80.218500000000006
 21
31.889700000000001
 31
0.0
  0
LINE
  5
14A
  8
_________2
 62
     7
 10
80.218500000000006
 20
27.720400000000001
 30
0.0
 11
80.218500000000006
 21
31.889700000000001
 31
0.0
  0
LINE
  5
14B
  8
_________2
 62
     7
 10
75.040499999999994
 20
28.5852
 30
0.0
 11
75.040499999999994
 21
31.0243
 31
0.0
  0
ARC
  5
14C
  8
_________2
 62
     7
 10
71.28285600000001
 20
29.757811
 30
0.0
 40
1.2673589999999999
 50
2.122214
 51
87.893958999999995
  0
ARC
  5
14D
  8
_________2
 62
     7
 10
71.375959999999992
 20
29.758213000000001
 30
0.0
 40
1.2669559999999991
 50
92.104701000000006
 51
177.89526900000001
  0
ARC
  5
14E
  8
_________2
 62
     7
 10
71.376357999999996
 20
29.851671
 30
0.0
 40
1.2673680000000001
 50
182.12203600000001
 51
267.877993
  0
ARC
  5
14F
  8
_________2
 62
     7
 10
71.282531999999989
 20
29.851998999999999
 30
0.0
 40
1.267695999999999
 50
272.12015300000002
 51
357.863674
  0
ARC
  5
150
  8
_________2
 62
     7
 10
71.329430000000002
 20
29.804742999999998
 30
0.0
 40
2.0849849999999992
 50
0.00001
 51
89.999980000000008
  0
ARC
  5
151
  8
_________2
 62
     7
 10
71.329603000000006
 20
29.804915000000001
 30
0.0
 40
2.084813
 50
90.004733999999999
 51
180.00474399999999
  0
ARC
  5
152
  8
_________2
 62
     7
 10
71.409106000000008
 20
29.884775999999999
 30
0.0
 40
2.1657950000000001
 50
182.11776599999999
 51
267.89173399999999
  0
ARC
  5
153
  8
_________2
 62
     7
 10
71.249459000000002
 20
29.885429999999999
 30
0.0
 40
2.1664590000000001
 50
272.11546800000002
 51
357.86560400000002
  0
TEXT
  5
154
  8
_________2
 62
     7
 10
104.605
 20
1.6794899999999999
 30
0.0
 40
3.0923400000000001
  1
図番
 41
0.5
  0
LINE
  5
155
  8
_________2
 62
     7
 10
103.55
 20
5.9087199999999989
 30
0.0
 11
183.55099999999999
 21
5.9087199999999989
 31
0.0
  0
TEXT
  5
156
  8
_________2
 62
     7
 10
104.605
 20
11.6793
 30
0.0
 40
3.0923400000000001
  1
品番
 41
0.5
  0
TEXT
  5
157
  8
_________2
 62
     7
 10
104.605
 20
31.818100000000001
 30
0.0
 40
3.0923400000000001
  1
名称
 41
0.5
  0
TEXT
  5
158
  8
_________2
 62
     7
 10
91.845058333333341
 20
26.821999999999999
 30
0.0
 40
3.6545800000000002
  1
mm
 41
0.5
 72
     1
 11
93.367800000000003
 21
26.821999999999999
 31
0.0
  0
TEXT
  5
159
  8
_________2
 62
     7
 10
85.643199999999993
 20
31.818100000000001
 30
0.0
 40
3.0923400000000001
  1
単位
 41
0.5
  0
TEXT
  5
15A
  8
_________2
 62
     7
 10
85.643199999999993
 20
19.410799999999998
 30
0.0
 40
3.0923400000000001
  1
尺度
 41
0.5
  0
TEXT
  5
15B
  8
_________2
 62
     7
 10
90.548758666666686
 20
13.2179
 30
0.0
 40
3.6545800000000002
  1
1 ： 2
 41
0.5
 72
     1
 11
93.959699999999998
 21
13.2179
 31
0.0
  0
TEXT
  5
15C
  8
_________2
 62
     7
 10
139.12233749999999
 20
9.1078600000000005
 30
0.0
 40
3.9357000000000002
  1
VLA10
 41
0.5
 72
     1
 11
143.55000000000001
 21
9.1078600000000005
 31
0.0
  0
TEXT
  5
15D
  8
_________2
 62
     7
 10
139.12233749999999
 20
-0.8926299999999999
 30
0.0
 40
3.9357000000000002
  1
VLA10
 41
0.5
 72
     1
 11
143.55000000000001
 21
-0.8926299999999999
 31
0.0
  0
TEXT
  5
15E
  8
_________2
 62
     7
 10
24.5868
 20
0.707283
 30
0.0
 40
3.9357000000000002
  1
ヨーロッパ製洗面器用
 41
0.5
  0
TEXT
  5
15F
  8
_________2
 62
     7
 10
109.179
 20
24.2257
 30
0.0
 40
3.9357000000000002
  1
ボラ　排水目皿
 41
0.5
  0
TEXT
  5
160
  8
_________2
 62
     7
 10
39.425300333333333
 20
13.603
 30
0.0
 40
3.6545800000000002
  1
早川
 41
0.5
 72
     1
 11
41.313499999999998
 21
13.603
 31
0.0
  0
TEXT
  5
161
  8
_________2
 62
     7
 10
20.790090666666661
 20
13.603
 30
0.0
 40
3.6545800000000002
  1
石原
 41
0.5
 72
     1
 11
22.7392
 21
13.603
 31
0.0
  0
TEXT
  5
162
  8
_________2
 62
     7
 10
67.785399999999996
 20
13.2179
 30
0.0
 40
3.6545800000000002
  1
16.02.01
 41
0.5
  0
TEXT
  5
163
  8
_________2
 62
     7
 10
66.593100000000007
 20
19.410799999999998
 30
0.0
 40
3.0923400000000001
  1
日付
 41
0.5
  0
TEXT
  5
164
  8
_________2
 62
     7
 10
29.639399999999998
 20
19.410799999999998
 30
0.0
 40
3.0923400000000001
  1
検図
 41
0.5
  0
TEXT
  5
165
  8
_________2
 62
     7
 10
18.021100000000001
 20
5.21143
 30
0.0
 40
3.0923400000000001
  1
備考
 41
0.5
  0
TEXT
  5
166
  8
_________2
 62
     7
 10
18.021100000000001
 20
19.410799999999998
 30
0.0
 40
3.0923400000000001
  1
製図
 41
0.5
  0
TEXT
  5
167
  8
_________2
 62
     7
 10
23.788465333333338
 20
27.936800000000002
 30
0.0
 40
4.4979399999999989
  1
セラトレーディング株式会社
 41
0.5
 72
     1
 11
41.180500000000002
 21
27.936800000000002
 31
0.0
  0
LINE
  5
168
  8
_________2
 62
     7
 10
183.55099999999999
 20
-4.0910799999999998
 30
0.0
 11
17.049499999999998
 21
-4.0910799999999998
 31
0.0
  0
LINE
  5
169
  8
_________2
 62
     7
 10
17.049499999999998
 20
-4.0910799999999998
 30
0.0
 11
17.049499999999998
 21
258.911
 31
0.0
  0
LINE
  5
16A
  8
_________2
 62
     7
 10
17.049499999999998
 20
258.911
 30
0.0
 11
183.55099999999999
 21
258.911
 31
0.0
  0
LINE
  5
16B
  8
_________2
 62
     7
 10
183.55099999999999
 20
258.911
 30
0.0
 11
183.55099999999999
 21
-4.0910799999999998
 31
0.0
  0
LINE
  5
16C
  8
_________2
 62
     7
 10
65.549599999999998
 20
9.4089600000000004
 30
0.0
 11
65.549599999999998
 21
35.908799999999999
 31
0.0
  0
LINE
  5
16D
  8
_________2
 62
     7
 10
84.549700000000016
 20
9.4089600000000004
 30
0.0
 11
84.549700000000016
 21
35.908799999999999
 31
0.0
  0
LINE
  5
16E
  8
_________2
 62
     7
 10
103.55
 20
-4.0910799999999998
 30
0.0
 11
103.55
 21
35.908799999999999
 31
0.0
  0
LINE
  5
16F
  8
_________2
 62
     7
 10
28.549299999999999
 20
9.4089600000000004
 30
0.0
 11
28.549299999999999
 21
23.409199999999998
 31
0.0
  0
LINE
  5
170
  8
_________2
 62
     7
 10
17.049499999999998
 20
9.4089600000000004
 30
0.0
 11
103.55
 21
9.4089600000000004
 31
0.0
  0
LINE
  5
171
  8
_________2
 62
     7
 10
17.049499999999998
 20
23.409199999999998
 30
0.0
 11
103.55
 21
23.409199999999998
 31
0.0
  0
LINE
  5
172
  8
_________2
 62
     7
 10
103.55
 20
15.9085
 30
0.0
 11
183.55099999999999
 21
15.9085
 31
0.0
  0
LINE
  5
173
  8
_________2
 62
     7
 10
17.049499999999998
 20
35.908799999999999
 30
0.0
 11
183.55099999999999
 21
35.908799999999999
 31
0.0
  0
TEXT
  5
174
  8
_________2
 62
     7
 10
141.05481
 20
39.068300000000001
 30
0.0
 40
3.9357000000000002
  1
注：色番号はカタログを参照ください
 41
0.5
 72
     2
 11
180.54300000000001
 21
39.068300000000001
 31
0.0
  0
ENDSEC
  0
EOF
