  0
SECTION
  2
HEADER
  9
$ACADVER
  1
AC1009
  9
$INSBASE
 10
0.0
 20
0.0
 30
0.0
  9
$EXTMIN
 10
-4.70052
 20
-21.071400000000001
 30
0.0
  9
$EXTMAX
 10
205.30099999999999
 20
275.93099999999993
 30
0.0
  9
$LIMMIN
 10
0.0
 20
0.0
  9
$LIMMAX
 10
12.0
 20
9.0
  9
$ORTHOMODE
 70
     0
  9
$REGENMODE
 70
     1
  9
$FILLMODE
 70
     1
  9
$QTEXTMODE
 70
     0
  9
$MIRRTEXT
 70
     1
  9
$DRAGMODE
 70
     2
  9
$LTSCALE
 40
1.0
  9
$OSMODE
 70
    37
  9
$ATTMODE
 70
     1
  9
$TEXTSIZE
 40
0.0
  9
$TRACEWID
 40
0.05
  9
$TEXTSTYLE
  7
STANDARD
  9
$CLAYER
  8
0
  9
$CELTYPE
  6
CONTINUOUS
  9
$CECOLOR
 62
   256
  9
$DIMSCALE
 40
1.0
  9
$DIMASZ
 40
0.18
  9
$DIMEXO
 40
0.0625
  9
$DIMDLI
 40
0.38
  9
$DIMRND
 40
0.0
  9
$DIMDLE
 40
0.0
  9
$DIMEXE
 40
0.18
  9
$DIMTP
 40
0.0
  9
$DIMTM
 40
0.0
  9
$DIMTXT
 40
0.18
  9
$DIMCEN
 40
0.09
  9
$DIMTSZ
 40
0.0
  9
$DIMTOL
 70
     0
  9
$DIMLIM
 70
     0
  9
$DIMTIH
 70
     1
  9
$DIMTOH
 70
     1
  9
$DIMSE1
 70
     0
  9
$DIMSE2
 70
     0
  9
$DIMTAD
 70
     0
  9
$DIMZIN
 70
     0
  9
$DIMBLK
  1

  9
$DIMASO
 70
     1
  9
$DIMSHO
 70
     1
  9
$DIMPOST
  1

  9
$DIMAPOST
  1

  9
$DIMALT
 70
     0
  9
$DIMALTD
 70
     2
  9
$DIMALTF
 40
25.399999999999999
  9
$DIMLFAC
 40
1.0
  9
$DIMTOFL
 70
     0
  9
$DIMTVP
 40
0.0
  9
$DIMTIX
 70
     0
  9
$DIMSOXD
 70
     0
  9
$DIMSAH
 70
     0
  9
$DIMBLK1
  1

  9
$DIMBLK2
  1

  9
$DIMSTYLE
  2
STANDARD
  9
$DIMCLRD
 70
     0
  9
$DIMCLRE
 70
     0
  9
$DIMCLRT
 70
     0
  9
$DIMTFAC
 40
1.0
  9
$DIMGAP
 40
0.09
  9
$LUNITS
 70
     2
  9
$LUPREC
 70
     4
  9
$SKETCHINC
 40
0.1
  9
$FILLETRAD
 40
0.0
  9
$AUNITS
 70
     0
  9
$AUPREC
 70
     0
  9
$MENU
  1
.
  9
$ELEVATION
 40
0.0
  9
$PELEVATION
 40
0.0
  9
$THICKNESS
 40
0.0
  9
$LIMCHECK
 70
     0
  9
$BLIPMODE
 70
     0
  9
$CHAMFERA
 40
0.0
  9
$CHAMFERB
 40
0.0
  9
$SKPOLY
 70
     0
  9
$TDCREATE
 40
2444972.375
  9
$TDUPDATE
 40
2456702.2460057172
  9
$TDINDWG
 40
0.0000063079
  9
$TDUSRTIMER
 40
0.0000063079
  9
$USRTIMER
 70
     1
  9
$ANGBASE
 50
0.0
  9
$ANGDIR
 70
     0
  9
$PDMODE
 70
     0
  9
$PDSIZE
 40
0.0
  9
$PLINEWID
 40
0.0
  9
$COORDS
 70
     1
  9
$SPLFRAME
 70
     0
  9
$SPLINETYPE
 70
     6
  9
$SPLINESEGS
 70
     8
  9
$ATTDIA
 70
     0
  9
$ATTREQ
 70
     1
  9
$HANDLING
 70
     1
  9
$HANDSEED
  5
285
  9
$SURFTAB1
 70
     6
  9
$SURFTAB2
 70
     6
  9
$SURFTYPE
 70
     6
  9
$SURFU
 70
     6
  9
$SURFV
 70
     6
  9
$UCSNAME
  2

  9
$UCSORG
 10
0.0
 20
0.0
 30
0.0
  9
$UCSXDIR
 10
1.0
 20
0.0
 30
0.0
  9
$UCSYDIR
 10
0.0
 20
1.0
 30
0.0
  9
$PUCSNAME
  2

  9
$PUCSORG
 10
0.0
 20
0.0
 30
0.0
  9
$PUCSXDIR
 10
1.0
 20
0.0
 30
0.0
  9
$PUCSYDIR
 10
0.0
 20
1.0
 30
0.0
  9
$USERI1
 70
     0
  9
$USERI2
 70
     0
  9
$USERI3
 70
     0
  9
$USERI4
 70
     0
  9
$USERI5
 70
     0
  9
$USERR1
 40
0.0
  9
$USERR2
 40
0.0
  9
$USERR3
 40
0.0
  9
$USERR4
 40
0.0
  9
$USERR5
 40
0.0
  9
$WORLDVIEW
 70
     1
  9
$SHADEDGE
 70
     3
  9
$SHADEDIF
 70
    70
  9
$TILEMODE
 70
     1
  9
$MAXACTVP
 70
    48
  9
$PLIMCHECK
 70
     0
  9
$PEXTMIN
 10
1.0000000000000000E+020
 20
1.0000000000000000E+020
 30
1.0000000000000000E+020
  9
$PEXTMAX
 10
-1.0000000000000000E+020
 20
-1.0000000000000000E+020
 30
-1.0000000000000000E+020
  9
$PLIMMIN
 10
0.0
 20
0.0
  9
$PLIMMAX
 10
12.0
 20
9.0
  9
$UNITMODE
 70
     0
  9
$VISRETAIN
 70
     1
  9
$PLINEGEN
 70
     0
  9
$PSLTSCALE
 70
     1
  0
ENDSEC
  0
SECTION
  2
TABLES
  0
TABLE
  2
VPORT
 70
     2
  0
VPORT
  2
*ACTIVE
 70
     0
 10
0.0
 20
0.0
 11
1.0
 21
1.0
 12
202.00678374696719
 22
127.4298
 13
0.0
 23
0.0
 14
1.0
 24
1.0
 15
0.0
 25
0.0
 16
0.0
 26
0.0
 36
1.0
 17
0.0
 27
0.0
 37
0.0
 40
299.45358899587342
 41
2.2894736842105261
 42
50.0
 43
0.0
 44
0.0
 50
0.0
 51
0.0
 71
     0
 72
   100
 73
     1
 74
     1
 75
     0
 76
     0
 77
     0
 78
     0
  0
ENDTAB
  0
TABLE
  2
LTYPE
 70
     2
  0
LTYPE
  2
CONTINUOUS
 70
     0
  3
Solid line
 72
    65
 73
     0
 40
0.0
  0
LTYPE
  2
AIGENLINE001
 70
     0
  3
generate AI->DXF Converter
 72
    65
 73
     4
 40
5.8561449999999988
 49
3.5278
 49
-0.776115
 49
0.776115
 49
-0.776115
  0
ENDTAB
  0
TABLE
  2
LAYER
 70
     2
  0
LAYER
  2
0
 70
     0
 62
     7
  6
CONTINUOUS
  0
LAYER
  2
_________2
 70
     0
 62
     7
  6
CONTINUOUS
  0
ENDTAB
  0
TABLE
  2
STYLE
 70
     1
  0
STYLE
  2
STANDARD
 70
     0
 40
0.0
 41
0.0
 50
0.0
 71
     0
 42
0.0
  3
TXT
  4
EXTFONT.SHX
  0
ENDTAB
  0
TABLE
  2
VIEW
 70
     0
  0
ENDTAB
  0
TABLE
  2
UCS
 70
     0
  0
ENDTAB
  0
TABLE
  2
APPID
 70
     1
  0
APPID
  2
ACAD
 70
     0
  0
ENDTAB
  0
TABLE
  2
DIMSTYLE
 70
     1
  0
DIMSTYLE
  2
STANDARD
 70
     0
  3

  4

  5

  6

  7

 40
1.0
 41
0.18
 42
0.0625
 43
0.38
 44
0.18
 45
0.0
 46
0.0
 47
0.0
 48
0.0
140
0.18
141
0.09
142
0.0
143
25.399999999999999
144
1.0
145
0.0
146
1.0
147
0.09
 71
     0
 72
     0
 73
     1
 74
     1
 75
     0
 76
     0
 77
     0
 78
     0
170
     0
171
     2
172
     0
173
     0
174
     0
175
     0
176
     0
177
     0
178
     0
  0
ENDTAB
  0
ENDSEC
  0
SECTION
  2
BLOCKS
  0
BLOCK
  8
0
  2
$MODEL_SPACE
 70
     0
 10
0.0
 20
0.0
 30
0.0
  3
$MODEL_SPACE
  1

  0
ENDBLK
  5
1A
  8
0
  0
BLOCK
 67
     1
  8
0
  2
$PAPER_SPACE
 70
     0
 10
0.0
 20
0.0
 30
0.0
  3
$PAPER_SPACE
  1

  0
ENDBLK
  5
17
 67
     1
  8
0
  0
ENDSEC
  0
SECTION
  2
ENTITIES
  0
TEXT
  5
22
  8
0
 62
     7
 10
156.50228749999991
 20
180.3429999999999
 30
0.0
 40
3.0923400000000001
  1
%%c40
 41
0.5
 72
     1
 11
158.435
 21
180.3429999999999
 31
0.0
  0
TEXT
  5
23
  8
0
 62
     7
 10
156.631135
 20
173.47200000000001
 30
0.0
 40
3.0923400000000001
  1
%%c15
 41
0.5
 72
     1
 11
158.435
 21
173.47200000000001
 31
0.0
  0
TEXT
  5
24
  8
0
 62
     7
 10
131.5304049593251
 20
81.473673563137467
 30
0.0
 40
3.0923400000000001
  1
%%c5
 50
87.673800000000014
 41
0.5
 72
     2
 11
131.63499999999991
 21
84.048500000000004
 31
0.0
  0
TEXT
  5
25
  8
0
 62
     7
 10
162.99804999999989
 20
130.49899999999991
 30
0.0
 40
3.0923400000000001
  1
%%c6
 41
0.5
 72
     2
 11
165.5749999999999
 21
130.49899999999991
 31
0.0
  0
TEXT
  5
26
  8
0
 62
     7
 10
164.2302699999999
 20
149.096
 30
0.0
 40
3.0923400000000001
  1
%%c12
 41
0.5
 72
     2
 11
167.83799999999991
 21
149.096
 31
0.0
  0
TEXT
  5
27
  8
0
 62
     7
 10
166.50426999999991
 20
245.7459999999999
 30
0.0
 40
3.0923400000000001
  1
%%c15
 41
0.5
 72
     2
 11
170.11199999999991
 21
245.7459999999999
 31
0.0
  0
TEXT
  5
28
  8
0
 62
     7
 10
73.059240000000003
 20
110.977
 30
0.0
 40
3.0923400000000001
  1
%%c63
 41
0.5
 72
     1
 11
75.120800000000003
 21
110.977
 31
0.0
  0
TEXT
  5
29
  8
0
 62
     7
 10
154.03464600000001
 20
228.30500000000001
 30
0.0
 40
3.0923400000000001
  1
引棒取付穴
 41
0.5
 72
     1
 11
158.46700000000001
 21
228.30500000000001
 31
0.0
  0
TEXT
  5
2A
  8
0
 62
     7
 10
118.1882875
 20
56.8658
 30
0.0
 40
3.0923400000000001
  1
270
 41
0.5
 72
     1
 11
120.121
 21
56.8658
 31
0.0
  0
TEXT
  5
2B
  8
0
 62
     7
 10
94.225300000000004
 20
88.818222500000005
 30
0.0
 40
3.0923400000000001
  1
max.50
 50
90.0
 41
0.5
 72
     1
 11
94.225300000000004
 21
92.5548
 31
0.0
  0
TEXT
  5
2C
  8
0
 62
     7
 10
61.459499999999998
 20
77.005924999999991
 30
0.0
 40
3.0923400000000001
  1
36
 50
90.0
 41
0.5
 72
     1
 11
61.459499999999998
 21
78.294399999999996
 31
0.0
  0
TEXT
  5
2D
  8
0
 62
     7
 10
144.99399999999989
 20
147.34304299999999
 30
0.0
 40
3.0923400000000001
  1
10～40
 50
90.0
 41
0.5
 72
     1
 11
144.99399999999989
 21
150.59
 31
0.0
  0
TEXT
  5
2E
  8
0
 62
     7
 10
136.7579999999999
 20
146.09737250000001
 30
0.0
 40
3.0923400000000001
  1
50
 50
90.0
 41
0.5
 72
     1
 11
136.7579999999999
 21
147.25700000000001
 31
0.0
  0
TEXT
  5
2F
  8
0
 62
     7
 10
170.99799999999991
 20
160.1315249999999
 30
0.0
 40
3.0923400000000001
  1
34
 50
90.0
 41
0.5
 72
     1
 11
170.99799999999991
 21
161.4199999999999
 31
0.0
  0
TEXT
  5
30
  8
0
 62
     7
 10
170.99799999999991
 20
107.38444
 30
0.0
 40
3.0923400000000001
  1
286
 50
90.0
 41
0.5
 72
     1
 11
170.99799999999991
 21
109.4459999999999
 31
0.0
  0
TEXT
  5
31
  8
0
 62
     7
 10
177.3059999999999
 20
113.3432875
 30
0.0
 40
3.0923400000000001
  1
320
 50
90.0
 41
0.5
 72
     1
 11
177.3059999999999
 21
115.276
 31
0.0
  0
LINE
  5
32
  8
0
 62
     7
 10
160.10699999999991
 20
141.999
 30
0.0
 11
160.10699999999991
 21
144.84999999999991
 31
0.0
  0
LINE
  5
33
  8
0
 62
     7
 10
162.02799999999991
 20
141.999
 30
0.0
 11
162.02799999999991
 21
144.84999999999991
 31
0.0
  0
LINE
  5
34
  8
0
 62
     7
 10
162.03200000000001
 20
144.84999999999991
 30
0.0
 11
162.03200000000001
 21
141.999
 31
0.0
  0
LINE
  5
35
  8
0
 62
     7
 10
160.38800000000001
 20
144.84999999999991
 30
0.0
 11
160.38800000000001
 21
141.999
 31
0.0
  0
LINE
  5
36
  8
0
 62
     7
 10
160.10699999999991
 20
141.999
 30
0.0
 11
160.38800000000001
 21
141.999
 31
0.0
  0
LINE
  5
37
  8
0
 62
     7
 10
162.02799999999991
 20
141.999
 30
0.0
 11
162.03200000000001
 21
141.999
 31
0.0
  0
ARC
  5
38
  8
0
 62
     7
 10
161.307343
 20
143.73025200000001
 30
0.0
 40
1.9600559999999989
 50
242.02073899999991
 51
259.54321099999993
  0
ARC
  5
39
  8
0
 62
     7
 10
161.21094899999991
 20
143.38493999999989
 30
0.0
 40
1.6033049999999991
 50
260.6911629999999
 51
294.4371779999999
  0
ARC
  5
3A
  8
0
 62
     7
 10
161.0356229999999
 20
143.86395999999999
 30
0.0
 40
2.1122959999999988
 50
293.39148599999987
 51
298.02192300000002
  0
LINE
  5
3B
  8
0
 62
     7
 10
161.61500000000001
 20
141.7589999999999
 30
0.0
 11
162.03200000000001
 21
141.999
 31
0.0
  0
LINE
  5
3C
  8
0
 62
     7
 10
160.38800000000001
 20
144.84999999999991
 30
0.0
 11
160.10699999999991
 21
144.84999999999991
 31
0.0
  0
LINE
  5
3D
  8
0
 62
     7
 10
162.03200000000001
 20
144.84999999999991
 30
0.0
 11
162.02799999999991
 21
144.84999999999991
 31
0.0
  0
ARC
  5
3E
  8
0
 62
     7
 10
161.10843499999999
 20
143.11882399999999
 30
0.0
 40
1.9600559999999989
 50
62.020718999999993
 51
79.543191000000007
  0
ARC
  5
3F
  8
0
 62
     7
 10
161.20482899999999
 20
143.46413699999999
 30
0.0
 40
1.6033049999999991
 50
80.691142999999997
 51
114.437158
  0
ARC
  5
40
  8
0
 62
     7
 10
161.38015499999989
 20
142.985116
 30
0.0
 40
2.1122959999999988
 50
113.39146599999999
 51
118.02190299999999
  0
LINE
  5
41
  8
0
 62
     7
 10
161.61500000000001
 20
145.09
 30
0.0
 11
162.03200000000001
 21
144.84999999999991
 31
0.0
  0
LINE
  5
42
  8
0
 62
     7
 10
154.90600000000001
 20
144.84999999999991
 30
0.0
 11
154.90600000000001
 21
141.999
 31
0.0
  0
LINE
  5
43
  8
0
 62
     7
 10
154.90199999999999
 20
144.84999999999991
 30
0.0
 11
154.90199999999999
 21
141.999
 31
0.0
  0
LINE
  5
44
  8
0
 62
     7
 10
156.827
 20
144.84999999999991
 30
0.0
 11
156.827
 21
141.999
 31
0.0
  0
LINE
  5
45
  8
0
 62
     7
 10
156.54599999999991
 20
141.999
 30
0.0
 11
156.54599999999991
 21
144.84999999999991
 31
0.0
  0
ARC
  5
46
  8
0
 62
     7
 10
155.82595699999999
 20
143.73051699999991
 30
0.0
 40
1.960354999999999
 50
242.02075699999989
 51
259.538431
  0
ARC
  5
47
  8
0
 62
     7
 10
155.72936000000001
 20
143.38484600000001
 30
0.0
 40
1.6032150000000001
 50
260.69018599999993
 51
294.43815499999999
  0
ARC
  5
48
  8
0
 62
     7
 10
155.55253899999991
 20
143.86805200000001
 30
0.0
 40
2.1166399999999999
 50
293.38434999999998
 51
298.00711799999988
  0
LINE
  5
49
  8
0
 62
     7
 10
154.90199999999999
 20
141.999
 30
0.0
 11
154.90600000000001
 21
141.999
 31
0.0
  0
LINE
  5
4A
  8
0
 62
     7
 10
155.3189999999999
 20
141.7589999999999
 30
0.0
 11
154.90199999999999
 21
141.999
 31
0.0
  0
LINE
  5
4B
  8
0
 62
     7
 10
156.54599999999991
 20
141.999
 30
0.0
 11
156.827
 21
141.999
 31
0.0
  0
ARC
  5
4C
  8
0
 62
     7
 10
155.6257019999999
 20
143.1150889999999
 30
0.0
 40
1.9639200000000001
 50
62.040752000000012
 51
79.532677000000007
  0
ARC
  5
4D
  8
0
 62
     7
 10
155.72320400000001
 20
143.46450400000001
 30
0.0
 40
1.6029340000000001
 50
80.690849
 51
114.43971999999999
  0
ARC
  5
4E
  8
0
 62
     7
 10
155.89734599999991
 20
142.9879029999999
 30
0.0
 40
2.1092330000000001
 50
113.3898019999999
 51
118.0267029999999
  0
LINE
  5
4F
  8
0
 62
     7
 10
154.90600000000001
 20
144.84999999999991
 30
0.0
 11
154.90199999999999
 21
144.84999999999991
 31
0.0
  0
LINE
  5
50
  8
0
 62
     7
 10
155.3189999999999
 20
145.09
 30
0.0
 11
154.90199999999999
 21
144.84999999999991
 31
0.0
  0
LINE
  5
51
  8
0
 62
     7
 10
156.827
 20
144.84999999999991
 30
0.0
 11
156.54599999999991
 21
144.84999999999991
 31
0.0
  0
LINE
  5
52
  8
0
 62
     7
 10
161.61500000000001
 20
141.7589999999999
 30
0.0
 11
155.3189999999999
 21
141.7589999999999
 31
0.0
  0
ARC
  5
53
  8
0
 62
     7
 10
158.46695399999999
 20
148.20880500000001
 30
0.0
 40
6.4224439999999996
 50
255.20497599999999
 51
284.79504400000002
  0
LINE
  5
54
  8
0
 62
     7
 10
155.3189999999999
 20
145.09
 30
0.0
 11
161.61500000000001
 21
145.09
 31
0.0
  0
ARC
  5
55
  8
0
 62
     7
 10
158.46695399999999
 20
138.64027200000001
 30
0.0
 40
6.4224439999999996
 50
75.20495600000001
 51
104.795024
  0
ARC
  5
56
  8
0
 62
     7
 10
157.84375800000001
 20
78.001159999999999
 30
0.0
 40
0.272122
 50
358.05893800000001
 51
83.791306000000006
  0
ARC
  5
57
  8
0
 62
     7
 10
158.78592699999999
 20
77.934609999999992
 30
0.0
 40
0.271786
 50
87.993043000000014
 51
173.857181
  0
ARC
  5
58
  8
0
 62
     7
 10
158.85313999999991
 20
78.877425000000002
 30
0.0
 40
0.272469
 50
178.13446999999999
 51
263.79629
  0
ARC
  5
59
  8
0
 62
     7
 10
157.91164499999991
 20
78.943628000000004
 30
0.0
 40
0.271786
 50
267.99306300000001
 51
353.85720099999992
  0
LINE
  5
5A
  8
0
 62
     7
 10
158.8239999999999
 20
78.605199999999996
 30
0.0
 11
159.1579999999999
 21
78.581699999999998
 31
0.0
  0
LINE
  5
5B
  8
0
 62
     7
 10
159.1579999999999
 20
78.581699999999998
 30
0.0
 11
159.12899999999991
 21
78.182100000000005
 31
0.0
  0
LINE
  5
5C
  8
0
 62
     7
 10
159.12899999999991
 20
78.182100000000005
 30
0.0
 11
158.79499999999999
 21
78.206199999999995
 31
0.0
  0
LINE
  5
5D
  8
0
 62
     7
 10
157.87299999999999
 20
78.271699999999996
 30
0.0
 11
157.53999999999991
 21
78.295100000000005
 31
0.0
  0
LINE
  5
5E
  8
0
 62
     7
 10
157.53999999999991
 20
78.295100000000005
 30
0.0
 11
157.56800000000001
 21
78.694699999999983
 31
0.0
  0
LINE
  5
5F
  8
0
 62
     7
 10
157.56800000000001
 20
78.694699999999983
 30
0.0
 11
157.90100000000001
 21
78.670599999999993
 31
0.0
  0
LINE
  5
60
  8
0
 62
     7
 10
158.18199999999999
 20
78.914500000000004
 30
0.0
 11
158.20500000000001
 21
79.248000000000005
 31
0.0
  0
LINE
  5
61
  8
0
 62
     7
 10
158.20500000000001
 20
79.248000000000005
 30
0.0
 11
158.60499999999999
 21
79.219800000000006
 31
0.0
  0
LINE
  5
62
  8
0
 62
     7
 10
158.60499999999999
 20
79.219800000000006
 30
0.0
 11
158.58099999999999
 21
78.886300000000006
 31
0.0
  0
LINE
  5
63
  8
0
 62
     7
 10
158.5149999999999
 20
77.963000000000008
 30
0.0
 11
158.49199999999999
 21
77.630200000000002
 31
0.0
  0
LINE
  5
64
  8
0
 62
     7
 10
158.49199999999999
 20
77.630200000000002
 30
0.0
 11
158.09200000000001
 21
77.658500000000004
 31
0.0
  0
LINE
  5
65
  8
0
 62
     7
 10
158.09200000000001
 20
77.658500000000004
 30
0.0
 11
158.11600000000001
 21
77.991299999999995
 31
0.0
  0
ARC
  5
66
  8
0
 62
     7
 10
158.30415600000001
 20
78.483244999999997
 30
0.0
 40
1.2114590000000001
 50
272.10310600000003
 51
357.87997499999989
  0
ARC
  5
67
  8
0
 62
     7
 10
158.39338599999999
 20
78.483559999999997
 30
0.0
 40
1.2117849999999999
 50
182.13434599999991
 51
267.88261199999999
  0
ARC
  5
68
  8
0
 62
     7
 10
158.39375399999989
 20
78.393647999999999
 30
0.0
 40
1.212138999999999
 50
92.134159999999994
 51
177.882734
  0
ARC
  5
69
  8
0
 62
     7
 10
158.3037929999999
 20
78.393967000000004
 30
0.0
 40
1.211808999999999
 50
2.102735
 51
87.880331000000012
  0
ARC
  5
6A
  8
0
 62
     7
 10
158.46695199999999
 20
207.16162
 30
0.0
 40
6.9999630000000002
 50
270.00142999999991
 51
0.0014
  0
ARC
  5
6B
  8
0
 62
     7
 10
158.46712500000001
 20
207.16179
 30
0.0
 40
7.0001329999999991
 50
179.99996999999991
 51
270.00002000000001
  0
ARC
  5
6C
  8
0
 62
     7
 10
158.467127
 20
207.16179
 30
0.0
 40
7.0001350000000002
 50
90.0
 51
179.99996999999991
  0
ARC
  5
6D
  8
0
 62
     7
 10
158.46695199999999
 20
207.16196199999999
 30
0.0
 40
6.9999630000000002
 50
359.99860000000001
 51
89.998570000000001
  0
ARC
  5
6E
  8
0
 62
     7
 10
158.46712500000001
 20
207.1617929999999
 30
0.0
 40
6.6666479999999986
 50
270.00002000000001
 51
359.99998999999991
  0
ARC
  5
6F
  8
0
 62
     7
 10
158.46712500000001
 20
207.16179
 30
0.0
 40
6.666644999999999
 50
179.99996999999991
 51
270.00002000000001
  0
ARC
  5
70
  8
0
 62
     7
 10
158.467127
 20
207.16179
 30
0.0
 40
6.6666479999999986
 50
90.0
 51
179.99996999999991
  0
ARC
  5
71
  8
0
 62
     7
 10
158.46712500000001
 20
207.16179
 30
0.0
 40
6.6666479999999986
 50
0.00001
 51
89.999980000000008
  0
ARC
  5
72
  8
0
 62
     7
 10
158.46695299999999
 20
207.16162
 30
0.0
 40
2.4999500000000001
 50
270.00396799999999
 51
0.003938
  0
ARC
  5
73
  8
0
 62
     7
 10
158.46712500000001
 20
207.16179099999999
 30
0.0
 40
2.500121
 50
179.99996999999991
 51
270.00002000000001
  0
ARC
  5
74
  8
0
 62
     7
 10
158.46712600000001
 20
207.16179099999999
 30
0.0
 40
2.5001220000000002
 50
90.0
 51
179.99996999999991
  0
ARC
  5
75
  8
0
 62
     7
 10
158.46695299999999
 20
207.1619629999999
 30
0.0
 40
2.4999500000000001
 50
359.99606199999999
 51
89.996032000000014
  0
ARC
  5
76
  8
0
 62
     7
 10
75.120780000000011
 20
207.1617929999999
 30
0.0
 40
10.500030000000001
 50
270.00002000000001
 51
359.99998999999991
  0
ARC
  5
77
  8
0
 62
     7
 10
75.120780000000011
 20
207.16179
 30
0.0
 40
10.500026999999999
 50
179.99996999999991
 51
270.00002000000001
  0
ARC
  5
78
  8
0
 62
     7
 10
75.120784
 20
207.16179
 30
0.0
 40
10.500030000000001
 50
90.0
 51
179.99996999999991
  0
ARC
  5
79
  8
0
 62
     7
 10
75.120780000000011
 20
207.16179
 30
0.0
 40
10.500030000000001
 50
0.00001
 51
89.999980000000008
  0
LINE
  5
7A
  8
0
 62
     7
 10
156.80000000000001
 20
138.92299999999989
 30
0.0
 11
156.80000000000001
 21
141.7589999999999
 31
0.0
  0
LINE
  5
7B
  8
0
 62
     7
 10
160.1339999999999
 20
138.92299999999989
 30
0.0
 11
160.1339999999999
 21
141.7589999999999
 31
0.0
  0
LINE
  5
7C
  8
0
 62
     7
 10
160.1339999999999
 20
138.92299999999989
 30
0.0
 11
160.46700000000001
 21
139.256
 31
0.0
  0
LINE
  5
7D
  8
0
 62
     7
 10
156.80000000000001
 20
138.92299999999989
 30
0.0
 11
156.46700000000001
 21
139.256
 31
0.0
  0
LINE
  5
7E
  8
0
 62
     7
 10
160.1339999999999
 20
138.92299999999989
 30
0.0
 11
156.80000000000001
 21
138.92299999999989
 31
0.0
  0
LINE
  5
7F
  8
0
 62
     7
 10
156.46700000000001
 20
139.256
 30
0.0
 11
160.46700000000001
 21
139.256
 31
0.0
  0
LINE
  5
80
  8
0
 62
     7
 10
156.46700000000001
 20
139.256
 30
0.0
 11
156.46700000000001
 21
141.7589999999999
 31
0.0
  0
LINE
  5
81
  8
0
 62
     7
 10
160.46700000000001
 20
139.256
 30
0.0
 11
160.46700000000001
 21
141.7589999999999
 31
0.0
  0
LINE
  5
82
  8
0
 62
     7
 10
32.034399999999998
 20
138.92299999999989
 30
0.0
 11
32.034399999999998
 21
141.7589999999999
 31
0.0
  0
LINE
  5
83
  8
0
 62
     7
 10
35.367600000000003
 20
138.92299999999989
 30
0.0
 11
35.367600000000003
 21
141.7589999999999
 31
0.0
  0
LINE
  5
84
  8
0
 62
     7
 10
36.20089999999999
 20
167.083
 30
0.0
 11
36.20089999999999
 21
157.922
 31
0.0
  0
LINE
  5
85
  8
0
 62
     7
 10
40.363700000000001
 20
155.923
 30
0.0
 11
40.363700000000001
 21
156.756
 31
0.0
  0
ARC
  5
86
  8
0
 62
     7
 10
40.191116000000001
 20
156.74994099999989
 30
0.0
 40
0.172677
 50
2.0467930000000001
 51
87.953197000000003
  0
LINE
  5
87
  8
0
 62
     7
 10
36.20089999999999
 20
157.756
 30
0.0
 11
36.20089999999999
 21
156.923
 31
0.0
  0
ARC
  5
88
  8
0
 62
     7
 10
36.028381000000003
 20
157.74936999999991
 30
0.0
 40
0.172677
 50
2.0467930000000001
 51
87.953197000000003
  0
ARC
  5
89
  8
0
 62
     7
 10
36.028207000000002
 20
167.07702900000001
 30
0.0
 40
0.17285
 50
2.043156999999999
 51
87.897552000000005
  0
LINE
  5
8A
  8
0
 62
     7
 10
31.201000000000001
 20
167.083
 30
0.0
 11
31.201000000000001
 21
157.922
 31
0.0
  0
LINE
  5
8B
  8
0
 62
     7
 10
31.201000000000001
 20
157.756
 30
0.0
 11
31.201000000000001
 21
156.923
 31
0.0
  0
ARC
  5
8C
  8
0
 62
     7
 10
31.373624
 20
157.74936099999999
 30
0.0
 40
0.172686
 50
92.049638999999985
 51
177.95033100000001
  0
LINE
  5
8D
  8
0
 62
     7
 10
27.038299999999989
 20
155.923
 30
0.0
 11
27.038299999999989
 21
156.756
 31
0.0
  0
ARC
  5
8E
  8
0
 62
     7
 10
27.210889000000002
 20
156.749932
 30
0.0
 40
0.172686
 50
92.049638999999985
 51
177.95033100000001
  0
ARC
  5
8F
  8
0
 62
     7
 10
31.373636999999992
 20
167.07718199999991
 30
0.0
 40
0.172692
 50
92.053613999999996
 51
178.00563799999989
  0
LINE
  5
90
  8
0
 62
     7
 10
27.204699999999999
 20
156.923
 30
0.0
 11
40.197299999999998
 21
156.923
 31
0.0
  0
LINE
  5
91
  8
0
 62
     7
 10
31.3674
 20
167.25
 30
0.0
 11
36.034500000000001
 21
167.25
 31
0.0
  0
LINE
  5
92
  8
0
 62
     7
 10
36.20089999999999
 20
157.922
 30
0.0
 11
31.201000000000001
 21
157.922
 31
0.0
  0
LINE
  5
93
  8
0
 62
     7
 10
35.341000000000001
 20
141.999
 30
0.0
 11
35.341000000000001
 21
144.84999999999991
 31
0.0
  0
LINE
  5
94
  8
0
 62
     7
 10
37.262
 20
141.999
 30
0.0
 11
37.262
 21
144.84999999999991
 31
0.0
  0
LINE
  5
95
  8
0
 62
     7
 10
37.265799999999999
 20
144.84999999999991
 30
0.0
 11
37.265799999999999
 21
141.999
 31
0.0
  0
LINE
  5
96
  8
0
 62
     7
 10
35.6218
 20
144.84999999999991
 30
0.0
 11
35.6218
 21
141.999
 31
0.0
  0
LINE
  5
97
  8
0
 62
     7
 10
35.341000000000001
 20
141.999
 30
0.0
 11
35.6218
 21
141.999
 31
0.0
  0
LINE
  5
98
  8
0
 62
     7
 10
37.262
 20
141.999
 30
0.0
 11
37.265799999999999
 21
141.999
 31
0.0
  0
ARC
  5
99
  8
0
 62
     7
 10
36.542130999999991
 20
143.73238399999991
 30
0.0
 40
1.9622859999999991
 50
242.03077699999989
 51
259.53317299999992
  0
ARC
  5
9A
  8
0
 62
     7
 10
36.444988000000002
 20
143.384986
 30
0.0
 40
1.6033500000000001
 50
260.69165099999998
 51
294.43668899999989
  0
ARC
  5
9B
  8
0
 62
     7
 10
36.270904999999992
 20
143.861389
 30
0.0
 40
2.109445
 50
293.38835499999999
 51
298.02505400000001
  0
LINE
  5
9C
  8
0
 62
     7
 10
36.849299999999999
 20
141.7589999999999
 30
0.0
 11
37.265799999999999
 21
141.999
 31
0.0
  0
LINE
  5
9D
  8
0
 62
     7
 10
35.367600000000003
 20
145.58999999999989
 30
0.0
 11
35.367600000000003
 21
155.59
 31
0.0
  0
LINE
  5
9E
  8
0
 62
     7
 10
35.70109999999999
 20
145.58999999999989
 30
0.0
 11
35.70109999999999
 21
155.59
 31
0.0
  0
LINE
  5
9F
  8
0
 62
     7
 10
35.6218
 20
144.84999999999991
 30
0.0
 11
35.341000000000001
 21
144.84999999999991
 31
0.0
  0
LINE
  5
A0
  8
0
 62
     7
 10
37.265799999999999
 20
144.84999999999991
 30
0.0
 11
37.262
 21
144.84999999999991
 31
0.0
  0
ARC
  5
A1
  8
0
 62
     7
 10
36.342480000000002
 20
143.11882399999999
 30
0.0
 40
1.9600559999999989
 50
62.020718999999993
 51
79.543191000000007
  0
ARC
  5
A2
  8
0
 62
     7
 10
36.438879999999997
 20
143.46408999999991
 30
0.0
 40
1.6033500000000001
 50
80.691631000000001
 51
114.43666999999991
  0
ARC
  5
A3
  8
0
 62
     7
 10
36.612961999999989
 20
142.98768699999999
 30
0.0
 40
2.109445
 50
113.388335
 51
118.02503400000001
  0
LINE
  5
A4
  8
0
 62
     7
 10
36.849299999999999
 20
145.09
 30
0.0
 11
37.265799999999999
 21
144.84999999999991
 31
0.0
  0
LINE
  5
A5
  8
0
 62
     7
 10
40.696800000000003
 20
145.09
 30
0.0
 11
40.696800000000003
 21
145.58999999999989
 31
0.0
  0
LINE
  5
A6
  8
0
 62
     7
 10
30.140299999999989
 20
144.84999999999991
 30
0.0
 11
30.140299999999989
 21
141.999
 31
0.0
  0
LINE
  5
A7
  8
0
 62
     7
 10
30.136500000000002
 20
144.84999999999991
 30
0.0
 11
30.136500000000002
 21
141.999
 31
0.0
  0
LINE
  5
A8
  8
0
 62
     7
 10
32.061
 20
144.84999999999991
 30
0.0
 11
32.061
 21
141.999
 31
0.0
  0
LINE
  5
A9
  8
0
 62
     7
 10
31.7805
 20
141.999
 30
0.0
 11
31.7805
 21
144.84999999999991
 31
0.0
  0
ARC
  5
AA
  8
0
 62
     7
 10
31.060755
 20
143.7326679999999
 30
0.0
 40
1.9626079999999999
 50
242.03079700000001
 51
259.528051
  0
ARC
  5
AB
  8
0
 62
     7
 10
30.963398999999999
 20
143.38484600000001
 30
0.0
 40
1.6032150000000001
 50
260.69018599999993
 51
294.43815499999999
  0
ARC
  5
AC
  8
0
 62
     7
 10
30.788421
 20
143.864295
 30
0.0
 40
2.11246
 50
293.37892399999998
 51
298.01097700000003
  0
LINE
  5
AD
  8
0
 62
     7
 10
30.136500000000002
 20
141.999
 30
0.0
 11
30.140299999999989
 21
141.999
 31
0.0
  0
LINE
  5
AE
  8
0
 62
     7
 10
30.553000000000001
 20
141.7589999999999
 30
0.0
 11
30.136500000000002
 21
141.999
 31
0.0
  0
LINE
  5
AF
  8
0
 62
     7
 10
31.7805
 20
141.999
 30
0.0
 11
32.061
 21
141.999
 31
0.0
  0
LINE
  5
B0
  8
0
 62
     7
 10
31.700900000000001
 20
145.58999999999989
 30
0.0
 11
31.700900000000001
 21
155.59
 31
0.0
  0
LINE
  5
B1
  8
0
 62
     7
 10
32.034399999999998
 20
145.58999999999989
 30
0.0
 11
32.034399999999998
 21
155.59
 31
0.0
  0
ARC
  5
B2
  8
0
 62
     7
 10
30.859746999999992
 20
143.1150889999999
 30
0.0
 40
1.9639200000000001
 50
62.040752000000012
 51
79.532677000000007
  0
ARC
  5
B3
  8
0
 62
     7
 10
30.957256999999998
 20
143.464471
 30
0.0
 40
1.602965
 50
80.691326000000004
 51
114.4393299999999
  0
ARC
  5
B4
  8
0
 62
     7
 10
31.132031999999999
 20
142.98651000000001
 30
0.0
 40
2.1107629999999991
 50
113.39063400000001
 51
118.0243029999999
  0
LINE
  5
B5
  8
0
 62
     7
 10
30.140299999999989
 20
144.84999999999991
 30
0.0
 11
30.136500000000002
 21
144.84999999999991
 31
0.0
  0
LINE
  5
B6
  8
0
 62
     7
 10
30.553000000000001
 20
145.09
 30
0.0
 11
30.136500000000002
 21
144.84999999999991
 31
0.0
  0
LINE
  5
B7
  8
0
 62
     7
 10
32.061
 20
144.84999999999991
 30
0.0
 11
31.7805
 21
144.84999999999991
 31
0.0
  0
LINE
  5
B8
  8
0
 62
     7
 10
26.705200000000001
 20
145.09
 30
0.0
 11
26.705200000000001
 21
145.58999999999989
 31
0.0
  0
LINE
  5
B9
  8
0
 62
     7
 10
36.849299999999999
 20
141.7589999999999
 30
0.0
 11
30.553000000000001
 21
141.7589999999999
 31
0.0
  0
ARC
  5
BA
  8
0
 62
     7
 10
33.700997999999998
 20
148.21008399999999
 30
0.0
 40
6.4236820000000003
 50
255.20789199999999
 51
284.79212799999988
  0
LINE
  5
BB
  8
0
 62
     7
 10
30.553000000000001
 20
145.09
 30
0.0
 11
36.849299999999999
 21
145.09
 31
0.0
  0
ARC
  5
BC
  8
0
 62
     7
 10
33.700997999999998
 20
138.6415519999999
 30
0.0
 40
6.421206999999999
 50
75.202039999999997
 51
104.79794
  0
LINE
  5
BD
  8
0
 62
     7
 10
26.705200000000001
 20
145.58999999999989
 30
0.0
 11
40.696800000000003
 21
145.58999999999989
 31
0.0
  0
LINE
  5
BE
  8
0
 62
     7
 10
40.696800000000003
 20
145.09
 30
0.0
 11
26.705200000000001
 21
145.09
 31
0.0
  0
LINE
  5
BF
  8
0
 62
     7
 10
40.363999999999997
 20
155.923
 30
0.0
 11
27.038299999999989
 21
155.923
 31
0.0
  0
LINE
  5
C0
  8
0
 62
     7
 10
27.038299999999989
 20
155.923
 30
0.0
 11
27.038299999999989
 21
155.59
 31
0.0
  0
LINE
  5
C1
  8
0
 62
     7
 10
27.038299999999989
 20
155.59
 30
0.0
 11
40.363999999999997
 21
155.59
 31
0.0
  0
LINE
  5
C2
  8
0
 62
     7
 10
40.363999999999997
 20
155.59
 30
0.0
 11
40.363999999999997
 21
155.923
 31
0.0
  0
LINE
  5
C3
  8
0
 62
     7
 10
27.038299999999989
 20
155.59
 30
0.0
 11
27.038299999999989
 21
155.923
 31
0.0
  0
LINE
  5
C4
  8
0
 62
     7
 10
40.363700000000001
 20
155.59
 30
0.0
 11
40.363700000000001
 21
155.923
 31
0.0
  0
LINE
  5
C5
  8
0
 62
     7
 10
35.367899999999992
 20
138.92299999999989
 30
0.0
 11
35.70109999999999
 21
139.256
 31
0.0
  0
LINE
  5
C6
  8
0
 62
     7
 10
32.034100000000002
 20
138.92299999999989
 30
0.0
 11
31.700900000000001
 21
139.256
 31
0.0
  0
LINE
  5
C7
  8
0
 62
     7
 10
35.367899999999992
 20
138.92299999999989
 30
0.0
 11
32.034100000000002
 21
138.92299999999989
 31
0.0
  0
LINE
  5
C8
  8
0
 62
     7
 10
31.700900000000001
 20
139.256
 30
0.0
 11
35.70109999999999
 21
139.256
 31
0.0
  0
LINE
  5
C9
  8
0
 62
     7
 10
32.70109999999999
 20
138.92299999999989
 30
0.0
 11
32.70109999999999
 21
102.634
 31
0.0
  0
LINE
  5
CA
  8
0
  6
AIGENLINE001
 62
     7
 10
158.46700000000001
 20
197.98599999999999
 30
0.0
 11
158.46700000000001
 21
216.34
 31
0.0
  0
LINE
  5
CB
  8
0
  6
AIGENLINE001
 62
     7
 10
75.120800000000003
 20
194.13800000000001
 30
0.0
 11
75.120800000000003
 21
220.48400000000001
 31
0.0
  0
LINE
  5
CC
  8
0
  6
AIGENLINE001
 62
     7
 10
158.46700000000001
 20
61.759900000000002
 30
0.0
 11
158.46700000000001
 21
169.63200000000001
 31
0.0
  0
LINE
  5
CD
  8
0
 62
     7
 10
34.70089999999999
 20
138.92299999999989
 30
0.0
 11
34.70089999999999
 21
102.634
 31
0.0
  0
LINE
  5
CE
  8
0
 62
     7
 10
34.70089999999999
 20
63.301299999999998
 30
0.0
 11
32.70109999999999
 21
63.301299999999998
 31
0.0
  0
LINE
  5
CF
  8
0
 62
     7
 10
34.70089999999999
 20
72.294399999999996
 30
0.0
 11
34.70089999999999
 21
63.301299999999998
 31
0.0
  0
LINE
  5
D0
  8
0
 62
     7
 10
32.70109999999999
 20
72.294399999999996
 30
0.0
 11
32.70109999999999
 21
63.301299999999998
 31
0.0
  0
LINE
  5
D1
  8
0
 62
     7
 10
31.700900000000001
 20
139.256
 30
0.0
 11
31.700900000000001
 21
141.7589999999999
 31
0.0
  0
LINE
  5
D2
  8
0
 62
     7
 10
35.70109999999999
 20
139.256
 30
0.0
 11
35.70109999999999
 21
141.7589999999999
 31
0.0
  0
LINE
  5
D3
  8
0
 62
     7
 10
160.96700000000001
 20
167.083
 30
0.0
 11
160.96700000000001
 21
157.922
 31
0.0
  0
LINE
  5
D4
  8
0
 62
     7
 10
151.804
 20
179.48099999999999
 30
0.0
 11
165.12999999999991
 21
179.48099999999999
 31
0.0
  0
LINE
  5
D5
  8
0
 62
     7
 10
165.12999999999991
 20
157.535
 30
0.0
 11
165.12999999999991
 21
180.18199999999999
 31
0.0
  0
LINE
  5
D6
  8
0
 62
     7
 10
151.804
 20
157.535
 30
0.0
 11
151.804
 21
180.18199999999999
 31
0.0
  0
LINE
  5
D7
  8
0
 62
     7
 10
165.12999999999991
 20
155.923
 30
0.0
 11
165.12999999999991
 21
156.756
 31
0.0
  0
ARC
  5
D8
  8
0
 62
     7
 10
164.95707200000001
 20
156.74994099999989
 30
0.0
 40
0.172677
 50
2.0467930000000001
 51
87.953197000000003
  0
LINE
  5
D9
  8
0
 62
     7
 10
160.96700000000001
 20
157.756
 30
0.0
 11
160.96700000000001
 21
156.923
 31
0.0
  0
ARC
  5
DA
  8
0
 62
     7
 10
160.79433700000001
 20
157.74936999999991
 30
0.0
 40
0.172677
 50
2.0467930000000001
 51
87.953197000000003
  0
ARC
  5
DB
  8
0
 62
     7
 10
160.794163
 20
167.07702900000001
 30
0.0
 40
0.17285
 50
2.043156999999999
 51
87.897552000000005
  0
LINE
  5
DC
  8
0
 62
     7
 10
155.96700000000001
 20
167.083
 30
0.0
 11
155.96700000000001
 21
157.922
 31
0.0
  0
LINE
  5
DD
  8
0
 62
     7
 10
155.96700000000001
 20
157.756
 30
0.0
 11
155.96700000000001
 21
156.923
 31
0.0
  0
ARC
  5
DE
  8
0
 62
     7
 10
156.13957999999991
 20
157.74936099999999
 30
0.0
 40
0.172686
 50
92.049638999999985
 51
177.95033100000001
  0
LINE
  5
DF
  8
0
 62
     7
 10
151.804
 20
155.923
 30
0.0
 11
151.804
 21
156.756
 31
0.0
  0
ARC
  5
E0
  8
0
 62
     7
 10
151.97684399999989
 20
156.749932
 30
0.0
 40
0.172686
 50
92.049638999999985
 51
177.95033100000001
  0
ARC
  5
E1
  8
0
 62
     7
 10
156.13959199999999
 20
167.07718199999991
 30
0.0
 40
0.172692
 50
92.053613999999996
 51
178.00563799999989
  0
LINE
  5
E2
  8
0
 62
     7
 10
151.971
 20
156.923
 30
0.0
 11
164.96299999999991
 21
156.923
 31
0.0
  0
LINE
  5
E3
  8
0
 62
     7
 10
156.1329999999999
 20
167.25
 30
0.0
 11
160.80099999999999
 21
167.25
 31
0.0
  0
LINE
  5
E4
  8
0
 62
     7
 10
160.96700000000001
 20
157.922
 30
0.0
 11
155.96700000000001
 21
157.922
 31
0.0
  0
LINE
  5
E5
  8
0
 62
     7
 10
160.1339999999999
 20
145.58999999999989
 30
0.0
 11
160.1339999999999
 21
155.59
 31
0.0
  0
LINE
  5
E6
  8
0
 62
     7
 10
160.46700000000001
 20
145.58999999999989
 30
0.0
 11
160.46700000000001
 21
155.59
 31
0.0
  0
LINE
  5
E7
  8
0
 62
     7
 10
165.46299999999999
 20
145.09
 30
0.0
 11
165.46299999999999
 21
145.58999999999989
 31
0.0
  0
LINE
  5
E8
  8
0
 62
     7
 10
156.46700000000001
 20
145.58999999999989
 30
0.0
 11
156.46700000000001
 21
155.59
 31
0.0
  0
LINE
  5
E9
  8
0
 62
     7
 10
156.80000000000001
 20
145.58999999999989
 30
0.0
 11
156.80000000000001
 21
155.59
 31
0.0
  0
LINE
  5
EA
  8
0
 62
     7
 10
151.471
 20
145.09
 30
0.0
 11
151.471
 21
145.58999999999989
 31
0.0
  0
LINE
  5
EB
  8
0
 62
     7
 10
151.471
 20
145.58999999999989
 30
0.0
 11
165.46299999999999
 21
145.58999999999989
 31
0.0
  0
LINE
  5
EC
  8
0
 62
     7
 10
165.46299999999999
 20
145.09
 30
0.0
 11
151.471
 21
145.09
 31
0.0
  0
LINE
  5
ED
  8
0
 62
     7
 10
165.12999999999991
 20
155.923
 30
0.0
 11
151.804
 21
155.923
 31
0.0
  0
LINE
  5
EE
  8
0
 62
     7
 10
151.804
 20
155.923
 30
0.0
 11
151.804
 21
155.59
 31
0.0
  0
LINE
  5
EF
  8
0
 62
     7
 10
151.804
 20
155.59
 30
0.0
 11
165.12999999999991
 21
155.59
 31
0.0
  0
LINE
  5
F0
  8
0
 62
     7
 10
165.12999999999991
 20
155.59
 30
0.0
 11
165.12999999999991
 21
155.923
 31
0.0
  0
LINE
  5
F1
  8
0
 62
     7
 10
151.804
 20
155.59
 30
0.0
 11
151.804
 21
155.923
 31
0.0
  0
LINE
  5
F2
  8
0
 62
     7
 10
165.12999999999991
 20
155.59
 30
0.0
 11
165.12999999999991
 21
155.923
 31
0.0
  0
LINE
  5
F3
  8
0
 62
     7
 10
157.30399999999989
 20
80.183000000000007
 30
0.0
 11
159.63
 21
80.016999999999996
 31
0.0
  0
LINE
  5
F4
  8
0
 62
     7
 10
159.63
 20
80.016999999999996
 30
0.0
 11
159.93899999999991
 21
79.6614
 31
0.0
  0
ARC
  5
F5
  8
0
 62
     7
 10
158.534177
 20
77.512210999999994
 30
0.0
 40
2.2540419999999992
 50
52.296376000000009
 51
70.025537999999997
  0
ARC
  5
F6
  8
0
 62
     7
 10
158.23368600000001
 20
76.77188000000001
 30
0.0
 40
3.052629
 50
69.471506999999988
 51
107.10307399999991
  0
ARC
  5
F7
  8
0
 62
     7
 10
158.0408469999999
 20
77.513891000000001
 30
0.0
 40
2.286972
 50
107.95262099999999
 51
119.29000499999999
  0
LINE
  5
F8
  8
0
 62
     7
 10
157.30399999999989
 20
80.183000000000007
 30
0.0
 11
156.94799999999989
 21
79.874399999999994
 31
0.0
  0
LINE
  5
F9
  8
0
 62
     7
 10
157.46700000000001
 20
138.92299999999989
 30
0.0
 11
157.46700000000001
 21
77.452399999999983
 31
0.0
  0
LINE
  5
FA
  8
0
 62
     7
 10
159.46700000000001
 20
138.92299999999989
 30
0.0
 11
159.46700000000001
 21
80.642600000000002
 31
0.0
  0
LINE
  5
FB
  8
0
 62
     7
 10
165.03800000000001
 20
76.853000000000009
 30
0.0
 11
165.01099999999991
 21
76.187399999999997
 31
0.0
  0
LINE
  5
FC
  8
0
 62
     7
 10
165.01099999999991
 20
76.187399999999997
 30
0.0
 11
164.98400000000001
 21
75.521799999999985
 31
0.0
  0
ARC
  5
FD
  8
0
 62
     7
 10
164.81095400000001
 20
75.535805999999994
 30
0.0
 40
0.173866
 50
270.00354099999998
 51
355.37738899999988
  0
ARC
  5
FE
  8
0
 62
     7
 10
164.86493200000001
 20
76.853767000000005
 30
0.0
 40
0.173412
 50
359.74224399999991
 51
85.402067999999986
  0
LINE
  5
FF
  8
0
 62
     7
 10
157.76099999999991
 20
72.524500000000003
 30
0.0
 11
157.78100000000001
 21
72.801500000000004
 31
0.0
  0
LINE
  5
100
  8
0
 62
     7
 10
158.09399999999999
 20
72.500399999999999
 30
0.0
 11
158.11299999999989
 21
72.7774
 31
0.0
  0
ARC
  5
101
  8
0
 62
     7
 10
158.10987900000001
 20
73.380351000000005
 30
0.0
 40
0.8800750000000001
 50
268.94500899999991
 51
288.36152099999998
  0
ARC
  5
102
  8
0
 62
     7
 10
158.03307499999991
 20
73.646948999999992
 30
0.0
 40
1.157346999999999
 50
287.81262400000003
 51
333.25167099999999
  0
LINE
  5
103
  8
0
 62
     7
 10
157.99299999999999
 20
73.4375
 30
0.0
 11
158.93199999999999
 21
73.370699999999999
 31
0.0
  0
LINE
  5
104
  8
0
 62
     7
 10
158.71799999999999
 20
74.237499999999997
 30
0.0
 11
158.6579999999999
 21
73.390000000000001
 31
0.0
  0
LINE
  5
105
  8
0
 62
     7
 10
159.57299999999989
 20
74.51100000000001
 30
0.0
 11
159.21599999999989
 21
74.202299999999994
 31
0.0
  0
ARC
  5
106
  8
0
 62
     7
 10
158.91220799999999
 20
73.202437000000003
 30
0.0
 40
0.17223
 50
333.6749299999999
 51
59.852110000000003
  0
ARC
  5
107
  8
0
 62
     7
 10
158.92514700000001
 20
73.221834000000001
 30
0.0
 40
0.148965
 50
60.40880099999999
 51
87.545222999999993
  0
LINE
  5
108
  8
0
 62
     7
 10
157.99299999999999
 20
73.4375
 30
0.0
 11
157.05500000000001
 21
73.504300000000001
 31
0.0
  0
LINE
  5
109
  8
0
 62
     7
 10
157.78100000000001
 20
72.801500000000004
 30
0.0
 11
157.947
 21
72.789100000000005
 31
0.0
  0
LINE
  5
10A
  8
0
 62
     7
 10
158.11299999999989
 20
72.7774
 30
0.0
 11
157.947
 21
72.789100000000005
 31
0.0
  0
LINE
  5
10B
  8
0
 62
     7
 10
157.38900000000001
 20
74.331900000000005
 30
0.0
 11
157.32900000000001
 21
73.484999999999999
 31
0.0
  0
LINE
  5
10C
  8
0
 62
     7
 10
159.76599999999991
 20
77.233999999999995
 30
0.0
 11
164.87899999999999
 21
77.026600000000002
 31
0.0
  0
LINE
  5
10D
  8
0
 62
     7
 10
159.64799999999991
 20
75.572100000000006
 30
0.0
 11
164.81099999999989
 21
75.361900000000006
 31
0.0
  0
LINE
  5
10E
  8
0
 62
     7
 10
159.46700000000001
 20
63.301299999999998
 30
0.0
 11
157.46700000000001
 21
63.301299999999998
 31
0.0
  0
LINE
  5
10F
  8
0
 62
     7
 10
159.46700000000001
 20
74.419399999999996
 30
0.0
 11
159.46700000000001
 21
63.301299999999998
 31
0.0
  0
LINE
  5
110
  8
0
 62
     7
 10
157.46700000000001
 20
72.614800000000002
 30
0.0
 11
157.46700000000001
 21
63.301299999999998
 31
0.0
  0
LINE
  5
111
  8
0
 62
     7
 10
156.58199999999991
 20
74.723200000000006
 30
0.0
 11
156.71199999999999
 21
76.551199999999994
 31
0.0
  0
LINE
  5
112
  8
0
 62
     7
 10
156.88999999999999
 20
74.367699999999999
 30
0.0
 11
156.58199999999991
 21
74.723200000000006
 31
0.0
  0
ARC
  5
113
  8
0
 62
     7
 10
157.728962
 20
73.510480999999984
 30
0.0
 40
0.8731279999999999
 50
195.23176599999999
 51
214.805069
  0
ARC
  5
114
  8
0
 62
     7
 10
157.96843100000001
 20
73.662303000000009
 30
0.0
 40
1.1564760000000001
 50
214.20930899999991
 51
259.67841099999993
  0
LINE
  5
115
  8
0
 62
     7
 10
159.21599999999989
 20
74.202299999999994
 30
0.0
 11
156.88999999999999
 21
74.367699999999999
 31
0.0
  0
ARC
  5
116
  8
0
 62
     7
 10
157.98694499999991
 20
76.873271000000003
 30
0.0
 40
2.255075999999999
 50
232.29649900000001
 51
250.01431700000001
  0
ARC
  5
117
  8
0
 62
     7
 10
158.286732
 20
77.612962999999993
 30
0.0
 40
3.0528209999999989
 50
249.47158699999989
 51
287.10325799999998
  0
ARC
  5
118
  8
0
 62
     7
 10
158.479523
 20
76.871094999999997
 30
0.0
 40
2.287313999999999
 50
287.95281999999997
 51
299.28875099999999
  0
ARC
  5
119
  8
0
 62
     7
 10
157.04974799999999
 20
73.330418000000009
 30
0.0
 40
0.173993
 50
88.279473999999993
 51
173.5408239999999
  0
ARC
  5
11A
  8
0
 62
     7
 10
156.98860300000001
 20
73.336978999999999
 30
0.0
 40
0.112499
 50
173.35785300000001
 51
188.623717
  0
ARC
  5
11B
  8
0
 62
     7
 10
157.02818999999991
 20
73.334817000000001
 30
0.0
 40
0.151528
 50
185.569433
 51
200.767101
  0
LINE
  5
11C
  8
0
 62
     7
 10
159.93899999999991
 20
79.6614
 30
0.0
 11
159.57299999999989
 21
74.51100000000001
 31
0.0
  0
LINE
  5
11D
  8
0
 62
     7
 10
156.71199999999999
 20
76.551199999999994
 30
0.0
 11
156.94799999999989
 21
79.874399999999994
 31
0.0
  0
LINE
  5
11E
  8
0
 62
     7
 10
41.032400000000003
 20
100.1009999999999
 30
0.0
 11
44.112699999999997
 21
100.6139999999999
 31
0.0
  0
LINE
  5
11F
  8
0
 62
     7
 10
44.112699999999997
 20
100.6139999999999
 30
0.0
 11
44.195
 21
100.7109999999999
 31
0.0
  0
LINE
  5
120
  8
0
 62
     7
 10
44.195
 20
100.7109999999999
 30
0.0
 11
44.195
 21
100.8779999999999
 31
0.0
  0
LINE
  5
121
  8
0
 62
     7
 10
44.111600000000003
 20
100.9619999999999
 30
0.0
 11
44.195
 21
100.8779999999999
 31
0.0
  0
ARC
  5
122
  8
0
 62
     7
 10
43.057673000000001
 20
101.224541
 30
0.0
 40
0.263148
 50
272.120833
 51
357.80117000000001
  0
ARC
  5
123
  8
0
 62
     7
 10
43.057997
 20
101.204673
 30
0.0
 40
0.262812
 50
2.1308029999999989
 51
87.947193999999996
  0
LINE
  5
124
  8
0
 62
     7
 10
44.201199999999993
 20
101.467
 30
0.0
 11
44.201199999999993
 21
102.634
 31
0.0
  0
ARC
  5
125
  8
0
 62
     7
 10
43.522201000000003
 20
84.121543000000003
 30
0.0
 40
0.173019
 50
2.0380979999999989
 51
87.843390000000014
  0
LINE
  5
126
  8
0
 62
     7
 10
43.695099999999996
 20
84.127700000000004
 30
0.0
 11
43.695099999999996
 21
83.128600000000006
 31
0.0
  0
ARC
  5
127
  8
0
 62
     7
 10
42.202709999999989
 20
82.788555999999986
 30
0.0
 40
0.173437
 50
92.170599999999979
 51
177.8293699999999
  0
ARC
  5
128
  8
0
 62
     7
 10
43.522123999999991
 20
83.134843000000004
 30
0.0
 40
0.1731
 50
272.18134700000002
 51
357.93716499999999
  0
LINE
  5
129
  8
0
 62
     7
 10
40.034999999999989
 20
99.761300000000006
 30
0.0
 11
27.36699999999999
 21
99.761300000000006
 31
0.0
  0
LINE
  5
12A
  8
0
 62
     7
 10
27.205100000000002
 20
84.294399999999996
 30
0.0
 11
27.205100000000002
 21
99.114999999999995
 31
0.0
  0
ARC
  5
12B
  8
0
 62
     7
 10
26.192547000000001
 20
99.104077000000004
 30
0.0
 40
1.0125690000000001
 50
0.6175310000000001
 51
79.909001000000004
  0
LINE
  5
12C
  8
0
 62
     7
 10
38.701099999999997
 20
94.965000000000003
 30
0.0
 11
28.700900000000001
 21
94.965000000000003
 31
0.0
  0
LINE
  5
12D
  8
0
 62
     7
 10
40.197299999999998
 20
84.294399999999996
 30
0.0
 11
40.197299999999998
 21
99.114999999999995
 31
0.0
  0
LINE
  5
12E
  8
0
 62
     7
 10
23.289300000000001
 20
100.6139999999999
 30
0.0
 11
23.2073
 21
100.7109999999999
 31
0.0
  0
LINE
  5
12F
  8
0
 62
     7
 10
23.2073
 20
100.7109999999999
 30
0.0
 11
23.2073
 21
100.8779999999999
 31
0.0
  0
LINE
  5
130
  8
0
 62
     7
 10
23.290700000000001
 20
100.9619999999999
 30
0.0
 11
23.2073
 21
100.8779999999999
 31
0.0
  0
ARC
  5
131
  8
0
 62
     7
 10
24.344324
 20
101.2043479999999
 30
0.0
 40
0.263148
 50
92.120812999999984
 51
177.80115099999989
  0
ARC
  5
132
  8
0
 62
     7
 10
24.344000000000001
 20
101.224216
 30
0.0
 40
0.262812
 50
182.13082299999991
 51
267.94721399999997
  0
LINE
  5
133
  8
0
  6
AIGENLINE001
 62
     7
 10
33.7012
 20
63.088000000000001
 30
0.0
 11
33.7012
 21
170.96000000000001
 31
0.0
  0
LINE
  5
134
  8
0
 62
     7
 10
23.2011
 20
101.467
 30
0.0
 11
23.2011
 21
102.634
 31
0.0
  0
LINE
  5
135
  8
0
 62
     7
 10
26.370000000000001
 20
100.1009999999999
 30
0.0
 11
23.289300000000001
 21
100.6139999999999
 31
0.0
  0
LINE
  5
136
  8
0
 62
     7
 10
28.700900000000001
 20
90.967299999999994
 30
0.0
 11
38.701099999999997
 21
90.967299999999994
 31
0.0
  0
ARC
  5
137
  8
0
 62
     7
 10
23.880203999999988
 20
84.121122000000014
 30
0.0
 40
0.173443
 50
92.172341000000003
 51
177.82762899999989
  0
LINE
  5
138
  8
0
 62
     7
 10
23.706900000000001
 20
84.127700000000004
 30
0.0
 11
23.706900000000001
 21
83.128600000000006
 31
0.0
  0
ARC
  5
139
  8
0
 62
     7
 10
23.880197999999989
 20
83.135181000000017
 30
0.0
 40
0.173437
 50
182.1706299999999
 51
267.82940000000002
  0
ARC
  5
13A
  8
0
 62
     7
 10
25.19969
 20
82.788972000000015
 30
0.0
 40
0.173019
 50
2.0380979999999989
 51
87.843390000000014
  0
LINE
  5
13B
  8
0
 62
     7
 10
28.700900000000001
 20
90.967299999999994
 30
0.0
 11
28.700900000000001
 21
94.965000000000003
 31
0.0
  0
LINE
  5
13C
  8
0
 62
     7
 10
38.701099999999997
 20
90.967299999999994
 30
0.0
 11
38.701099999999997
 21
94.965000000000003
 31
0.0
  0
LINE
  5
13D
  8
0
 62
     7
 10
23.8736
 20
84.294399999999996
 30
0.0
 11
43.528700000000001
 21
84.294399999999996
 31
0.0
  0
LINE
  5
13E
  8
0
 62
     7
 10
43.528700000000001
 20
82.961900000000014
 30
0.0
 11
23.8736
 21
82.961900000000014
 31
0.0
  0
LINE
  5
13F
  8
0
 62
     7
 10
44.201199999999993
 20
101.467
 30
0.0
 11
23.2011
 21
101.467
 31
0.0
  0
LINE
  5
140
  8
0
 62
     7
 10
44.112699999999997
 20
100.6139999999999
 30
0.0
 11
23.289300000000001
 21
100.6139999999999
 31
0.0
  0
LINE
  5
141
  8
0
 62
     7
 10
23.290700000000001
 20
100.9619999999999
 30
0.0
 11
44.111600000000003
 21
100.9619999999999
 31
0.0
  0
ARC
  5
142
  8
0
 62
     7
 10
41.209589999999999
 20
99.104249999999993
 30
0.0
 40
1.012364
 50
100.081321
 51
179.39210700000001
  0
LINE
  5
143
  8
0
 62
     7
 10
44.201199999999993
 20
102.634
 30
0.0
 11
23.2011
 21
102.634
 31
0.0
  0
ARC
  5
144
  8
0
 62
     7
 10
41.856414999999998
 20
74.965776000000005
 30
0.0
 40
0.173094
 50
272.17960099999988
 51
357.93891099999991
  0
LINE
  5
145
  8
0
 62
     7
 10
42.029400000000003
 20
82.795100000000005
 30
0.0
 11
42.029400000000003
 21
74.959599999999995
 31
0.0
  0
LINE
  5
146
  8
0
 62
     7
 10
40.680300000000003
 20
74.7928
 30
0.0
 11
40.680300000000003
 21
72.793899999999994
 31
0.0
  0
LINE
  5
147
  8
0
 62
     7
 10
40.430500000000002
 20
72.544499999999999
 30
0.0
 11
40.430500000000002
 21
74.7928
 31
0.0
  0
LINE
  5
148
  8
0
 62
     7
 10
40.180399999999999
 20
72.294399999999996
 30
0.0
 11
27.221599999999999
 21
72.294399999999996
 31
0.0
  0
ARC
  5
149
  8
0
 62
     7
 10
25.545929000000001
 20
74.966135999999992
 30
0.0
 40
0.173454
 50
182.17586600000001
 51
267.82416399999988
  0
LINE
  5
14A
  8
0
 62
     7
 10
26.721699999999991
 20
74.7928
 30
0.0
 11
26.721699999999991
 21
72.793899999999994
 31
0.0
  0
LINE
  5
14B
  8
0
 62
     7
 10
27.221599999999999
 20
72.294399999999996
 30
0.0
 11
26.721699999999991
 21
72.793899999999994
 31
0.0
  0
LINE
  5
14C
  8
0
 62
     7
 10
26.971800000000002
 20
72.544499999999999
 30
0.0
 11
26.971800000000002
 21
74.7928
 31
0.0
  0
LINE
  5
14D
  8
0
 62
     7
 10
26.721699999999991
 20
72.793899999999994
 30
0.0
 11
40.680300000000003
 21
72.793899999999994
 31
0.0
  0
LINE
  5
14E
  8
0
 62
     7
 10
41.863
 20
74.7928
 30
0.0
 11
25.539300000000001
 21
74.7928
 31
0.0
  0
LINE
  5
14F
  8
0
 62
     7
 10
40.180399999999999
 20
72.294399999999996
 30
0.0
 11
40.680300000000003
 21
72.793899999999994
 31
0.0
  0
LINE
  5
150
  8
0
 62
     7
 10
25.372599999999991
 20
82.795100000000005
 30
0.0
 11
25.372599999999991
 21
74.959599999999995
 31
0.0
  0
LINE
  5
151
  8
0
 62
     7
 10
82.452000000000027
 20
100.1009999999999
 30
0.0
 11
85.532599999999988
 21
100.6139999999999
 31
0.0
  0
LINE
  5
152
  8
0
 62
     7
 10
85.532599999999988
 20
100.6139999999999
 30
0.0
 11
85.614599999999996
 21
100.7109999999999
 31
0.0
  0
LINE
  5
153
  8
0
 62
     7
 10
85.614599999999996
 20
100.7109999999999
 30
0.0
 11
85.614599999999996
 21
100.8779999999999
 31
0.0
  0
LINE
  5
154
  8
0
 62
     7
 10
85.531199999999984
 20
100.9619999999999
 30
0.0
 11
85.614599999999996
 21
100.8779999999999
 31
0.0
  0
ARC
  5
155
  8
0
 62
     7
 10
84.477627999999996
 20
101.224541
 30
0.0
 40
0.263148
 50
272.120833
 51
357.80117000000001
  0
ARC
  5
156
  8
0
 62
     7
 10
84.477953000000014
 20
101.204673
 30
0.0
 40
0.262812
 50
2.1308029999999989
 51
87.947193999999996
  0
LINE
  5
157
  8
0
 62
     7
 10
85.620799999999988
 20
101.467
 30
0.0
 11
85.620799999999988
 21
102.634
 31
0.0
  0
LINE
  5
158
  8
0
  6
AIGENLINE001
 62
     7
 10
61.23940000000001
 20
207.16200000000001
 30
0.0
 11
167.8059999999999
 21
207.16200000000001
 31
0.0
  0
LINE
  5
159
  8
0
 62
     7
 10
84.897000000000006
 20
210.99299999999991
 30
0.0
 11
92.943799999999996
 21
210.99299999999991
 31
0.0
  0
LINE
  5
15A
  8
0
 62
     7
 10
96.6083
 20
210.99299999999991
 30
0.0
 11
93.276899999999998
 21
210.99299999999991
 31
0.0
  0
ARC
  5
15B
  8
0
 62
     7
 10
93.283862999999997
 20
210.81904900000001
 30
0.0
 40
0.173852
 50
92.297331999999997
 51
177.70263799999989
  0
ARC
  5
15C
  8
0
 62
     7
 10
92.937235999999984
 20
210.81986000000001
 30
0.0
 40
0.173024
 50
2.039528999999999
 51
87.841959000000003
  0
ARC
  5
15D
  8
0
 62
     7
 10
96.601806999999994
 20
210.81986000000001
 30
0.0
 40
0.173024
 50
2.039528999999999
 51
87.841959000000003
  0
LINE
  5
15E
  8
0
 62
     7
 10
84.897900000000007
 20
203.3309999999999
 30
0.0
 11
92.943799999999996
 21
203.3309999999999
 31
0.0
  0
LINE
  5
15F
  8
0
 62
     7
 10
96.6083
 20
203.3309999999999
 30
0.0
 11
93.276899999999998
 21
203.3309999999999
 31
0.0
  0
ARC
  5
160
  8
0
 62
     7
 10
93.283077000000006
 20
203.503747
 30
0.0
 40
0.173036
 50
182.0474649999999
 51
267.95256499999988
  0
ARC
  5
161
  8
0
 62
     7
 10
92.936774999999983
 20
203.5041829999999
 30
0.0
 40
0.173502
 50
272.30454700000001
 51
357.813965
  0
ARC
  5
162
  8
0
 62
     7
 10
96.601345999999992
 20
203.5041829999999
 30
0.0
 40
0.173502
 50
272.30454700000001
 51
357.813965
  0
LINE
  5
163
  8
0
 62
     7
 10
96.774699999999996
 20
210.82599999999999
 30
0.0
 11
96.774699999999996
 21
203.49799999999999
 31
0.0
  0
LINE
  5
164
  8
0
 62
     7
 10
93.110200000000006
 20
210.82599999999999
 30
0.0
 11
93.110200000000006
 21
203.49799999999999
 31
0.0
  0
LINE
  5
165
  8
0
  6
AIGENLINE001
 62
     7
 10
75.120800000000003
 20
78.960700000000003
 30
0.0
 11
98.020500000000013
 21
78.960700000000003
 31
0.0
  0
LINE
  5
166
  8
0
 62
     7
 10
83.449399999999983
 20
82.791700000000006
 30
0.0
 11
92.943799999999996
 21
82.791700000000006
 31
0.0
  0
ARC
  5
167
  8
0
 62
     7
 10
89.879661999999996
 20
78.963498000000001
 30
0.0
 40
7.3639359999999989
 50
174.211219
 51
180.021714
  0
ARC
  5
168
  8
0
 62
     7
 10
90.414407999999995
 20
78.912869999999998
 30
0.0
 40
7.9010629999999997
 50
168.87567899999999
 51
174.237076
  0
ARC
  5
169
  8
0
 62
     7
 10
90.963598000000005
 20
78.817065999999997
 30
0.0
 40
8.4584270000000004
 50
164.311654
 51
168.9566669999999
  0
ARC
  5
16A
  8
0
 62
     7
 10
92.16121600000001
 20
78.507542999999998
 30
0.0
 40
9.6951610000000006
 50
160.96265700000001
 51
164.46441200000001
  0
ARC
  5
16B
  8
0
 62
     7
 10
93.871209999999977
 20
77.912913000000003
 30
0.0
 40
11.505587999999999
 50
158.46784099999991
 51
160.94106999999991
  0
ARC
  5
16C
  8
0
 62
     7
 10
94.612724999999983
 20
77.620187000000001
 30
0.0
 40
12.302790999999999
 50
156.65135599999991
 51
158.46717100000001
  0
ARC
  5
16D
  8
0
 62
     7
 10
93.594168999999994
 20
78.079402000000002
 30
0.0
 40
11.185661
 50
155.49647400000001
 51
156.74320399999991
  0
ARC
  5
16E
  8
0
 62
     7
 10
89.885190000000009
 20
79.802818000000002
 30
0.0
 40
7.096006
 50
155.08939099999989
 51
155.7379159999999
  0
LINE
  5
16F
  8
0
 62
     7
 10
83.449399999999983
 20
82.795100000000005
 30
0.0
 11
83.449399999999983
 21
82.791700000000006
 31
0.0
  0
ARC
  5
170
  8
0
 62
     7
 10
84.941754000000003
 20
84.121127999999999
 30
0.0
 40
0.173437
 50
2.170609999999999
 51
87.829379999999986
  0
LINE
  5
171
  8
0
 62
     7
 10
85.115099999999984
 20
84.127700000000004
 30
0.0
 11
85.115099999999984
 21
83.128600000000006
 31
0.0
  0
ARC
  5
172
  8
0
 62
     7
 10
83.622335000000007
 20
82.788899999999998
 30
0.0
 40
0.173094
 50
92.179563999999985
 51
177.938909
  0
ARC
  5
173
  8
0
 62
     7
 10
84.941749000000002
 20
83.135187000000016
 30
0.0
 40
0.173443
 50
272.17236099999991
 51
357.82764900000001
  0
LINE
  5
174
  8
0
 62
     7
 10
96.6083
 20
82.791700000000006
 30
0.0
 11
93.276899999999998
 21
82.791700000000006
 31
0.0
  0
ARC
  5
175
  8
0
 62
     7
 10
93.283468999999997
 20
82.618362000000005
 30
0.0
 40
0.173443
 50
92.172341000000003
 51
177.82762899999989
  0
ARC
  5
176
  8
0
 62
     7
 10
92.937241
 20
82.618782999999993
 30
0.0
 40
0.173019
 50
2.0380979999999989
 51
87.843390000000014
  0
ARC
  5
177
  8
0
 62
     7
 10
96.601811999999995
 20
82.618782999999993
 30
0.0
 40
0.173019
 50
2.0380979999999989
 51
87.843390000000014
  0
LINE
  5
178
  8
0
 62
     7
 10
81.454999999999998
 20
99.761300000000006
 30
0.0
 11
68.786900000000003
 21
99.761300000000006
 31
0.0
  0
LINE
  5
179
  8
0
 62
     7
 10
70.956699999999998
 20
94.965000000000003
 30
0.0
 11
68.624700000000004
 21
94.965000000000003
 31
0.0
  0
LINE
  5
17A
  8
0
 62
     7
 10
68.624700000000004
 20
94.965000000000003
 30
0.0
 11
68.624700000000004
 21
99.114999999999995
 31
0.0
  0
ARC
  5
17B
  8
0
 62
     7
 10
67.613193999999993
 20
99.104954000000021
 30
0.0
 40
1.011523999999999
 50
0.5684670000000001
 51
79.958065000000005
  0
LINE
  5
17C
  8
0
 62
     7
 10
81.616900000000001
 20
94.965000000000003
 30
0.0
 11
79.285200000000003
 21
94.965000000000003
 31
0.0
  0
LINE
  5
17D
  8
0
 62
     7
 10
81.616900000000001
 20
94.965000000000003
 30
0.0
 11
81.616900000000001
 21
99.114999999999995
 31
0.0
  0
LINE
  5
17E
  8
0
 62
     7
 10
64.709299999999999
 20
100.6139999999999
 30
0.0
 11
64.626999999999995
 21
100.7109999999999
 31
0.0
  0
LINE
  5
17F
  8
0
 62
     7
 10
64.626999999999995
 20
100.7109999999999
 30
0.0
 11
64.626999999999995
 21
100.8779999999999
 31
0.0
  0
LINE
  5
180
  8
0
 62
     7
 10
64.710300000000004
 20
100.9619999999999
 30
0.0
 11
64.626999999999995
 21
100.8779999999999
 31
0.0
  0
ARC
  5
181
  8
0
 62
     7
 10
65.763948999999997
 20
101.20469199999999
 30
0.0
 40
0.262805
 50
92.126652000000007
 51
177.8733179999999
  0
ARC
  5
182
  8
0
 62
     7
 10
65.763943999999995
 20
101.224192
 30
0.0
 40
0.2628
 50
182.125609
 51
267.87442099999998
  0
LINE
  5
183
  8
0
  6
AIGENLINE001
 62
     7
 10
75.120800000000003
 20
70.511899999999997
 30
0.0
 11
75.120800000000003
 21
104.407
 31
0.0
  0
LINE
  5
184
  8
0
 62
     7
 10
64.620800000000003
 20
101.467
 30
0.0
 11
64.620800000000003
 21
102.634
 31
0.0
  0
LINE
  5
185
  8
0
 62
     7
 10
67.789599999999993
 20
100.1009999999999
 30
0.0
 11
64.709299999999999
 21
100.6139999999999
 31
0.0
  0
LINE
  5
186
  8
0
 62
     7
 10
68.624700000000004
 20
90.967299999999994
 30
0.0
 11
70.956699999999998
 21
90.967299999999994
 31
0.0
  0
LINE
  5
187
  8
0
 62
     7
 10
68.624700000000004
 20
84.294399999999996
 30
0.0
 11
68.624700000000004
 21
90.967299999999994
 31
0.0
  0
LINE
  5
188
  8
0
 62
     7
 10
79.285200000000003
 20
90.967299999999994
 30
0.0
 11
81.616900000000001
 21
90.967299999999994
 31
0.0
  0
LINE
  5
189
  8
0
 62
     7
 10
81.616900000000001
 20
84.294399999999996
 30
0.0
 11
81.616900000000001
 21
90.967299999999994
 31
0.0
  0
ARC
  5
18A
  8
0
 62
     7
 10
65.299823000000004
 20
84.121471
 30
0.0
 40
0.173094
 50
92.179563999999985
 51
177.938909
  0
LINE
  5
18B
  8
0
 62
     7
 10
65.126800000000003
 20
84.127700000000004
 30
0.0
 11
65.126800000000003
 21
83.128600000000006
 31
0.0
  0
ARC
  5
18C
  8
0
 62
     7
 10
65.300143999999975
 20
83.135156999999992
 30
0.0
 40
0.173426
 50
182.16274199999989
 51
267.71878599999991
  0
ARC
  5
18D
  8
0
 62
     7
 10
66.619243000000012
 20
82.788555999999986
 30
0.0
 40
0.173437
 50
2.170609999999999
 51
87.829379999999986
  0
LINE
  5
18E
  8
0
 62
     7
 10
70.956699999999998
 20
90.967299999999994
 30
0.0
 11
70.956699999999998
 21
94.965000000000003
 31
0.0
  0
LINE
  5
18F
  8
0
 62
     7
 10
79.285200000000003
 20
90.967299999999994
 30
0.0
 11
79.285200000000003
 21
94.965000000000003
 31
0.0
  0
LINE
  5
190
  8
0
 62
     7
 10
96.774699999999996
 20
206.328
 30
0.0
 11
151.51699999999991
 21
206.328
 31
0.0
  0
LINE
  5
191
  8
0
 62
     7
 10
96.774699999999996
 20
207.995
 30
0.0
 11
151.51699999999991
 21
207.995
 31
0.0
  0
LINE
  5
192
  8
0
 62
     7
 10
65.293199999999999
 20
84.294399999999996
 30
0.0
 11
84.948300000000003
 21
84.294399999999996
 31
0.0
  0
LINE
  5
193
  8
0
 62
     7
 10
84.948300000000003
 20
82.961900000000014
 30
0.0
 11
65.293199999999999
 21
82.961900000000014
 31
0.0
  0
LINE
  5
194
  8
0
 62
     7
 10
85.620799999999988
 20
101.467
 30
0.0
 11
64.620800000000003
 21
101.467
 31
0.0
  0
LINE
  5
195
  8
0
 62
     7
 10
85.532599999999988
 20
100.6139999999999
 30
0.0
 11
64.709299999999999
 21
100.6139999999999
 31
0.0
  0
LINE
  5
196
  8
0
 62
     7
 10
64.710300000000004
 20
100.9619999999999
 30
0.0
 11
85.531199999999984
 21
100.9619999999999
 31
0.0
  0
ARC
  5
197
  8
0
 62
     7
 10
82.62912
 20
99.104318999999975
 30
0.0
 40
1.0122809999999991
 50
100.07745
 51
179.39597900000001
  0
LINE
  5
198
  8
0
 62
     7
 10
85.620799999999988
 20
102.634
 30
0.0
 11
64.620800000000003
 21
102.634
 31
0.0
  0
LINE
  5
199
  8
0
 62
     7
 10
83.449399999999983
 20
75.1297
 30
0.0
 11
92.943799999999996
 21
75.1297
 31
0.0
  0
ARC
  5
19A
  8
0
 62
     7
 10
83.276034999999993
 20
74.966125000000005
 30
0.0
 40
0.173443
 50
272.17236099999991
 51
357.82764900000001
  0
LINE
  5
19B
  8
0
 62
     7
 10
83.449399999999983
 20
75.1297
 30
0.0
 11
83.449399999999983
 21
74.959599999999995
 31
0.0
  0
LINE
  5
19C
  8
0
 62
     7
 10
82.099900000000005
 20
74.7928
 30
0.0
 11
82.099900000000005
 21
72.793899999999994
 31
0.0
  0
LINE
  5
19D
  8
0
 62
     7
 10
96.6083
 20
75.1297
 30
0.0
 11
93.276899999999998
 21
75.1297
 31
0.0
  0
ARC
  5
19E
  8
0
 62
     7
 10
93.283072000000004
 20
75.302661000000001
 30
0.0
 40
0.173032
 50
182.04603499999999
 51
267.95399500000002
  0
ARC
  5
19F
  8
0
 62
     7
 10
92.937168999999983
 20
75.302707999999996
 30
0.0
 40
0.173094
 50
272.17960099999988
 51
357.93891099999991
  0
LINE
  5
1A0
  8
0
 62
     7
 10
81.850099999999998
 20
72.544499999999999
 30
0.0
 11
81.850099999999998
 21
74.7928
 31
0.0
  0
ARC
  5
1A1
  8
0
 62
     7
 10
96.601740000000007
 20
75.302707999999996
 30
0.0
 40
0.173094
 50
272.17960099999988
 51
357.93891099999991
  0
LINE
  5
1A2
  8
0
 62
     7
 10
81.600399999999993
 20
72.294399999999996
 30
0.0
 11
68.641199999999984
 21
72.294399999999996
 31
0.0
  0
ARC
  5
1A3
  8
0
 62
     7
 10
66.965873999999999
 20
74.966111999999995
 30
0.0
 40
0.173443
 50
182.16798
 51
267.713548
  0
LINE
  5
1A4
  8
0
 62
     7
 10
68.1417
 20
74.7928
 30
0.0
 11
68.1417
 21
72.793899999999994
 31
0.0
  0
LINE
  5
1A5
  8
0
 62
     7
 10
68.641199999999984
 20
72.294399999999996
 30
0.0
 11
68.1417
 21
72.793899999999994
 31
0.0
  0
LINE
  5
1A6
  8
0
 62
     7
 10
68.391400000000004
 20
72.544499999999999
 30
0.0
 11
68.391400000000004
 21
74.7928
 31
0.0
  0
LINE
  5
1A7
  8
0
 62
     7
 10
68.1417
 20
72.793899999999994
 30
0.0
 11
82.099900000000005
 21
72.793899999999994
 31
0.0
  0
LINE
  5
1A8
  8
0
 62
     7
 10
83.282600000000002
 20
74.7928
 30
0.0
 11
66.959000000000003
 21
74.7928
 31
0.0
  0
LINE
  5
1A9
  8
0
 62
     7
 10
81.600399999999993
 20
72.294399999999996
 30
0.0
 11
82.099900000000005
 21
72.793899999999994
 31
0.0
  0
LINE
  5
1AA
  8
0
 62
     7
 10
66.792599999999993
 20
82.795100000000005
 30
0.0
 11
66.792599999999993
 21
74.959599999999995
 31
0.0
  0
ARC
  5
1AB
  8
0
 62
     7
 10
87.661116000000007
 20
77.100982999999999
 30
0.0
 40
4.6502410000000003
 50
204.09153699999999
 51
205.08115599999999
  0
ARC
  5
1AC
  8
0
 62
     7
 10
96.390552000000014
 20
81.080044000000001
 30
0.0
 40
14.243698999999999
 50
203.39063200000001
 51
204.36968999999999
  0
ARC
  5
1AD
  8
0
 62
     7
 10
95.478741999999997
 20
80.658899000000005
 30
0.0
 40
13.239651
 50
201.59707900000001
 51
203.28439399999991
  0
ARC
  5
1AE
  8
0
 62
     7
 10
94.297120000000007
 20
80.166016999999997
 30
0.0
 40
11.95958899999999
 50
199.10588100000001
 51
201.485209
  0
ARC
  5
1AF
  8
0
 62
     7
 10
92.874221999999989
 20
79.635767999999999
 30
0.0
 40
10.441572000000001
 50
195.6607829999999
 51
198.912147
  0
ARC
  5
1B0
  8
0
 62
     7
 10
91.275322000000003
 20
79.176670999999999
 30
0.0
 40
8.7781059999999993
 50
191.112469
 51
195.59261199999989
  0
ARC
  5
1B1
  8
0
 62
     7
 10
90.396359999999987
 20
79.007305000000002
 30
0.0
 40
7.882981
 50
185.76710099999991
 51
191.1358459999999
  0
ARC
  5
1B2
  8
0
 62
     7
 10
90.067277000000004
 20
78.967371
 30
0.0
 40
7.5515539999999994
 50
180.05056499999989
 51
185.71654099999989
  0
LINE
  5
1B3
  8
0
 62
     7
 10
96.774699999999996
 20
82.624899999999997
 30
0.0
 11
96.774699999999996
 21
75.296499999999995
 31
0.0
  0
LINE
  5
1B4
  8
0
 62
     7
 10
93.110200000000006
 20
82.624899999999997
 30
0.0
 11
93.110200000000006
 21
75.296499999999995
 31
0.0
  0
LINE
  5
1B5
  8
0
 62
     7
 10
96.774699999999996
 20
79.794399999999996
 30
0.0
 11
156.76899999999989
 21
77.356000000000009
 31
0.0
  0
LINE
  5
1B6
  8
0
 62
     7
 10
96.774699999999996
 20
78.126999999999995
 30
0.0
 11
156.65100000000001
 21
75.694000000000003
 31
0.0
  0
ARC
  5
1B7
  8
0
 62
     7
 10
158.466781
 20
239.96309799999989
 30
0.0
 40
2.5001220000000002
 50
270.00791499999991
 51
0.007885
  0
ARC
  5
1B8
  8
0
 62
     7
 10
158.467298
 20
239.963269
 30
0.0
 40
2.5002930000000001
 50
179.99602300000001
 51
269.99607200000003
  0
ARC
  5
1B9
  8
0
 62
     7
 10
158.46695399999999
 20
239.963269
 30
0.0
 40
2.4999500000000001
 50
89.996052000000006
 51
179.99602200000001
  0
ARC
  5
1BA
  8
0
 62
     7
 10
158.46712500000001
 20
239.96344099999999
 30
0.0
 40
2.4997780000000001
 50
0.00001
 51
89.999980000000008
  0
LINE
  5
1BB
  8
0
 62
     7
 10
155.25599999999989
 20
129.136
 30
0.0
 11
157.46700000000001
 21
129.72799999999989
 31
0.0
  0
LINE
  5
1BC
  8
0
 62
     7
 10
157.46700000000001
 20
129.72799999999989
 30
0.0
 11
155.25599999999989
 21
130.32099999999991
 31
0.0
  0
LINE
  5
1BD
  8
0
 62
     7
 10
155.25599999999989
 20
130.32099999999991
 30
0.0
 11
155.25599999999989
 21
129.136
 31
0.0
  0
LINE
  5
1BE
  8
0
 62
     7
 10
161.678
 20
130.32099999999991
 30
0.0
 11
159.46700000000001
 21
129.72799999999989
 31
0.0
  0
LINE
  5
1BF
  8
0
 62
     7
 10
159.46700000000001
 20
129.72799999999989
 30
0.0
 11
161.678
 21
129.136
 31
0.0
  0
LINE
  5
1C0
  8
0
 62
     7
 10
161.678
 20
129.136
 30
0.0
 11
161.678
 21
130.32099999999991
 31
0.0
  0
LINE
  5
1C1
  8
0
 62
     7
 10
165.5749999999999
 20
129.72799999999989
 30
0.0
 11
152.10699999999991
 21
129.72799999999989
 31
0.0
  0
LINE
  5
1C2
  8
0
 62
     7
 10
154.255
 20
147.73400000000001
 30
0.0
 11
156.46700000000001
 21
148.32599999999999
 31
0.0
  0
LINE
  5
1C3
  8
0
 62
     7
 10
156.46700000000001
 20
148.32599999999999
 30
0.0
 11
154.255
 21
148.9189999999999
 31
0.0
  0
LINE
  5
1C4
  8
0
 62
     7
 10
154.255
 20
148.9189999999999
 30
0.0
 11
154.255
 21
147.73400000000001
 31
0.0
  0
LINE
  5
1C5
  8
0
 62
     7
 10
162.678
 20
148.9189999999999
 30
0.0
 11
160.46700000000001
 21
148.32599999999999
 31
0.0
  0
LINE
  5
1C6
  8
0
 62
     7
 10
160.46700000000001
 20
148.32599999999999
 30
0.0
 11
162.678
 21
147.73400000000001
 31
0.0
  0
LINE
  5
1C7
  8
0
 62
     7
 10
162.678
 20
147.73400000000001
 30
0.0
 11
162.678
 21
148.9189999999999
 31
0.0
  0
LINE
  5
1C8
  8
0
 62
     7
 10
162.91800000000001
 20
178.88900000000001
 30
0.0
 11
165.12999999999991
 21
179.48099999999999
 31
0.0
  0
LINE
  5
1C9
  8
0
 62
     7
 10
165.12999999999991
 20
179.48099999999999
 30
0.0
 11
162.91800000000001
 21
180.07400000000001
 31
0.0
  0
LINE
  5
1CA
  8
0
 62
     7
 10
162.91800000000001
 20
180.07400000000001
 30
0.0
 11
162.91800000000001
 21
178.88900000000001
 31
0.0
  0
LINE
  5
1CB
  8
0
 62
     7
 10
154.01599999999999
 20
180.07400000000001
 30
0.0
 11
151.804
 21
179.48099999999999
 31
0.0
  0
LINE
  5
1CC
  8
0
 62
     7
 10
151.804
 20
179.48099999999999
 30
0.0
 11
154.01599999999999
 21
178.88900000000001
 31
0.0
  0
LINE
  5
1CD
  8
0
 62
     7
 10
154.01599999999999
 20
178.88900000000001
 30
0.0
 11
154.01599999999999
 21
180.07400000000001
 31
0.0
  0
LINE
  5
1CE
  8
0
 62
     7
 10
153.756
 20
172.10900000000001
 30
0.0
 11
155.96700000000001
 21
172.70199999999991
 31
0.0
  0
LINE
  5
1CF
  8
0
 62
     7
 10
155.96700000000001
 20
172.70199999999991
 30
0.0
 11
153.756
 21
173.2949999999999
 31
0.0
  0
LINE
  5
1D0
  8
0
 62
     7
 10
153.756
 20
173.2949999999999
 30
0.0
 11
153.756
 21
172.10900000000001
 31
0.0
  0
LINE
  5
1D1
  8
0
 62
     7
 10
163.178
 20
173.2949999999999
 30
0.0
 11
160.96700000000001
 21
172.70199999999991
 31
0.0
  0
LINE
  5
1D2
  8
0
 62
     7
 10
160.96700000000001
 20
172.70199999999991
 30
0.0
 11
163.178
 21
172.10900000000001
 31
0.0
  0
LINE
  5
1D3
  8
0
 62
     7
 10
163.178
 20
172.10900000000001
 30
0.0
 11
163.178
 21
173.2949999999999
 31
0.0
  0
LINE
  5
1D4
  8
0
 62
     7
 10
164.4909999999999
 20
172.70199999999991
 30
0.0
 11
152.77500000000001
 21
172.70199999999991
 31
0.0
  0
LINE
  5
1D5
  8
0
 62
     7
 10
161.37999999999991
 20
243.714
 30
0.0
 11
160.23500000000001
 21
241.73099999999999
 31
0.0
  0
LINE
  5
1D6
  8
0
 62
     7
 10
160.23500000000001
 20
241.73099999999999
 30
0.0
 11
162.2179999999999
 21
242.876
 31
0.0
  0
LINE
  5
1D7
  8
0
 62
     7
 10
162.2179999999999
 20
242.876
 30
0.0
 11
161.37999999999991
 21
243.714
 31
0.0
  0
LINE
  5
1D8
  8
0
 62
     7
 10
155.554
 20
236.21199999999999
 30
0.0
 11
156.6989999999999
 21
238.19499999999991
 31
0.0
  0
LINE
  5
1D9
  8
0
 62
     7
 10
156.6989999999999
 20
238.19499999999991
 30
0.0
 11
154.71600000000001
 21
237.0509999999999
 31
0.0
  0
LINE
  5
1DA
  8
0
 62
     7
 10
154.71600000000001
 20
237.0509999999999
 30
0.0
 11
155.554
 21
236.21199999999999
 31
0.0
  0
LINE
  5
1DB
  8
0
 62
     7
 10
153.33600000000001
 20
234.83199999999999
 30
0.0
 11
163.47999999999999
 21
244.977
 31
0.0
  0
LINE
  5
1DC
  8
0
 62
     7
 10
155.96700000000001
 20
167.935
 30
0.0
 11
155.96700000000001
 21
173.40199999999999
 31
0.0
  0
LINE
  5
1DD
  8
0
 62
     7
 10
160.96700000000001
 20
167.935
 30
0.0
 11
160.96700000000001
 21
173.40199999999999
 31
0.0
  0
LINE
  5
1DE
  8
0
 62
     7
 10
171.10599999999991
 20
157.80199999999999
 30
0.0
 11
171.69799999999989
 21
155.59
 31
0.0
  0
LINE
  5
1DF
  8
0
 62
     7
 10
171.69799999999989
 20
155.59
 30
0.0
 11
172.29099999999991
 21
157.80199999999999
 31
0.0
  0
LINE
  5
1E0
  8
0
 62
     7
 10
172.29099999999991
 20
157.80199999999999
 30
0.0
 11
171.10599999999991
 21
157.80199999999999
 31
0.0
  0
LINE
  5
1E1
  8
0
 62
     7
 10
171.10599999999991
 20
65.513000000000005
 30
0.0
 11
171.69799999999989
 21
63.301299999999998
 31
0.0
  0
LINE
  5
1E2
  8
0
 62
     7
 10
171.69799999999989
 20
63.301299999999998
 30
0.0
 11
172.29099999999991
 21
65.513000000000005
 31
0.0
  0
LINE
  5
1E3
  8
0
 62
     7
 10
172.29099999999991
 20
65.513000000000005
 30
0.0
 11
171.10599999999991
 21
65.513000000000005
 31
0.0
  0
LINE
  5
1E4
  8
0
 62
     7
 10
177.42099999999999
 20
65.512299999999996
 30
0.0
 11
178.01299999999989
 21
63.300600000000003
 31
0.0
  0
LINE
  5
1E5
  8
0
 62
     7
 10
178.01299999999989
 20
63.300600000000003
 30
0.0
 11
178.60599999999991
 21
65.512299999999996
 31
0.0
  0
LINE
  5
1E6
  8
0
 62
     7
 10
178.60599999999991
 20
65.512299999999996
 30
0.0
 11
177.42099999999999
 21
65.512299999999996
 31
0.0
  0
LINE
  5
1E7
  8
0
 62
     7
 10
172.29099999999991
 20
165.03800000000001
 30
0.0
 11
171.69799999999989
 21
167.25
 31
0.0
  0
LINE
  5
1E8
  8
0
 62
     7
 10
171.69799999999989
 20
167.25
 30
0.0
 11
171.10599999999991
 21
165.03800000000001
 31
0.0
  0
LINE
  5
1E9
  8
0
 62
     7
 10
171.10599999999991
 20
165.03800000000001
 30
0.0
 11
172.29099999999991
 21
165.03800000000001
 31
0.0
  0
LINE
  5
1EA
  8
0
 62
     7
 10
172.29099999999991
 20
153.37899999999991
 30
0.0
 11
171.69799999999989
 21
155.59
 31
0.0
  0
LINE
  5
1EB
  8
0
 62
     7
 10
171.69799999999989
 20
155.59
 30
0.0
 11
171.10599999999991
 21
153.37899999999991
 31
0.0
  0
LINE
  5
1EC
  8
0
 62
     7
 10
171.10599999999991
 20
153.37899999999991
 30
0.0
 11
172.29099999999991
 21
153.37899999999991
 31
0.0
  0
LINE
  5
1ED
  8
0
 62
     7
 10
178.59099999999989
 20
165.03899999999999
 30
0.0
 11
177.999
 21
167.25099999999989
 31
0.0
  0
LINE
  5
1EE
  8
0
 62
     7
 10
177.999
 20
167.25099999999989
 30
0.0
 11
177.40599999999989
 21
165.03899999999999
 31
0.0
  0
LINE
  5
1EF
  8
0
 62
     7
 10
177.40599999999989
 20
165.03899999999999
 30
0.0
 11
178.59099999999989
 21
165.03899999999999
 31
0.0
  0
LINE
  5
1F0
  8
0
 62
     7
 10
171.69799999999989
 20
63.301299999999998
 30
0.0
 11
171.69799999999989
 21
167.25
 31
0.0
  0
LINE
  5
1F1
  8
0
 62
     7
 10
178.00599999999989
 20
63.301299999999998
 30
0.0
 11
178.00599999999989
 21
167.25
 31
0.0
  0
LINE
  5
1F2
  8
0
 62
     7
 10
161.74000000000001
 20
167.25
 30
0.0
 11
178.7059999999999
 21
167.25
 31
0.0
  0
LINE
  5
1F3
  8
0
 62
     7
 10
165.83000000000001
 20
155.59
 30
0.0
 11
172.398
 21
155.59
 31
0.0
  0
LINE
  5
1F4
  8
0
 62
     7
 10
160.167
 20
63.301299999999998
 30
0.0
 11
178.7059999999999
 21
63.301299999999998
 31
0.0
  0
LINE
  5
1F5
  8
0
 62
     7
 10
83.4101
 20
109.586
 30
0.0
 11
85.621499999999997
 21
110.179
 31
0.0
  0
LINE
  5
1F6
  8
0
 62
     7
 10
85.621499999999997
 20
110.179
 30
0.0
 11
83.4101
 21
110.7709999999999
 31
0.0
  0
LINE
  5
1F7
  8
0
 62
     7
 10
83.4101
 20
110.7709999999999
 30
0.0
 11
83.4101
 21
109.586
 31
0.0
  0
LINE
  5
1F8
  8
0
 62
     7
 10
66.831500000000005
 20
110.75700000000001
 30
0.0
 11
64.620099999999994
 21
110.16500000000001
 31
0.0
  0
LINE
  5
1F9
  8
0
 62
     7
 10
64.620099999999994
 20
110.16500000000001
 30
0.0
 11
66.831500000000005
 21
109.572
 31
0.0
  0
LINE
  5
1FA
  8
0
 62
     7
 10
66.831500000000005
 20
109.572
 30
0.0
 11
66.831500000000005
 21
110.75700000000001
 31
0.0
  0
LINE
  5
1FB
  8
0
 62
     7
 10
85.620799999999988
 20
110.172
 30
0.0
 11
64.620800000000003
 21
110.172
 31
0.0
  0
LINE
  5
1FC
  8
0
 62
     7
 10
64.620800000000003
 20
103.334
 30
0.0
 11
64.620800000000003
 21
110.872
 31
0.0
  0
LINE
  5
1FD
  8
0
 62
     7
 10
85.620799999999988
 20
103.334
 30
0.0
 11
85.620799999999988
 21
110.872
 31
0.0
  0
LINE
  5
1FE
  8
0
  6
AIGENLINE001
 62
     7
 10
158.46700000000001
 20
244.22
 30
0.0
 11
158.46700000000001
 21
236.0149999999999
 31
0.0
  0
LINE
  5
1FF
  8
0
 62
     7
 10
146.666
 20
153.38
 30
0.0
 11
146.0739999999999
 21
155.59100000000001
 31
0.0
  0
LINE
  5
200
  8
0
 62
     7
 10
146.0739999999999
 20
155.59100000000001
 30
0.0
 11
145.48099999999991
 21
153.38
 31
0.0
  0
LINE
  5
201
  8
0
 62
     7
 10
145.48099999999991
 20
153.38
 30
0.0
 11
146.666
 21
153.38
 31
0.0
  0
LINE
  5
202
  8
0
 62
     7
 10
145.4959999999999
 20
147.80199999999999
 30
0.0
 11
146.08799999999991
 21
145.58999999999989
 31
0.0
  0
LINE
  5
203
  8
0
 62
     7
 10
146.08799999999991
 20
145.58999999999989
 30
0.0
 11
146.68100000000001
 21
147.80199999999999
 31
0.0
  0
LINE
  5
204
  8
0
 62
     7
 10
146.68100000000001
 20
147.80199999999999
 30
0.0
 11
145.4959999999999
 21
147.80199999999999
 31
0.0
  0
LINE
  5
205
  8
0
 62
     7
 10
146.08099999999999
 20
155.59
 30
0.0
 11
146.08099999999999
 21
145.59100000000001
 31
0.0
  0
LINE
  5
206
  8
0
 62
     7
 10
138.04300000000001
 20
153.37899999999991
 30
0.0
 11
137.45099999999991
 21
155.59
 31
0.0
  0
LINE
  5
207
  8
0
 62
     7
 10
137.45099999999991
 20
155.59
 30
0.0
 11
136.858
 21
153.37899999999991
 31
0.0
  0
LINE
  5
208
  8
0
 62
     7
 10
136.858
 20
153.37899999999991
 30
0.0
 11
138.04300000000001
 21
153.37899999999991
 31
0.0
  0
LINE
  5
209
  8
0
 62
     7
 10
136.87200000000001
 20
141.13499999999991
 30
0.0
 11
137.465
 21
138.92299999999989
 31
0.0
  0
LINE
  5
20A
  8
0
 62
     7
 10
137.465
 20
138.92299999999989
 30
0.0
 11
138.05799999999991
 21
141.13499999999991
 31
0.0
  0
LINE
  5
20B
  8
0
 62
     7
 10
138.05799999999991
 20
141.13499999999991
 30
0.0
 11
136.87200000000001
 21
141.13499999999991
 31
0.0
  0
LINE
  5
20C
  8
0
 62
     7
 10
137.45799999999991
 20
155.59
 30
0.0
 11
137.45799999999991
 21
138.92400000000001
 31
0.0
  0
LINE
  5
20D
  8
0
 62
     7
 10
155.63
 20
138.92299999999989
 30
0.0
 11
136.7579999999999
 21
138.92299999999989
 31
0.0
  0
LINE
  5
20E
  8
0
  6
AIGENLINE001
 62
     7
 10
162.6999999999999
 20
239.96299999999999
 30
0.0
 11
154.09200000000001
 21
239.96299999999999
 31
0.0
  0
LINE
  5
20F
  8
0
 62
     7
 10
132.608
 20
74.457300000000004
 30
0.0
 11
132.1049999999999
 21
76.691800000000001
 31
0.0
  0
LINE
  5
210
  8
0
 62
     7
 10
132.1049999999999
 20
76.691800000000001
 30
0.0
 11
131.423
 21
74.505499999999984
 31
0.0
  0
LINE
  5
211
  8
0
 62
     7
 10
131.423
 20
74.505499999999984
 30
0.0
 11
132.608
 21
74.457300000000004
 31
0.0
  0
LINE
  5
212
  8
0
 62
     7
 10
131.67099999999999
 20
80.590299999999985
 30
0.0
 11
132.173
 21
78.355699999999999
 31
0.0
  0
LINE
  5
213
  8
0
 62
     7
 10
132.173
 20
78.355699999999999
 30
0.0
 11
132.8549999999999
 21
80.541999999999987
 31
0.0
  0
LINE
  5
214
  8
0
 62
     7
 10
132.8549999999999
 20
80.541999999999987
 30
0.0
 11
131.67099999999999
 21
80.590299999999985
 31
0.0
  0
LINE
  5
215
  8
0
 62
     7
 10
132.40299999999999
 20
84.016800000000003
 30
0.0
 11
131.96600000000001
 21
73.252200000000002
 31
0.0
  0
LINE
  5
216
  8
0
 62
     7
 10
167.83799999999991
 20
148.32599999999999
 30
0.0
 11
152.10699999999991
 21
148.32599999999999
 31
0.0
  0
LINE
  5
217
  8
0
 62
     7
 10
170.11199999999991
 20
244.977
 30
0.0
 11
163.47999999999999
 21
244.977
 31
0.0
  0
LINE
  5
218
  8
0
 62
     7
 10
150.964
 20
145.58999999999989
 30
0.0
 11
145.381
 21
145.58999999999989
 31
0.0
  0
LINE
  5
219
  8
0
 62
     7
 10
151.1039999999999
 20
155.59
 30
0.0
 11
136.7579999999999
 21
155.59
 31
0.0
  0
LINE
  5
21A
  8
0
 62
     7
 10
62.744900000000001
 20
82.084100000000007
 30
0.0
 11
62.152299999999997
 21
84.295799999999986
 31
0.0
  0
LINE
  5
21B
  8
0
 62
     7
 10
62.152299999999997
 20
84.295799999999986
 30
0.0
 11
61.559800000000003
 21
82.084100000000007
 31
0.0
  0
LINE
  5
21C
  8
0
 62
     7
 10
61.559800000000003
 20
82.084100000000007
 30
0.0
 11
62.744900000000001
 21
82.084100000000007
 31
0.0
  0
LINE
  5
21D
  8
0
 62
     7
 10
61.574599999999997
 20
74.505499999999984
 30
0.0
 11
62.167099999999991
 21
72.293700000000001
 31
0.0
  0
LINE
  5
21E
  8
0
 62
     7
 10
62.167099999999991
 20
72.293700000000001
 30
0.0
 11
62.759700000000002
 21
74.505499999999984
 31
0.0
  0
LINE
  5
21F
  8
0
 62
     7
 10
62.759700000000002
 20
74.505499999999984
 30
0.0
 11
61.574599999999997
 21
74.505499999999984
 31
0.0
  0
LINE
  5
220
  8
0
 62
     7
 10
62.15959999999999
 20
84.294399999999996
 30
0.0
 11
62.15959999999999
 21
72.294399999999996
 31
0.0
  0
LINE
  5
221
  8
0
 62
     7
 10
64.332700000000003
 20
84.294399999999996
 30
0.0
 11
61.459499999999998
 21
84.294399999999996
 31
0.0
  0
LINE
  5
222
  8
0
 62
     7
 10
95.510700000000014
 20
98.751199999999997
 30
0.0
 11
94.918099999999995
 21
100.9619999999999
 31
0.0
  0
LINE
  5
223
  8
0
 62
     7
 10
94.918099999999995
 20
100.9619999999999
 30
0.0
 11
94.325599999999994
 21
98.751199999999997
 31
0.0
  0
LINE
  5
224
  8
0
 62
     7
 10
94.325599999999994
 20
98.751199999999997
 30
0.0
 11
95.510700000000014
 21
98.751199999999997
 31
0.0
  0
LINE
  5
225
  8
0
 62
     7
 10
94.340100000000007
 20
86.505499999999998
 30
0.0
 11
94.932999999999993
 21
84.293800000000005
 31
0.0
  0
LINE
  5
226
  8
0
 62
     7
 10
94.932999999999993
 20
84.293800000000005
 30
0.0
 11
95.525499999999994
 21
86.505499999999998
 31
0.0
  0
LINE
  5
227
  8
0
 62
     7
 10
95.525499999999994
 20
86.505499999999998
 30
0.0
 11
94.340100000000007
 21
86.505499999999998
 31
0.0
  0
LINE
  5
228
  8
0
 62
     7
 10
94.924999999999983
 20
100.9619999999999
 30
0.0
 11
94.924999999999983
 21
84.294399999999996
 31
0.0
  0
LINE
  5
229
  8
0
 62
     7
 10
95.618200000000002
 20
84.294399999999996
 30
0.0
 11
85.897099999999995
 21
84.294399999999996
 31
0.0
  0
LINE
  5
22A
  8
0
 62
     7
 10
95.618200000000002
 20
100.9619999999999
 30
0.0
 11
86.314700000000002
 21
100.9619999999999
 31
0.0
  0
LINE
  5
22B
  8
0
 62
     7
 10
67.707599999999999
 20
72.294399999999996
 30
0.0
 11
61.467100000000002
 21
72.294399999999996
 31
0.0
  0
LINE
  5
22C
  8
0
 62
     7
 10
77.331900000000005
 20
56.750700000000002
 30
0.0
 11
75.120099999999994
 21
56.158200000000001
 31
0.0
  0
LINE
  5
22D
  8
0
 62
     7
 10
75.120099999999994
 20
56.158200000000001
 30
0.0
 11
77.331900000000005
 21
55.565600000000011
 31
0.0
  0
LINE
  5
22E
  8
0
 62
     7
 10
77.331900000000005
 20
55.565600000000011
 30
0.0
 11
77.331900000000005
 21
56.750700000000002
 31
0.0
  0
LINE
  5
22F
  8
0
 62
     7
 10
162.911
 20
55.580100000000002
 30
0.0
 11
165.12200000000001
 21
56.172600000000003
 31
0.0
  0
LINE
  5
230
  8
0
 62
     7
 10
165.12200000000001
 20
56.172600000000003
 30
0.0
 11
162.911
 21
56.7652
 31
0.0
  0
LINE
  5
231
  8
0
 62
     7
 10
162.911
 20
56.7652
 30
0.0
 11
162.911
 21
55.580100000000002
 31
0.0
  0
LINE
  5
232
  8
0
 62
     7
 10
75.120800000000003
 20
56.165700000000001
 30
0.0
 11
165.1209999999999
 21
56.165700000000001
 31
0.0
  0
LINE
  5
233
  8
0
 62
     7
 10
165.1209999999999
 20
74.821700000000007
 30
0.0
 11
165.1209999999999
 21
55.465699999999998
 31
0.0
  0
LINE
  5
234
  8
0
 62
     7
 10
75.120800000000003
 20
69.811899999999994
 30
0.0
 11
75.120800000000003
 21
55.465699999999998
 31
0.0
  0
LINE
  5
235
  8
_________2
 62
     7
 10
205.30099999999999
 20
127.411
 30
0.0
 11
183.55000000000001
 21
127.411
 31
0.0
  0
LINE
  5
236
  8
_________2
 62
     7
 10
100.2999999999999
 20
-4.0910799999999998
 30
0.0
 11
100.2999999999999
 21
-21.071400000000001
 31
0.0
  0
LINE
  5
237
  8
_________2
 62
     7
 10
100.2999999999999
 20
275.93099999999993
 30
0.0
 11
100.2999999999999
 21
258.911
 31
0.0
  0
LINE
  5
238
  8
_________2
 62
     7
 10
17.049499999999998
 20
127.411
 30
0.0
 11
-4.70052
 21
127.411
 31
0.0
  0
LINE
  5
239
  8
_________2
 62
     7
 10
76.741
 20
29.8047
 30
0.0
 11
74.554699999999997
 21
29.8047
 31
0.0
  0
LINE
  5
23A
  8
_________2
 62
     7
 10
77.233699999999999
 20
29.8047
 30
0.0
 11
76.981499999999997
 21
29.8047
 31
0.0
  0
LINE
  5
23B
  8
_________2
 62
     7
 10
77.726299999999995
 20
29.8047
 30
0.0
 11
80.651200000000003
 21
29.8047
 31
0.0
  0
LINE
  5
23C
  8
_________2
 62
     7
 10
77.233699999999999
 20
29.8047
 30
0.0
 11
77.485500000000002
 21
29.8047
 31
0.0
  0
LINE
  5
23D
  8
_________2
 62
     7
 10
70.837100000000007
 20
29.8047
 30
0.0
 11
68.650499999999994
 21
29.8047
 31
0.0
  0
LINE
  5
23E
  8
_________2
 62
     7
 10
71.329400000000007
 20
29.8047
 30
0.0
 11
71.077600000000004
 21
29.8047
 31
0.0
  0
LINE
  5
23F
  8
_________2
 62
     7
 10
71.329400000000007
 20
30.2974
 30
0.0
 11
71.329400000000007
 21
32.484400000000001
 31
0.0
  0
LINE
  5
240
  8
_________2
 62
     7
 10
71.329400000000007
 20
29.8047
 30
0.0
 11
71.329400000000007
 21
30.056899999999992
 31
0.0
  0
LINE
  5
241
  8
_________2
 62
     7
 10
71.822100000000006
 20
29.8047
 30
0.0
 11
74.009
 21
29.8047
 31
0.0
  0
LINE
  5
242
  8
_________2
 62
     7
 10
71.329400000000007
 20
29.8047
 30
0.0
 11
71.581599999999995
 21
29.8047
 31
0.0
  0
LINE
  5
243
  8
_________2
 62
     7
 10
71.329400000000007
 20
29.312799999999999
 30
0.0
 11
71.329400000000007
 21
27.125800000000002
 31
0.0
  0
LINE
  5
244
  8
_________2
 62
     7
 10
71.329400000000007
 20
29.8047
 30
0.0
 11
71.329400000000007
 21
29.5532
 31
0.0
  0
LINE
  5
245
  8
_________2
 62
     7
 10
75.040499999999994
 20
28.5852
 30
0.0
 11
80.218500000000006
 21
27.720400000000001
 31
0.0
  0
LINE
  5
246
  8
_________2
 62
     7
 10
75.040499999999994
 20
31.0243
 30
0.0
 11
80.218500000000006
 21
31.889700000000001
 31
0.0
  0
LINE
  5
247
  8
_________2
 62
     7
 10
80.218500000000006
 20
27.720400000000001
 30
0.0
 11
80.218500000000006
 21
31.889700000000001
 31
0.0
  0
LINE
  5
248
  8
_________2
 62
     7
 10
75.040499999999994
 20
28.5852
 30
0.0
 11
75.040499999999994
 21
31.0243
 31
0.0
  0
ARC
  5
249
  8
_________2
 62
     7
 10
71.28285600000001
 20
29.757811
 30
0.0
 40
1.2673589999999999
 50
2.122214
 51
87.893958999999995
  0
ARC
  5
24A
  8
_________2
 62
     7
 10
71.375959999999992
 20
29.758213000000001
 30
0.0
 40
1.2669559999999991
 50
92.104701000000006
 51
177.8952689999999
  0
ARC
  5
24B
  8
_________2
 62
     7
 10
71.376357999999996
 20
29.851671
 30
0.0
 40
1.2673680000000001
 50
182.12203600000001
 51
267.877993
  0
ARC
  5
24C
  8
_________2
 62
     7
 10
71.282531999999989
 20
29.851998999999989
 30
0.0
 40
1.267695999999999
 50
272.12015300000002
 51
357.863674
  0
ARC
  5
24D
  8
_________2
 62
     7
 10
71.329430000000002
 20
29.804742999999998
 30
0.0
 40
2.0849849999999992
 50
0.00001
 51
89.999980000000008
  0
ARC
  5
24E
  8
_________2
 62
     7
 10
71.329603000000006
 20
29.804915000000001
 30
0.0
 40
2.084813
 50
90.004733999999999
 51
180.00474399999999
  0
ARC
  5
24F
  8
_________2
 62
     7
 10
71.409106000000008
 20
29.884775999999999
 30
0.0
 40
2.1657950000000001
 50
182.11776599999999
 51
267.89173399999999
  0
ARC
  5
250
  8
_________2
 62
     7
 10
71.249459000000002
 20
29.885429999999989
 30
0.0
 40
2.1664590000000001
 50
272.11546800000002
 51
357.86560400000002
  0
TEXT
  5
251
  8
_________2
 62
     7
 10
104.605
 20
1.6794899999999999
 30
0.0
 40
3.0923400000000001
  1
図番
 41
0.5
  0
LINE
  5
252
  8
_________2
 62
     7
 10
103.55
 20
5.9087199999999989
 30
0.0
 11
183.55099999999999
 21
5.9087199999999989
 31
0.0
  0
TEXT
  5
253
  8
_________2
 62
     7
 10
104.605
 20
11.679299999999991
 30
0.0
 40
3.0923400000000001
  1
品番
 41
0.5
  0
TEXT
  5
254
  8
_________2
 62
     7
 10
104.605
 20
31.818100000000001
 30
0.0
 40
3.0923400000000001
  1
名称
 41
0.5
  0
TEXT
  5
255
  8
_________2
 62
     7
 10
91.845058333333341
 20
26.821999999999989
 30
0.0
 40
3.6545800000000002
  1
mm
 41
0.5
 72
     1
 11
93.367800000000003
 21
26.821999999999989
 31
0.0
  0
TEXT
  5
256
  8
_________2
 62
     7
 10
85.643199999999993
 20
31.818100000000001
 30
0.0
 40
3.0923400000000001
  1
単位
 41
0.5
  0
TEXT
  5
257
  8
_________2
 62
     7
 10
85.643199999999993
 20
19.410799999999991
 30
0.0
 40
3.0923400000000001
  1
尺度
 41
0.5
  0
TEXT
  5
258
  8
_________2
 62
     7
 10
90.548758666666686
 20
13.2179
 30
0.0
 40
3.6545800000000002
  1
1 ： 3
 41
0.5
 72
     1
 11
93.959699999999998
 21
13.2179
 31
0.0
  0
TEXT
  5
259
  8
_________2
 62
     7
 10
135.97083290476181
 20
40.346499999999999
 30
0.0
 40
4.2168199999999993
  1
注：色番号はカタログを参照ください。
 41
0.5
 72
     2
 11
179.63499999999991
 21
40.346499999999999
 31
0.0
  0
TEXT
  5
25A
  8
_________2
 62
     7
 10
138.63037499999999
 20
9.1078600000000005
 30
0.0
 40
3.9357000000000002
  1
VL.A14
 41
0.5
 72
     1
 11
143.55000000000001
 21
9.1078600000000005
 31
0.0
  0
TEXT
  5
25B
  8
_________2
 62
     7
 10
138.95835
 20
-0.8926299999999999
 30
0.0
 40
3.9357000000000002
  1
VLA14
 41
0.5
 72
     1
 11
143.55000000000001
 21
-0.8926299999999999
 31
0.0
  0
TEXT
  5
25C
  8
_________2
 62
     7
 10
109.179
 20
24.2257
 30
0.0
 40
3.9357000000000002
  1
排水栓セット
 41
0.5
  0
TEXT
  5
25D
  8
_________2
 62
     7
 10
39.425300333333333
 20
13.603
 30
0.0
 40
3.6545800000000002
  1
早川
 41
0.5
 72
     1
 11
41.313499999999998
 21
13.603
 31
0.0
  0
TEXT
  5
25E
  8
_________2
 62
     7
 10
20.851000333333332
 20
13.603
 30
0.0
 40
3.6545800000000002
  1
西田
 41
0.5
 72
     1
 11
22.73919999999999
 21
13.603
 31
0.0
  0
TEXT
  5
25F
  8
_________2
 62
     7
 10
67.785399999999996
 20
13.2179
 30
0.0
 40
3.6545800000000002
  1
14.02.12
 41
0.5
  0
TEXT
  5
260
  8
_________2
 62
     7
 10
66.593100000000007
 20
19.410799999999991
 30
0.0
 40
3.0923400000000001
  1
日付
 41
0.5
  0
TEXT
  5
261
  8
_________2
 62
     7
 10
29.639399999999998
 20
19.410799999999991
 30
0.0
 40
3.0923400000000001
  1
検図
 41
0.5
  0
TEXT
  5
262
  8
_________2
 62
     7
 10
18.021100000000001
 20
5.21143
 30
0.0
 40
3.0923400000000001
  1
備考
 41
0.5
  0
TEXT
  5
263
  8
_________2
 62
     7
 10
18.021100000000001
 20
19.410799999999991
 30
0.0
 40
3.0923400000000001
  1
製図
 41
0.5
  0
TEXT
  5
264
  8
_________2
 62
     7
 10
23.788465333333338
 20
27.936800000000002
 30
0.0
 40
4.4979399999999989
  1
セラトレーディング株式会社
 41
0.5
 72
     1
 11
41.180500000000002
 21
27.936800000000002
 31
0.0
  0
LINE
  5
265
  8
_________2
 62
     7
 10
183.55099999999999
 20
-4.0910799999999998
 30
0.0
 11
17.049499999999998
 21
-4.0910799999999998
 31
0.0
  0
LINE
  5
266
  8
_________2
 62
     7
 10
17.049499999999998
 20
-4.0910799999999998
 30
0.0
 11
17.049499999999998
 21
258.911
 31
0.0
  0
LINE
  5
267
  8
_________2
 62
     7
 10
17.049499999999998
 20
258.911
 30
0.0
 11
183.55099999999999
 21
258.911
 31
0.0
  0
LINE
  5
268
  8
_________2
 62
     7
 10
183.55099999999999
 20
258.911
 30
0.0
 11
183.55099999999999
 21
-4.0910799999999998
 31
0.0
  0
LINE
  5
269
  8
_________2
 62
     7
 10
65.549599999999998
 20
9.4089600000000004
 30
0.0
 11
65.549599999999998
 21
35.908799999999999
 31
0.0
  0
LINE
  5
26A
  8
_________2
 62
     7
 10
84.549700000000016
 20
9.4089600000000004
 30
0.0
 11
84.549700000000016
 21
35.908799999999999
 31
0.0
  0
LINE
  5
26B
  8
_________2
 62
     7
 10
103.55
 20
-4.0910799999999998
 30
0.0
 11
103.55
 21
35.908799999999999
 31
0.0
  0
LINE
  5
26C
  8
_________2
 62
     7
 10
28.549299999999992
 20
9.4089600000000004
 30
0.0
 11
28.549299999999992
 21
23.409199999999998
 31
0.0
  0
LINE
  5
26D
  8
_________2
 62
     7
 10
17.049499999999998
 20
9.4089600000000004
 30
0.0
 11
103.55
 21
9.4089600000000004
 31
0.0
  0
LINE
  5
26E
  8
_________2
 62
     7
 10
17.049499999999998
 20
23.409199999999998
 30
0.0
 11
103.55
 21
23.409199999999998
 31
0.0
  0
LINE
  5
26F
  8
_________2
 62
     7
 10
103.55
 20
15.9085
 30
0.0
 11
183.55099999999999
 21
15.9085
 31
0.0
  0
LINE
  5
270
  8
_________2
 62
     7
 10
17.049499999999998
 20
35.908799999999999
 30
0.0
 11
183.55099999999999
 21
35.908799999999999
 31
0.0
  0
ENDSEC
  0
EOF
