  0
SECTION
  2
HEADER
  9
$ACADVER
  1
AC1009
  9
$INSBASE
 10
0.0
 20
0.0
 30
0.0
  9
$EXTMIN
 10
-4.70052
 20
-21.071400000000001
 30
0.0
  9
$EXTMAX
 10
205.30099999999999
 20
275.93099999999998
 30
0.0
  9
$LIMMIN
 10
0.0
 20
0.0
  9
$LIMMAX
 10
12.0
 20
9.0
  9
$ORTHOMODE
 70
     0
  9
$REGENMODE
 70
     1
  9
$FILLMODE
 70
     1
  9
$QTEXTMODE
 70
     0
  9
$MIRRTEXT
 70
     1
  9
$DRAGMODE
 70
     2
  9
$LTSCALE
 40
1.0
  9
$OSMODE
 70
    37
  9
$ATTMODE
 70
     1
  9
$TEXTSIZE
 40
0.0
  9
$TRACEWID
 40
0.05
  9
$TEXTSTYLE
  7
STANDARD
  9
$CLAYER
  8
0
  9
$CELTYPE
  6
CONTINUOUS
  9
$CECOLOR
 62
   256
  9
$DIMSCALE
 40
1.0
  9
$DIMASZ
 40
0.18
  9
$DIMEXO
 40
0.0625
  9
$DIMDLI
 40
0.38
  9
$DIMRND
 40
0.0
  9
$DIMDLE
 40
0.0
  9
$DIMEXE
 40
0.18
  9
$DIMTP
 40
0.0
  9
$DIMTM
 40
0.0
  9
$DIMTXT
 40
0.18
  9
$DIMCEN
 40
0.09
  9
$DIMTSZ
 40
0.0
  9
$DIMTOL
 70
     0
  9
$DIMLIM
 70
     0
  9
$DIMTIH
 70
     1
  9
$DIMTOH
 70
     1
  9
$DIMSE1
 70
     0
  9
$DIMSE2
 70
     0
  9
$DIMTAD
 70
     0
  9
$DIMZIN
 70
     0
  9
$DIMBLK
  1

  9
$DIMASO
 70
     1
  9
$DIMSHO
 70
     1
  9
$DIMPOST
  1

  9
$DIMAPOST
  1

  9
$DIMALT
 70
     0
  9
$DIMALTD
 70
     2
  9
$DIMALTF
 40
25.399999999999999
  9
$DIMLFAC
 40
1.0
  9
$DIMTOFL
 70
     0
  9
$DIMTVP
 40
0.0
  9
$DIMTIX
 70
     0
  9
$DIMSOXD
 70
     0
  9
$DIMSAH
 70
     0
  9
$DIMBLK1
  1

  9
$DIMBLK2
  1

  9
$DIMSTYLE
  2
STANDARD
  9
$DIMCLRD
 70
     0
  9
$DIMCLRE
 70
     0
  9
$DIMCLRT
 70
     0
  9
$DIMTFAC
 40
1.0
  9
$DIMGAP
 40
0.09
  9
$LUNITS
 70
     2
  9
$LUPREC
 70
     4
  9
$SKETCHINC
 40
0.1
  9
$FILLETRAD
 40
0.0
  9
$AUNITS
 70
     0
  9
$AUPREC
 70
     0
  9
$MENU
  1
.
  9
$ELEVATION
 40
0.0
  9
$PELEVATION
 40
0.0
  9
$THICKNESS
 40
0.0
  9
$LIMCHECK
 70
     0
  9
$BLIPMODE
 70
     0
  9
$CHAMFERA
 40
0.0
  9
$CHAMFERB
 40
0.0
  9
$SKPOLY
 70
     0
  9
$TDCREATE
 40
2444972.375
  9
$TDUPDATE
 40
2457479.2721928479
  9
$TDINDWG
 40
0.000028912
  9
$TDUSRTIMER
 40
0.000028912
  9
$USRTIMER
 70
     1
  9
$ANGBASE
 50
0.0
  9
$ANGDIR
 70
     0
  9
$PDMODE
 70
     0
  9
$PDSIZE
 40
0.0
  9
$PLINEWID
 40
0.0
  9
$COORDS
 70
     1
  9
$SPLFRAME
 70
     0
  9
$SPLINETYPE
 70
     6
  9
$SPLINESEGS
 70
     8
  9
$ATTDIA
 70
     1
  9
$ATTREQ
 70
     1
  9
$HANDLING
 70
     1
  9
$HANDSEED
  5
39A
  9
$SURFTAB1
 70
     6
  9
$SURFTAB2
 70
     6
  9
$SURFTYPE
 70
     6
  9
$SURFU
 70
     6
  9
$SURFV
 70
     6
  9
$UCSNAME
  2

  9
$UCSORG
 10
0.0
 20
0.0
 30
0.0
  9
$UCSXDIR
 10
1.0
 20
0.0
 30
0.0
  9
$UCSYDIR
 10
0.0
 20
1.0
 30
0.0
  9
$PUCSNAME
  2

  9
$PUCSORG
 10
0.0
 20
0.0
 30
0.0
  9
$PUCSXDIR
 10
1.0
 20
0.0
 30
0.0
  9
$PUCSYDIR
 10
0.0
 20
1.0
 30
0.0
  9
$USERI1
 70
     0
  9
$USERI2
 70
     0
  9
$USERI3
 70
     0
  9
$USERI4
 70
     0
  9
$USERI5
 70
     0
  9
$USERR1
 40
0.0
  9
$USERR2
 40
0.0
  9
$USERR3
 40
0.0
  9
$USERR4
 40
0.0
  9
$USERR5
 40
0.0
  9
$WORLDVIEW
 70
     1
  9
$SHADEDGE
 70
     3
  9
$SHADEDIF
 70
    70
  9
$TILEMODE
 70
     1
  9
$MAXACTVP
 70
    48
  9
$PLIMCHECK
 70
     0
  9
$PEXTMIN
 10
1.0000000000000000E+020
 20
1.0000000000000000E+020
 30
1.0000000000000000E+020
  9
$PEXTMAX
 10
-1.0000000000000000E+020
 20
-1.0000000000000000E+020
 30
-1.0000000000000000E+020
  9
$PLIMMIN
 10
0.0
 20
0.0
  9
$PLIMMAX
 10
12.0
 20
9.0
  9
$UNITMODE
 70
     0
  9
$VISRETAIN
 70
     1
  9
$PLINEGEN
 70
     0
  9
$PSLTSCALE
 70
     1
  0
ENDSEC
  0
SECTION
  2
TABLES
  0
TABLE
  2
VPORT
 70
     1
  0
VPORT
  2
*ACTIVE
 70
     0
 10
0.0
 20
0.0
 11
1.0
 21
1.0
 12
173.0589517274982
 22
127.4298
 13
0.0
 23
0.0
 14
1.0
 24
1.0
 15
0.0
 25
0.0
 16
0.0
 26
0.0
 36
1.0
 17
0.0
 27
0.0
 37
0.0
 40
289.64168420534031
 41
2.1063583815028899
 42
50.0
 43
0.0
 44
0.0
 50
0.0
 51
0.0
 71
     0
 72
   100
 73
     1
 74
     1
 75
     0
 76
     0
 77
     0
 78
     0
  0
ENDTAB
  0
TABLE
  2
LTYPE
 70
     4
  0
LTYPE
  2
CONTINUOUS
 70
     0
  3
Solid line
 72
    65
 73
     0
 40
0.0
  0
LTYPE
  2
AIGENLINE001
 70
     0
  3
generate AI->DXF Converter
 72
    65
 73
     4
 40
5.8561449999999988
 49
3.5278
 49
-0.776115
 49
0.776115
 49
-0.776115
  0
LTYPE
  2
AIGENLINE002
 70
     0
  3
generate AI->DXF Converter
 72
    65
 73
     4
 40
5.8558209999999988
 49
3.5278
 49
-0.776007
 49
0.776007
 49
-0.776007
  0
LTYPE
  2
AIGENLINE003
 70
     0
  3
generate AI->DXF Converter
 72
    65
 73
     6
 40
7.4083750000000004
 49
3.5278
 49
-0.776115
 49
0.776115
 49
-0.776115
 49
0.776115
 49
-0.776115
  0
ENDTAB
  0
TABLE
  2
LAYER
 70
     3
  0
LAYER
  2
0
 70
     0
 62
     7
  6
CONTINUOUS
  0
LAYER
  2
_________4
 70
     0
 62
     7
  6
CONTINUOUS
  0
LAYER
  2
_________2
 70
     0
 62
     7
  6
CONTINUOUS
  0
ENDTAB
  0
TABLE
  2
STYLE
 70
     1
  0
STYLE
  2
STANDARD
 70
     0
 40
0.0
 41
0.0
 50
0.0
 71
     0
 42
0.0
  3
TXT
  4
EXTFONT.SHX
  0
ENDTAB
  0
TABLE
  2
VIEW
 70
     0
  0
ENDTAB
  0
TABLE
  2
UCS
 70
     0
  0
ENDTAB
  0
TABLE
  2
APPID
 70
     3
  0
APPID
  2
ACAD
 70
     0
  0
APPID
  2
ACAD_NAV_VCDISPLAY
 70
     0
  0
APPID
  2
ACAD_MLEADERVER
 70
     0
  0
ENDTAB
  0
TABLE
  2
DIMSTYLE
 70
     1
  0
DIMSTYLE
  2
STANDARD
 70
     0
  3

  4

  5

  6

  7

 40
1.0
 41
0.18
 42
0.0625
 43
0.38
 44
0.18
 45
0.0
 46
0.0
 47
0.0
 48
0.0
140
0.18
141
0.09
142
0.0
143
25.399999999999999
144
1.0
145
0.0
146
1.0
147
0.09
 71
     0
 72
     0
 73
     1
 74
     1
 75
     0
 76
     0
 77
     0
 78
     0
170
     0
171
     2
172
     0
173
     0
174
     0
175
     0
176
     0
177
     0
178
     0
  0
ENDTAB
  0
ENDSEC
  0
SECTION
  2
BLOCKS
  0
BLOCK
  8
0
  2
$MODEL_SPACE
 70
     0
 10
0.0
 20
0.0
 30
0.0
  3
$MODEL_SPACE
  1

  0
ENDBLK
  5
1A
  8
0
  0
BLOCK
 67
     1
  8
0
  2
$PAPER_SPACE
 70
     0
 10
0.0
 20
0.0
 30
0.0
  3
$PAPER_SPACE
  1

  0
ENDBLK
  5
17
 67
     1
  8
0
  0
ENDSEC
  0
SECTION
  2
ENTITIES
  0
TEXT
  5
25
  8
0
 62
     7
 10
128.45328749999999
 20
142.54499999999999
 30
0.0
 40
3.0923400000000001
  1
%%c30
 41
0.5
 72
     1
 11
130.386
 21
142.54499999999999
 31
0.0
  0
TEXT
  5
26
  8
0
 62
     7
 10
58.42349999999999
 20
61.814
 30
0.0
 40
3.0923400000000001
  1
%%c10
 41
0.5
  0
TEXT
  5
27
  8
0
 62
     7
 10
81.444999999999979
 20
105.1822875
 30
0.0
 40
3.0923400000000001
  1
480
 50
90.0
 41
0.5
 72
     1
 11
81.444999999999979
 21
107.11499999999999
 31
0.0
  0
TEXT
  5
28
  8
0
 62
     7
 10
52.684800000000003
 20
160.7709825
 30
0.0
 40
3.0923400000000001
  1
120
 50
90.0
 41
0.5
 72
     1
 11
52.684800000000003
 21
162.446
 31
0.0
  0
TEXT
  5
29
  8
0
 62
     7
 10
52.684800000000003
 20
139.7273725
 30
0.0
 40
3.0923400000000001
  1
60
 50
90.0
 41
0.5
 72
     1
 11
52.684800000000003
 21
140.887
 31
0.0
  0
TEXT
  5
2A
  8
0
 62
     7
 10
58.530299999999997
 20
140.41742249999999
 30
0.0
 40
3.0923400000000001
  1
max.50
 50
90.0
 41
0.5
 72
     1
 11
58.530299999999997
 21
144.154
 31
0.0
  0
TEXT
  5
2B
  8
0
 62
     7
 10
79.764799999999994
 20
221.30799999999999
 30
0.0
 40
3.0923400000000001
  1
水
 41
0.5
  0
TEXT
  5
2C
  8
0
 62
     7
 10
57.570908000000003
 20
221.30799999999999
 30
0.0
 40
3.0923400000000001
  1
湯
 41
0.5
 72
     2
 11
59.013999999999989
 21
221.30799999999999
 31
0.0
  0
TEXT
  5
2D
  8
0
 62
     7
 10
139.10913600000001
 20
225.14500000000001
 30
0.0
 40
3.0923400000000001
  1
%%c32～35
 41
0.5
 72
     2
 11
148.18000000000001
 21
225.14500000000001
 31
0.0
  0
TEXT
  5
2E
  8
0
 62
     7
 10
116.778986
 20
176.35400000000001
 30
0.0
 40
3.0923400000000001
  1
閉
 41
0.5
 72
     2
 11
118.119
 21
176.35400000000001
 31
0.0
  0
TEXT
  5
2F
  8
0
 62
     7
 10
117.522986
 20
181.12
 30
0.0
 40
3.0923400000000001
  1
開
 41
0.5
 72
     2
 11
118.863
 21
181.12
 31
0.0
  0
TEXT
  5
30
  8
0
 62
     7
 10
125.95364600000001
 20
217.65000000000001
 30
0.0
 40
3.0923400000000001
  1
水栓取付穴
 41
0.5
 72
     1
 11
130.386
 21
217.65000000000001
 31
0.0
  0
TEXT
  5
31
  8
0
 62
     7
 10
150.512
 20
163.173135
 30
0.0
 40
3.0923400000000001
  1
134
 50
90.0
 41
0.5
 72
     1
 11
150.512
 21
164.977
 31
0.0
  0
TEXT
  5
32
  8
0
 62
     7
 10
143.49299999999999
 20
161.92298249999999
 30
0.0
 40
3.0923400000000001
  1
120
 50
90.0
 41
0.5
 72
     1
 11
143.49299999999999
 21
163.59800000000001
 31
0.0
  0
TEXT
  5
33
  8
0
 62
     7
 10
115.621
 20
150.96937249999999
 30
0.0
 40
3.0923400000000001
  1
30
 50
90.0
 41
0.5
 72
     1
 11
115.621
 21
152.12899999999999
 31
0.0
  0
TEXT
  5
34
  8
0
 62
     7
 10
92.264700000000005
 20
151.54452499999999
 30
0.0
 40
3.0923400000000001
  1
35
 50
90.0
 41
0.5
 72
     1
 11
92.264700000000005
 21
152.833
 31
0.0
  0
TEXT
  5
35
  8
0
 62
     7
 10
114.9959825
 20
189.071
 30
0.0
 40
3.0923400000000001
  1
107
 41
0.5
 72
     1
 11
116.67100000000001
 21
189.071
 31
0.0
  0
TEXT
  5
36
  8
0
 62
     7
 10
128.45328749999999
 20
155.51599999999999
 30
0.0
 40
3.0923400000000001
  1
%%c40
 41
0.5
 72
     1
 11
130.386
 21
155.51599999999999
 31
0.0
  0
LINE
  5
37
  8
_________4
 62
     7
 10
72.281700000000001
 20
104.07599999999999
 30
0.0
 11
72.281700000000001
 21
133.386
 31
0.0
  0
LINE
  5
38
  8
_________4
 62
     7
 10
69.281700000000001
 20
104.07599999999999
 30
0.0
 11
69.281700000000001
 21
133.386
 31
0.0
  0
LINE
  5
39
  8
_________4
  6
AIGENLINE001
 62
     7
 10
70.781700000000001
 20
64.380600000000001
 30
0.0
 11
70.781700000000001
 21
137.625
 31
0.0
  0
ARC
  5
3A
  8
_________4
 62
     7
 10
71.532724999999985
 20
102.93055200000001
 30
0.0
 40
1.0649809999999991
 50
240.335093
 51
269.92409900000001
  0
ARC
  5
3B
  8
_________4
 62
     7
 10
71.357555000000005
 20
102.589595
 30
0.0
 40
0.682216
 50
212.41804400000001
 51
238.946057
  0
ARC
  5
3C
  8
_________4
 62
     7
 10
71.529900999999995
 20
102.931088
 30
0.0
 40
1.065517
 50
270.075988
 51
299.65729399999998
  0
ARC
  5
3D
  8
_________4
 62
     7
 10
71.706081999999995
 20
102.588337
 30
0.0
 40
0.6806900000000001
 50
301.04592700000001
 51
327.6258160000001
  0
ARC
  5
3E
  8
_________4
 62
     7
 10
71.529902000000007
 20
101.518046
 30
0.0
 40
1.0647999999999991
 50
60.320795999999987
 51
89.924006000000006
  0
ARC
  5
3F
  8
_________4
 62
     7
 10
71.706721000000002
 20
101.86159000000001
 30
0.0
 40
0.678974
 50
32.246316999999998
 51
58.929879000000007
  0
ARC
  5
40
  8
_________4
 62
     7
 10
71.532724000000002
 20
101.51858199999999
 30
0.0
 40
1.064263999999999
 50
90.075906999999987
 51
119.686823
  0
ARC
  5
41
  8
_________4
 62
     7
 10
71.356910999999997
 20
101.860342
 30
0.0
 40
0.6804899999999999
 50
121.0781309999999
 51
147.70982799999999
  0
ARC
  5
42
  8
_________4
 62
     7
 10
70.029899999999998
 20
101.517222
 30
0.0
 40
1.065625
 50
60.332545000000003
 51
89.924186999999989
  0
ARC
  5
43
  8
_________4
 62
     7
 10
70.205264
 20
101.85865099999999
 30
0.0
 40
0.6823560000000001
 50
32.359071999999998
 51
58.936844999999998
  0
ARC
  5
44
  8
_________4
 62
     7
 10
70.032719999999983
 20
101.51858199999999
 30
0.0
 40
1.064263999999999
 50
90.075906999999987
 51
119.686823
  0
ARC
  5
45
  8
_________4
 62
     7
 10
69.856906999999993
 20
101.860342
 30
0.0
 40
0.6804899999999999
 50
121.0781309999999
 51
147.70982799999999
  0
ARC
  5
46
  8
_________4
 62
     7
 10
70.030589000000006
 20
103.370677
 30
0.0
 40
1.064263999999999
 50
60.313157999999987
 51
89.924072999999993
  0
ARC
  5
47
  8
_________4
 62
     7
 10
70.206401999999997
 20
103.71243699999999
 30
0.0
 40
0.6804899999999999
 50
32.290152999999997
 51
58.921849000000009
  0
ARC
  5
48
  8
_________4
 62
     7
 10
70.033413999999993
 20
103.36942000000001
 30
0.0
 40
1.0655209999999991
 50
90.076064999999986
 51
119.668908
  0
ARC
  5
49
  8
_________4
 62
     7
 10
69.856329000000002
 20
103.713353
 30
0.0
 40
0.6792200000000001
 50
121.050224
 51
147.73360500000001
  0
ARC
  5
4A
  8
_________4
 62
     7
 10
70.033413999999993
 20
104.782498
 30
0.0
 40
1.0655209999999991
 50
240.33109200000001
 51
269.92393499999997
  0
ARC
  5
4B
  8
_________4
 62
     7
 10
69.856329000000002
 20
104.438565
 30
0.0
 40
0.6792200000000001
 50
212.26639499999999
 51
238.94977600000001
  0
ARC
  5
4C
  8
_________4
 62
     7
 10
70.030589000000006
 20
104.78124099999999
 30
0.0
 40
1.064263999999999
 50
270.07592699999998
 51
299.68684200000001
  0
ARC
  5
4D
  8
_________4
 62
     7
 10
70.206401999999997
 20
104.439481
 30
0.0
 40
0.6804899999999999
 50
301.07815099999999
 51
327.70984700000008
  0
ARC
  5
4E
  8
_________4
 62
     7
 10
71.533068
 20
104.782416
 30
0.0
 40
1.065439
 50
240.32992400000001
 51
269.92423000000002
  0
ARC
  5
4F
  8
_________4
 62
     7
 10
71.356817000000007
 20
104.439437
 30
0.0
 40
0.6803860000000001
 50
212.29124200000001
 51
238.929059
  0
ARC
  5
50
  8
_________4
 62
     7
 10
71.530245999999991
 20
104.78196199999999
 30
0.0
 40
1.0649850000000001
 50
270.07601799999998
 51
299.67656099999999
  0
ARC
  5
51
  8
_________4
 62
     7
 10
71.706326000000004
 20
104.439814
 30
0.0
 40
0.6807350000000002
 50
301.058269
 51
327.68982
  0
LINE
  5
52
  8
_________4
 62
     7
 10
72.031499999999994
 20
68.478899999999996
 30
0.0
 11
69.531800000000004
 21
68.478899999999996
 31
0.0
  0
LINE
  5
53
  8
_________4
 62
     7
 10
72.031499999999994
 20
65.979200000000006
 30
0.0
 11
69.531800000000004
 21
65.979200000000006
 31
0.0
  0
LINE
  5
54
  8
_________4
 62
     7
 10
69.488399999999999
 20
77.569900000000004
 30
0.0
 11
70.781700000000001
 21
77.569900000000004
 31
0.0
  0
LINE
  5
55
  8
_________4
 62
     7
 10
70.290400000000005
 20
75.606899999999996
 30
0.0
 11
70.290400000000005
 21
73.380700000000004
 31
0.0
  0
LINE
  5
56
  8
_________4
 62
     7
 10
69.899699999999996
 20
75.606899999999996
 30
0.0
 11
69.899699999999996
 21
73.380700000000004
 31
0.0
  0
LINE
  5
57
  8
_________4
 62
     7
 10
69.899699999999996
 20
75.606899999999996
 30
0.0
 11
69.209599999999995
 21
75.606899999999996
 31
0.0
  0
LINE
  5
58
  8
_________4
 62
     7
 10
70.781700000000001
 20
75.606899999999996
 30
0.0
 11
70.290400000000005
 21
75.606899999999996
 31
0.0
  0
LINE
  5
59
  8
_________4
 62
     7
 10
69.899699999999996
 20
73.380700000000004
 30
0.0
 11
69.209599999999995
 21
73.380700000000004
 31
0.0
  0
LINE
  5
5A
  8
_________4
 62
     7
 10
70.781700000000001
 20
73.380700000000004
 30
0.0
 11
70.290400000000005
 21
73.380700000000004
 31
0.0
  0
LINE
  5
5B
  8
_________4
 62
     7
 10
69.531800000000004
 20
65.979200000000006
 30
0.0
 11
69.531800000000004
 21
72.478700000000003
 31
0.0
  0
LINE
  5
5C
  8
_________4
 62
     7
 10
70.781700000000001
 20
72.478700000000003
 30
0.0
 11
69.209599999999995
 21
72.478700000000003
 31
0.0
  0
LINE
  5
5D
  8
_________4
 62
     7
 10
72.626900000000006
 20
77.569900000000004
 30
0.0
 11
72.626900000000006
 21
75.880399999999995
 31
0.0
  0
LINE
  5
5E
  8
_________4
 62
     7
 10
72.626900000000006
 20
77.569900000000004
 30
0.0
 11
70.781700000000001
 21
77.569900000000004
 31
0.0
  0
LINE
  5
5F
  8
_________4
 62
     7
 10
72.353700000000003
 20
75.606899999999996
 30
0.0
 11
72.353700000000003
 21
73.380700000000004
 31
0.0
  0
LINE
  5
60
  8
_________4
 62
     7
 10
72.353700000000003
 20
75.606899999999996
 30
0.0
 11
72.626900000000006
 21
75.880399999999995
 31
0.0
  0
LINE
  5
61
  8
_________4
 62
     7
 10
71.272900000000007
 20
75.606899999999996
 30
0.0
 11
71.272900000000007
 21
73.380700000000004
 31
0.0
  0
LINE
  5
62
  8
_________4
 62
     7
 10
71.663600000000002
 20
75.606899999999996
 30
0.0
 11
71.663600000000002
 21
73.380700000000004
 31
0.0
  0
LINE
  5
63
  8
_________4
 62
     7
 10
71.663600000000002
 20
75.606899999999996
 30
0.0
 11
72.353700000000003
 21
75.606899999999996
 31
0.0
  0
LINE
  5
64
  8
_________4
 62
     7
 10
70.781700000000001
 20
75.606899999999996
 30
0.0
 11
71.272900000000007
 21
75.606899999999996
 31
0.0
  0
ARC
  5
65
  8
_________4
 62
     7
 10
72.336341000000004
 20
72.912351000000001
 30
0.0
 40
0.468623
 50
2.1622659999999989
 51
87.881511999999987
  0
ARC
  5
66
  8
_________4
 62
     7
 10
72.335982999999999
 20
72.947355000000002
 30
0.0
 40
0.4689670000000001
 50
272.16070100000002
 51
357.88306299999999
  0
LINE
  5
67
  8
_________4
 62
     7
 10
71.663600000000002
 20
73.380700000000004
 30
0.0
 11
72.353700000000003
 21
73.380700000000004
 31
0.0
  0
LINE
  5
68
  8
_________4
 62
     7
 10
70.781700000000001
 20
73.380700000000004
 30
0.0
 11
71.272900000000007
 21
73.380700000000004
 31
0.0
  0
LINE
  5
69
  8
_________4
 62
     7
 10
72.031499999999994
 20
65.979200000000006
 30
0.0
 11
72.031499999999994
 21
72.478700000000003
 31
0.0
  0
LINE
  5
6A
  8
_________4
 62
     7
 10
70.781700000000001
 20
72.478700000000003
 30
0.0
 11
72.353700000000003
 21
72.478700000000003
 31
0.0
  0
LINE
  5
6B
  8
_________4
 62
     7
 10
72.281700000000001
 20
77.569900000000004
 30
0.0
 11
72.281700000000001
 21
102.224
 31
0.0
  0
LINE
  5
6C
  8
_________4
 62
     7
 10
69.281700000000001
 20
77.569900000000004
 30
0.0
 11
69.281700000000001
 21
102.224
 31
0.0
  0
LINE
  5
6D
  8
0
 62
     7
 10
133.85299999999989
 20
137.762
 30
0.0
 11
133.85299999999989
 21
133.386
 31
0.0
  0
LINE
  5
6E
  8
0
 62
     7
 10
133.85299999999989
 20
146.37
 30
0.0
 11
133.85299999999989
 21
140.887
 31
0.0
  0
LINE
  5
6F
  8
0
 62
     7
 10
134.10400000000001
 20
140.887
 30
0.0
 11
134.10400000000001
 21
146.37
 31
0.0
  0
LINE
  5
70
  8
0
 62
     7
 10
126.854
 20
146.37
 30
0.0
 11
126.854
 21
140.887
 31
0.0
  0
LINE
  5
71
  8
0
 62
     7
 10
126.604
 20
140.887
 30
0.0
 11
126.604
 21
146.37
 31
0.0
  0
LINE
  5
72
  8
0
 62
     7
 10
133.85299999999989
 20
140.262
 30
0.0
 11
133.85299999999989
 21
139.012
 31
0.0
  0
LINE
  5
73
  8
0
 62
     7
 10
134.10400000000001
 20
139.012
 30
0.0
 11
134.10400000000001
 21
140.262
 31
0.0
  0
LINE
  5
74
  8
0
 62
     7
 10
126.854
 20
140.262
 30
0.0
 11
126.854
 21
139.012
 31
0.0
  0
LINE
  5
75
  8
0
 62
     7
 10
126.604
 20
139.012
 30
0.0
 11
126.604
 21
140.262
 31
0.0
  0
LINE
  5
76
  8
0
 62
     7
 10
126.854
 20
137.762
 30
0.0
 11
126.854
 21
133.386
 31
0.0
  0
LINE
  5
77
  8
0
 62
     7
 10
126.604
 20
133.637
 30
0.0
 11
126.604
 21
137.762
 31
0.0
  0
LINE
  5
78
  8
0
 62
     7
 10
126.604
 20
133.637
 30
0.0
 11
134.10400000000001
 21
133.637
 31
0.0
  0
LINE
  5
79
  8
0
 62
     7
 10
134.10400000000001
 20
137.762
 30
0.0
 11
134.10400000000001
 21
133.637
 31
0.0
  0
LINE
  5
7A
  8
0
 62
     7
 10
134.10400000000001
 20
133.637
 30
0.0
 11
133.852
 21
133.386
 31
0.0
  0
LINE
  5
7B
  8
0
 62
     7
 10
133.852
 20
133.386
 30
0.0
 11
126.854
 21
133.386
 31
0.0
  0
LINE
  5
7C
  8
0
 62
     7
 10
126.854
 20
133.386
 30
0.0
 11
126.604
 21
133.637
 31
0.0
  0
LINE
  5
7D
  8
0
 62
     7
 10
72.7971
 20
137.762
 30
0.0
 11
72.7971
 21
133.386
 31
0.0
  0
LINE
  5
7E
  8
0
 62
     7
 10
72.7971
 20
146.37
 30
0.0
 11
72.7971
 21
140.887
 31
0.0
  0
LINE
  5
7F
  8
0
 62
     7
 10
73.047200000000004
 20
140.887
 30
0.0
 11
73.047200000000004
 21
146.37
 31
0.0
  0
LINE
  5
80
  8
0
 62
     7
 10
65.797300000000007
 20
146.37
 30
0.0
 11
65.797300000000007
 21
140.887
 31
0.0
  0
LINE
  5
81
  8
0
 62
     7
 10
65.547799999999995
 20
140.887
 30
0.0
 11
65.547799999999995
 21
146.37
 31
0.0
  0
LINE
  5
82
  8
0
 62
     7
 10
72.7971
 20
140.262
 30
0.0
 11
72.7971
 21
139.012
 31
0.0
  0
LINE
  5
83
  8
0
 62
     7
 10
73.047200000000004
 20
139.012
 30
0.0
 11
73.047200000000004
 21
140.262
 31
0.0
  0
LINE
  5
84
  8
0
 62
     7
 10
65.797300000000007
 20
140.262
 30
0.0
 11
65.797300000000007
 21
139.012
 31
0.0
  0
LINE
  5
85
  8
0
 62
     7
 10
65.547799999999995
 20
139.012
 30
0.0
 11
65.547799999999995
 21
140.262
 31
0.0
  0
LINE
  5
86
  8
0
 62
     7
 10
65.797300000000007
 20
137.762
 30
0.0
 11
65.797300000000007
 21
133.386
 31
0.0
  0
LINE
  5
87
  8
0
 62
     7
 10
65.547799999999995
 20
133.637
 30
0.0
 11
65.547799999999995
 21
137.762
 31
0.0
  0
LINE
  5
88
  8
0
 62
     7
 10
65.547799999999995
 20
133.637
 30
0.0
 11
73.047200000000004
 21
133.637
 31
0.0
  0
LINE
  5
89
  8
0
 62
     7
 10
73.047200000000004
 20
137.762
 30
0.0
 11
73.047200000000004
 21
133.637
 31
0.0
  0
LINE
  5
8A
  8
0
 62
     7
 10
73.047200000000004
 20
133.637
 30
0.0
 11
72.795699999999997
 21
133.386
 31
0.0
  0
LINE
  5
8B
  8
0
 62
     7
 10
72.795699999999997
 20
133.386
 30
0.0
 11
65.797300000000007
 21
133.386
 31
0.0
  0
LINE
  5
8C
  8
0
 62
     7
 10
65.797300000000007
 20
133.386
 30
0.0
 11
65.547799999999995
 21
133.637
 31
0.0
  0
LINE
  5
8D
  8
0
 62
     7
 10
129.761
 20
136.511
 30
0.0
 11
129.761
 21
137.761
 31
0.0
  0
LINE
  5
8E
  8
0
 62
     7
 10
131.011
 20
136.511
 30
0.0
 11
131.011
 21
137.761
 31
0.0
  0
LINE
  5
8F
  8
0
 62
     7
 10
129.761
 20
139.011
 30
0.0
 11
129.761
 21
140.261
 31
0.0
  0
LINE
  5
90
  8
0
 62
     7
 10
131.011
 20
139.011
 30
0.0
 11
131.011
 21
140.261
 31
0.0
  0
LINE
  5
91
  8
0
 62
     7
 10
129.33600000000001
 20
135.261
 30
0.0
 11
129.33600000000001
 21
136.511
 31
0.0
  0
LINE
  5
92
  8
0
 62
     7
 10
129.33600000000001
 20
136.511
 30
0.0
 11
131.43600000000001
 21
136.511
 31
0.0
  0
LINE
  5
93
  8
0
 62
     7
 10
131.43600000000001
 20
136.511
 30
0.0
 11
131.43600000000001
 21
135.261
 31
0.0
  0
LINE
  5
94
  8
0
 62
     7
 10
131.43600000000001
 20
135.261
 30
0.0
 11
129.33600000000001
 21
135.261
 31
0.0
  0
LINE
  5
95
  8
0
 62
     7
 10
124.13500000000001
 20
137.761
 30
0.0
 11
124.13500000000001
 21
139.011
 31
0.0
  0
LINE
  5
96
  8
0
 62
     7
 10
124.13500000000001
 20
139.011
 30
0.0
 11
136.636
 21
139.011
 31
0.0
  0
LINE
  5
97
  8
0
 62
     7
 10
136.636
 20
139.011
 30
0.0
 11
136.636
 21
137.761
 31
0.0
  0
LINE
  5
98
  8
0
 62
     7
 10
136.636
 20
137.761
 30
0.0
 11
124.13500000000001
 21
137.761
 31
0.0
  0
LINE
  5
99
  8
0
 62
     7
 10
124.13500000000001
 20
140.261
 30
0.0
 11
124.13500000000001
 21
140.636
 31
0.0
  0
LINE
  5
9A
  8
0
 62
     7
 10
124.13500000000001
 20
140.636
 30
0.0
 11
136.636
 21
140.636
 31
0.0
  0
LINE
  5
9B
  8
0
 62
     7
 10
136.636
 20
140.636
 30
0.0
 11
136.636
 21
140.261
 31
0.0
  0
LINE
  5
9C
  8
0
 62
     7
 10
136.636
 20
140.261
 30
0.0
 11
124.13500000000001
 21
140.261
 31
0.0
  0
LINE
  5
9D
  8
0
 62
     7
 10
124.886
 20
140.636
 30
0.0
 11
124.886
 21
140.886
 31
0.0
  0
LINE
  5
9E
  8
0
 62
     7
 10
124.886
 20
140.886
 30
0.0
 11
135.88499999999999
 21
140.886
 31
0.0
  0
LINE
  5
9F
  8
0
 62
     7
 10
135.88499999999999
 20
140.886
 30
0.0
 11
135.88499999999999
 21
140.636
 31
0.0
  0
LINE
  5
A0
  8
0
 62
     7
 10
135.88499999999999
 20
140.636
 30
0.0
 11
124.886
 21
140.636
 31
0.0
  0
LINE
  5
A1
  8
0
 62
     7
 10
130.63800000000001
 20
148.386
 30
0.0
 11
130.63800000000001
 21
146.93700000000001
 31
0.0
  0
ARC
  5
A2
  8
0
 62
     7
 10
130.38317599999999
 20
146.93827200000001
 30
0.0
 40
0.254641
 50
315.05220500000001
 51
359.67665800000009
  0
ARC
  5
A3
  8
0
 62
     7
 10
130.386292
 20
146.93423799999999
 30
0.0
 40
0.249586
 50
269.84809100000001
 51
315.20229799999998
  0
ARC
  5
A4
  8
0
 62
     7
 10
130.387056
 20
146.94094799999999
 30
0.0
 40
0.2563
 50
225.424915
 51
269.68138699999997
  0
ARC
  5
A5
  8
0
 62
     7
 10
130.39039199999999
 20
146.93852799999999
 30
0.0
 40
0.256949
 50
180.37753499999999
 51
224.516223
  0
LINE
  5
A6
  8
0
 62
     7
 10
130.13300000000001
 20
146.93700000000001
 30
0.0
 11
130.13300000000001
 21
148.386
 31
0.0
  0
LINE
  5
A7
  8
0
 62
     7
 10
134.41999999999999
 20
146.369
 30
0.0
 11
134.41999999999999
 21
148.386
 31
0.0
  0
LINE
  5
A8
  8
0
 62
     7
 10
126.289
 20
146.369
 30
0.0
 11
134.41999999999999
 21
146.369
 31
0.0
  0
LINE
  5
A9
  8
0
 62
     7
 10
134.41999999999999
 20
146.369
 30
0.0
 11
134.73500000000001
 21
148.386
 31
0.0
  0
LINE
  5
AA
  8
0
 62
     7
 10
126.289
 20
148.386
 30
0.0
 11
126.289
 21
146.369
 31
0.0
  0
LINE
  5
AB
  8
0
 62
     7
 10
126.289
 20
146.369
 30
0.0
 11
125.974
 21
148.386
 31
0.0
  0
LINE
  5
AC
  8
0
 62
     7
 10
125.669
 20
148.63800000000001
 30
0.0
 11
135.102
 21
148.63800000000001
 31
0.0
  0
LINE
  5
AD
  8
0
 62
     7
 10
135.102
 20
148.63800000000001
 30
0.0
 11
135.5439999999999
 21
148.63800000000001
 31
0.0
  0
LINE
  5
AE
  8
0
 62
     7
 10
135.5439999999999
 20
148.63800000000001
 30
0.0
 11
135.5439999999999
 21
148.386
 31
0.0
  0
LINE
  5
AF
  8
0
 62
     7
 10
135.5439999999999
 20
148.386
 30
0.0
 11
125.16500000000001
 21
148.386
 31
0.0
  0
LINE
  5
B0
  8
0
 62
     7
 10
125.16500000000001
 20
148.386
 30
0.0
 11
125.16500000000001
 21
148.63800000000001
 31
0.0
  0
LINE
  5
B1
  8
0
 62
     7
 10
125.16500000000001
 20
148.63800000000001
 30
0.0
 11
125.669
 21
148.63800000000001
 31
0.0
  0
LINE
  5
B2
  8
0
 62
     7
 10
128.89099999999999
 20
142.435
 30
0.0
 11
126.681
 21
141.84299999999999
 31
0.0
  0
LINE
  5
B3
  8
0
 62
     7
 10
126.681
 20
141.84299999999999
 30
0.0
 11
128.89099999999999
 21
141.251
 31
0.0
  0
LINE
  5
B4
  8
0
 62
     7
 10
128.89099999999999
 20
141.251
 30
0.0
 11
128.89099999999999
 21
142.435
 31
0.0
  0
LINE
  5
B5
  8
0
 62
     7
 10
131.941
 20
141.26499999999999
 30
0.0
 11
134.15299999999999
 21
141.858
 31
0.0
  0
LINE
  5
B6
  8
0
 62
     7
 10
134.15299999999999
 20
141.858
 30
0.0
 11
131.941
 21
142.44999999999999
 31
0.0
  0
LINE
  5
B7
  8
0
 62
     7
 10
131.941
 20
142.44999999999999
 30
0.0
 11
131.941
 21
141.26499999999999
 31
0.0
  0
LINE
  5
B8
  8
0
 62
     7
 10
126.68000000000001
 20
141.84299999999999
 30
0.0
 11
134.15299999999999
 21
141.84299999999999
 31
0.0
  0
LINE
  5
B9
  8
0
  6
AIGENLINE002
 62
     7
 10
130.386
 20
145.73699999999999
 30
0.0
 11
130.386
 21
152.762
 31
0.0
  0
LINE
  5
BA
  8
0
 62
     7
 10
69.143199999999993
 20
132.869
 30
0.0
 11
68.625699999999995
 21
133.386
 31
0.0
  0
LINE
  5
BB
  8
0
 62
     7
 10
66.660600000000002
 20
133.386
 30
0.0
 11
66.143199999999993
 21
132.869
 31
0.0
  0
LINE
  5
BC
  8
0
 62
     7
 10
69.143199999999993
 20
131.768
 30
0.0
 11
67.524600000000007
 21
133.386
 31
0.0
  0
LINE
  5
BD
  8
0
 62
     7
 10
67.761700000000005
 20
133.386
 30
0.0
 11
66.143199999999993
 21
131.768
 31
0.0
  0
LINE
  5
BE
  8
0
 62
     7
 10
69.143199999999993
 20
130.667
 30
0.0
 11
66.423599999999993
 21
133.386
 31
0.0
  0
LINE
  5
BF
  8
0
 62
     7
 10
68.862700000000004
 20
133.386
 30
0.0
 11
66.143199999999993
 21
130.667
 31
0.0
  0
LINE
  5
C0
  8
0
 62
     7
 10
68.421800000000005
 20
130.28700000000001
 30
0.0
 11
66.143199999999993
 21
132.566
 31
0.0
  0
LINE
  5
C1
  8
0
 62
     7
 10
69.143199999999993
 20
132.566
 30
0.0
 11
66.863900000000001
 21
130.28700000000001
 31
0.0
  0
LINE
  5
C2
  8
0
 62
     7
 10
67.320700000000002
 20
130.28700000000001
 30
0.0
 11
66.143199999999993
 21
131.465
 31
0.0
  0
LINE
  5
C3
  8
0
 62
     7
 10
69.143199999999993
 20
131.465
 30
0.0
 11
67.9649
 21
130.28700000000001
 31
0.0
  0
LINE
  5
C4
  8
0
 62
     7
 10
72.281700000000001
 20
132.869
 30
0.0
 11
71.764200000000002
 21
133.386
 31
0.0
  0
LINE
  5
C5
  8
0
 62
     7
 10
69.799099999999996
 20
133.386
 30
0.0
 11
69.281700000000001
 21
132.869
 31
0.0
  0
LINE
  5
C6
  8
0
 62
     7
 10
72.281700000000001
 20
131.768
 30
0.0
 11
70.6631
 21
133.386
 31
0.0
  0
LINE
  5
C7
  8
0
 62
     7
 10
70.900199999999984
 20
133.386
 30
0.0
 11
69.281700000000001
 21
131.768
 31
0.0
  0
LINE
  5
C8
  8
0
 62
     7
 10
72.281700000000001
 20
130.667
 30
0.0
 11
69.562100000000001
 21
133.386
 31
0.0
  0
LINE
  5
C9
  8
0
 62
     7
 10
72.001199999999997
 20
133.386
 30
0.0
 11
69.281700000000001
 21
130.667
 31
0.0
  0
LINE
  5
CA
  8
0
 62
     7
 10
71.560299999999998
 20
130.28700000000001
 30
0.0
 11
69.281700000000001
 21
132.566
 31
0.0
  0
LINE
  5
CB
  8
0
 62
     7
 10
72.281700000000001
 20
132.566
 30
0.0
 11
70.002399999999994
 21
130.28700000000001
 31
0.0
  0
LINE
  5
CC
  8
0
 62
     7
 10
70.459199999999996
 20
130.28700000000001
 30
0.0
 11
69.281700000000001
 21
131.465
 31
0.0
  0
LINE
  5
CD
  8
0
 62
     7
 10
72.281700000000001
 20
131.465
 30
0.0
 11
71.103399999999993
 21
130.28700000000001
 31
0.0
  0
LINE
  5
CE
  8
0
 62
     7
 10
69.143199999999993
 20
104.07599999999999
 30
0.0
 11
69.143199999999993
 21
133.386
 31
0.0
  0
LINE
  5
CF
  8
0
 62
     7
 10
66.143199999999993
 20
104.07599999999999
 30
0.0
 11
66.143199999999993
 21
133.386
 31
0.0
  0
LINE
  5
D0
  8
0
  6
AIGENLINE001
 62
     7
 10
67.643199999999993
 20
137.625
 30
0.0
 11
67.643199999999993
 21
64.540499999999994
 31
0.0
  0
LINE
  5
D1
  8
0
 62
     7
 10
63.454099999999997
 20
136.511
 30
0.0
 11
63.454099999999997
 21
137.761
 31
0.0
  0
LINE
  5
D2
  8
0
 62
     7
 10
64.704099999999997
 20
136.511
 30
0.0
 11
64.704099999999997
 21
137.761
 31
0.0
  0
LINE
  5
D3
  8
0
 62
     7
 10
63.454099999999997
 20
139.011
 30
0.0
 11
63.454099999999997
 21
140.261
 31
0.0
  0
LINE
  5
D4
  8
0
 62
     7
 10
64.704099999999997
 20
139.011
 30
0.0
 11
64.704099999999997
 21
140.261
 31
0.0
  0
LINE
  5
D5
  8
0
  6
AIGENLINE001
 62
     7
 10
64.0792
 20
134.215
 30
0.0
 11
64.0792
 21
141.90899999999999
 31
0.0
  0
LINE
  5
D6
  8
0
 62
     7
 10
63.0291
 20
135.261
 30
0.0
 11
63.0291
 21
136.511
 31
0.0
  0
LINE
  5
D7
  8
0
 62
     7
 10
63.0291
 20
136.511
 30
0.0
 11
65.129099999999994
 21
136.511
 31
0.0
  0
LINE
  5
D8
  8
0
 62
     7
 10
65.129099999999994
 20
136.511
 30
0.0
 11
65.129099999999994
 21
135.261
 31
0.0
  0
LINE
  5
D9
  8
0
 62
     7
 10
65.129099999999994
 20
135.261
 30
0.0
 11
63.0291
 21
135.261
 31
0.0
  0
LINE
  5
DA
  8
0
 62
     7
 10
73.954300000000003
 20
136.511
 30
0.0
 11
73.954300000000003
 21
137.761
 31
0.0
  0
LINE
  5
DB
  8
0
 62
     7
 10
75.2042
 20
136.511
 30
0.0
 11
75.2042
 21
137.761
 31
0.0
  0
LINE
  5
DC
  8
0
 62
     7
 10
73.954300000000003
 20
139.011
 30
0.0
 11
73.954300000000003
 21
140.261
 31
0.0
  0
LINE
  5
DD
  8
0
 62
     7
 10
75.2042
 20
139.011
 30
0.0
 11
75.2042
 21
140.261
 31
0.0
  0
LINE
  5
DE
  8
0
  6
AIGENLINE001
 62
     7
 10
74.5792
 20
134.215
 30
0.0
 11
74.5792
 21
141.90899999999999
 31
0.0
  0
LINE
  5
DF
  8
0
  6
AIGENLINE001
 62
     7
 10
69.3292
 20
67.5184
 30
0.0
 11
69.3292
 21
180.82599999999999
 31
0.0
  0
LINE
  5
E0
  8
0
 62
     7
 10
73.5291
 20
135.261
 30
0.0
 11
73.5291
 21
136.511
 31
0.0
  0
LINE
  5
E1
  8
0
 62
     7
 10
73.5291
 20
136.511
 30
0.0
 11
75.629300000000001
 21
136.511
 31
0.0
  0
LINE
  5
E2
  8
0
 62
     7
 10
75.629300000000001
 20
136.511
 30
0.0
 11
75.629300000000001
 21
135.261
 31
0.0
  0
LINE
  5
E3
  8
0
 62
     7
 10
75.629300000000001
 20
135.261
 30
0.0
 11
73.5291
 21
135.261
 31
0.0
  0
LINE
  5
E4
  8
0
 62
     7
 10
63.07909999999999
 20
137.761
 30
0.0
 11
63.07909999999999
 21
139.011
 31
0.0
  0
LINE
  5
E5
  8
0
 62
     7
 10
63.07909999999999
 20
139.011
 30
0.0
 11
75.579300000000003
 21
139.011
 31
0.0
  0
LINE
  5
E6
  8
0
 62
     7
 10
75.579300000000003
 20
139.011
 30
0.0
 11
75.579300000000003
 21
137.761
 31
0.0
  0
LINE
  5
E7
  8
0
 62
     7
 10
75.579300000000003
 20
137.761
 30
0.0
 11
63.07909999999999
 21
137.761
 31
0.0
  0
LINE
  5
E8
  8
0
 62
     7
 10
63.07909999999999
 20
140.261
 30
0.0
 11
63.07909999999999
 21
140.636
 31
0.0
  0
LINE
  5
E9
  8
0
 62
     7
 10
63.07909999999999
 20
140.636
 30
0.0
 11
75.579300000000003
 21
140.636
 31
0.0
  0
LINE
  5
EA
  8
0
 62
     7
 10
75.579300000000003
 20
140.636
 30
0.0
 11
75.579300000000003
 21
140.261
 31
0.0
  0
LINE
  5
EB
  8
0
 62
     7
 10
75.579300000000003
 20
140.261
 30
0.0
 11
63.07909999999999
 21
140.261
 31
0.0
  0
LINE
  5
EC
  8
0
 62
     7
 10
63.82909999999999
 20
140.636
 30
0.0
 11
63.82909999999999
 21
140.887
 31
0.0
  0
LINE
  5
ED
  8
0
 62
     7
 10
63.82909999999999
 20
140.887
 30
0.0
 11
74.829300000000003
 21
140.887
 31
0.0
  0
LINE
  5
EE
  8
0
 62
     7
 10
74.829300000000003
 20
140.887
 30
0.0
 11
74.829300000000003
 21
140.636
 31
0.0
  0
LINE
  5
EF
  8
0
 62
     7
 10
74.829300000000003
 20
140.636
 30
0.0
 11
63.82909999999999
 21
140.636
 31
0.0
  0
LINE
  5
F0
  8
0
 62
     7
 10
69.581400000000002
 20
148.387
 30
0.0
 11
69.581400000000002
 21
146.93700000000001
 31
0.0
  0
ARC
  5
F1
  8
0
 62
     7
 10
69.325916000000007
 20
146.93843899999999
 30
0.0
 40
0.255465
 50
315.23841099999999
 51
359.67903200000001
  0
ARC
  5
F2
  8
0
 62
     7
 10
69.329311000000004
 20
146.93655899999999
 30
0.0
 40
0.251734
 50
269.97376000000003
 51
314.99817500000012
  0
ARC
  5
F3
  8
0
 62
     7
 10
69.330617000000004
 20
146.94027299999999
 30
0.0
 40
0.255452
 50
225.347014
 51
269.68109099999998
  0
ARC
  5
F4
  8
0
 62
     7
 10
69.333623000000003
 20
146.93891500000001
 30
0.0
 40
0.256618
 50
180.42604299999999
 51
224.656553
  0
LINE
  5
F5
  8
0
 62
     7
 10
69.076999999999998
 20
146.93700000000001
 30
0.0
 11
69.076999999999998
 21
148.387
 31
0.0
  0
LINE
  5
F6
  8
0
 62
     7
 10
73.363399999999984
 20
146.37
 30
0.0
 11
73.363399999999984
 21
148.387
 31
0.0
  0
LINE
  5
F7
  8
0
 62
     7
 10
65.232600000000005
 20
146.37
 30
0.0
 11
73.363399999999984
 21
146.37
 31
0.0
  0
LINE
  5
F8
  8
0
 62
     7
 10
73.363399999999984
 20
146.37
 30
0.0
 11
73.678299999999993
 21
148.387
 31
0.0
  0
LINE
  5
F9
  8
0
 62
     7
 10
65.232600000000005
 20
148.387
 30
0.0
 11
65.232600000000005
 21
146.37
 31
0.0
  0
LINE
  5
FA
  8
0
 62
     7
 10
65.232600000000005
 20
146.37
 30
0.0
 11
64.917400000000001
 21
148.387
 31
0.0
  0
ARC
  5
FB
  8
0
 62
     7
 10
64.535066
 20
148.87002200000001
 30
0.0
 40
0.244184
 50
263.98455799999999
 51
288.57005700000002
  0
ARC
  5
FC
  8
0
 62
     7
 10
64.536248999999998
 20
148.86642800000001
 30
0.0
 40
0.24074
 50
218.914704
 51
263.61487899999997
  0
ARC
  5
FD
  8
0
 62
     7
 10
64.536462999999983
 20
148.865342
 30
0.0
 40
0.240225
 50
173.891177
 51
218.68099100000001
  0
LINE
  5
FE
  8
0
 62
     7
 10
64.297600000000003
 20
148.89099999999999
 30
0.0
 11
64.297600000000003
 21
169.5
 31
0.0
  0
LINE
  5
FF
  8
0
 62
     7
 10
64.297600000000003
 20
169.5
 30
0.0
 11
74.297700000000006
 21
169.5
 31
0.0
  0
LINE
  5
100
  8
0
 62
     7
 10
74.297700000000006
 20
169.5
 30
0.0
 11
74.297700000000006
 21
148.89099999999999
 31
0.0
  0
ARC
  5
101
  8
0
 62
     7
 10
74.081413999999995
 20
148.85938300000001
 30
0.0
 40
0.218614
 50
351.70939700000002
 51
8.2906029999999991
  0
ARC
  5
102
  8
0
 62
     7
 10
74.075524999999999
 20
148.860254
 30
0.0
 40
0.224568
 50
307.08111600000001
 51
351.70607699999999
  0
ARC
  5
103
  8
0
 62
     7
 10
74.075599999999994
 20
148.86443199999999
 30
0.0
 40
0.22787
 50
262.424936
 51
306.43262099999998
  0
LINE
  5
104
  8
0
 62
     7
 10
64.612799999999993
 20
148.63900000000001
 30
0.0
 11
74.045599999999993
 21
148.63900000000001
 31
0.0
  0
LINE
  5
105
  8
0
 62
     7
 10
74.045599999999993
 20
148.63900000000001
 30
0.0
 11
74.487200000000001
 21
148.63900000000001
 31
0.0
  0
LINE
  5
106
  8
0
 62
     7
 10
74.487200000000001
 20
148.63900000000001
 30
0.0
 11
74.487200000000001
 21
148.387
 31
0.0
  0
LINE
  5
107
  8
0
 62
     7
 10
74.487200000000001
 20
148.387
 30
0.0
 11
64.108500000000006
 21
148.387
 31
0.0
  0
LINE
  5
108
  8
0
 62
     7
 10
64.108500000000006
 20
148.387
 30
0.0
 11
64.108500000000006
 21
148.63900000000001
 31
0.0
  0
LINE
  5
109
  8
0
 62
     7
 10
64.108500000000006
 20
148.63900000000001
 30
0.0
 11
64.612799999999993
 21
148.63900000000001
 31
0.0
  0
ARC
  5
10A
  8
0
 62
     7
 10
68.394222999999997
 20
102.93055200000001
 30
0.0
 40
1.0649809999999991
 50
240.335093
 51
269.92409900000001
  0
ARC
  5
10B
  8
0
 62
     7
 10
68.219053000000002
 20
102.589595
 30
0.0
 40
0.682216
 50
212.41804400000001
 51
238.946057
  0
ARC
  5
10C
  8
0
 62
     7
 10
68.391400000000004
 20
102.931088
 30
0.0
 40
1.065517
 50
270.075988
 51
299.65729399999998
  0
ARC
  5
10D
  8
0
 62
     7
 10
68.567580000000007
 20
102.588337
 30
0.0
 40
0.6806900000000001
 50
301.04592700000001
 51
327.6258160000001
  0
ARC
  5
10E
  8
0
 62
     7
 10
68.391400000000004
 20
101.518046
 30
0.0
 40
1.0647999999999991
 50
60.320795999999987
 51
89.924006000000006
  0
ARC
  5
10F
  8
0
 62
     7
 10
68.568218999999985
 20
101.86159000000001
 30
0.0
 40
0.678974
 50
32.246316999999998
 51
58.929879000000007
  0
ARC
  5
110
  8
0
 62
     7
 10
68.394222999999997
 20
101.51858199999999
 30
0.0
 40
1.064263999999999
 50
90.075906999999987
 51
119.686823
  0
ARC
  5
111
  8
0
 62
     7
 10
68.218408999999994
 20
101.860342
 30
0.0
 40
0.6804899999999999
 50
121.0781309999999
 51
147.70982799999999
  0
ARC
  5
112
  8
0
 62
     7
 10
66.891398999999993
 20
101.517222
 30
0.0
 40
1.065625
 50
60.332545000000003
 51
89.924186999999989
  0
ARC
  5
113
  8
0
 62
     7
 10
67.066761999999997
 20
101.85865099999999
 30
0.0
 40
0.6823560000000001
 50
32.359071999999998
 51
58.936844999999998
  0
ARC
  5
114
  8
0
 62
     7
 10
66.894218999999993
 20
101.51858199999999
 30
0.0
 40
1.064263999999999
 50
90.075906999999987
 51
119.686823
  0
ARC
  5
115
  8
0
 62
     7
 10
66.718405000000004
 20
101.860342
 30
0.0
 40
0.6804899999999999
 50
121.0781309999999
 51
147.70982799999999
  0
ARC
  5
116
  8
0
 62
     7
 10
66.892087000000004
 20
103.370677
 30
0.0
 40
1.064263999999999
 50
60.313157999999987
 51
89.924072999999993
  0
ARC
  5
117
  8
0
 62
     7
 10
67.067901000000006
 20
103.71243699999999
 30
0.0
 40
0.6804899999999999
 50
32.290152999999997
 51
58.921849000000009
  0
ARC
  5
118
  8
0
 62
     7
 10
66.894912000000005
 20
103.36942000000001
 30
0.0
 40
1.0655209999999991
 50
90.076064999999986
 51
119.668908
  0
ARC
  5
119
  8
0
 62
     7
 10
66.717827
 20
103.713353
 30
0.0
 40
0.6792200000000001
 50
121.050224
 51
147.73360500000001
  0
ARC
  5
11A
  8
0
 62
     7
 10
66.894912000000005
 20
104.782498
 30
0.0
 40
1.0655209999999991
 50
240.33109200000001
 51
269.92393499999997
  0
ARC
  5
11B
  8
0
 62
     7
 10
66.717827
 20
104.438565
 30
0.0
 40
0.6792200000000001
 50
212.26639499999999
 51
238.94977600000001
  0
ARC
  5
11C
  8
0
 62
     7
 10
66.892087000000004
 20
104.78124099999999
 30
0.0
 40
1.064263999999999
 50
270.07592699999998
 51
299.68684200000001
  0
ARC
  5
11D
  8
0
 62
     7
 10
67.067901000000006
 20
104.439481
 30
0.0
 40
0.6804899999999999
 50
301.07815099999999
 51
327.70984700000008
  0
ARC
  5
11E
  8
0
 62
     7
 10
68.394565999999998
 20
104.782416
 30
0.0
 40
1.065439
 50
240.32992400000001
 51
269.92423000000002
  0
ARC
  5
11F
  8
0
 62
     7
 10
68.218315000000004
 20
104.439437
 30
0.0
 40
0.6803860000000001
 50
212.29124200000001
 51
238.929059
  0
ARC
  5
120
  8
0
 62
     7
 10
68.391743999999989
 20
104.78196199999999
 30
0.0
 40
1.0649850000000001
 50
270.07601799999998
 51
299.67656099999999
  0
ARC
  5
121
  8
0
 62
     7
 10
68.567824000000002
 20
104.439814
 30
0.0
 40
0.6807350000000002
 50
301.058269
 51
327.68982
  0
LINE
  5
122
  8
0
 62
     7
 10
68.893000000000001
 20
68.478899999999996
 30
0.0
 11
66.393299999999996
 21
68.478899999999996
 31
0.0
  0
LINE
  5
123
  8
0
 62
     7
 10
68.893000000000001
 20
65.979200000000006
 30
0.0
 11
66.393299999999996
 21
65.979200000000006
 31
0.0
  0
LINE
  5
124
  8
0
 62
     7
 10
65.797600000000003
 20
77.569900000000004
 30
0.0
 11
65.797600000000003
 21
75.880399999999995
 31
0.0
  0
LINE
  5
125
  8
0
 62
     7
 10
65.797600000000003
 20
77.569900000000004
 30
0.0
 11
67.643199999999993
 21
77.569900000000004
 31
0.0
  0
LINE
  5
126
  8
0
 62
     7
 10
66.071100000000001
 20
75.606899999999996
 30
0.0
 11
66.071100000000001
 21
73.380700000000004
 31
0.0
  0
LINE
  5
127
  8
0
 62
     7
 10
66.071100000000001
 20
75.606899999999996
 30
0.0
 11
65.797600000000003
 21
75.880399999999995
 31
0.0
  0
LINE
  5
128
  8
0
 62
     7
 10
67.151899999999983
 20
75.606899999999996
 30
0.0
 11
67.151899999999983
 21
73.380700000000004
 31
0.0
  0
LINE
  5
129
  8
0
 62
     7
 10
66.761200000000002
 20
75.606899999999996
 30
0.0
 11
66.761200000000002
 21
73.380700000000004
 31
0.0
  0
LINE
  5
12A
  8
0
 62
     7
 10
66.761200000000002
 20
75.606899999999996
 30
0.0
 11
66.071100000000001
 21
75.606899999999996
 31
0.0
  0
LINE
  5
12B
  8
0
 62
     7
 10
67.643199999999993
 20
75.606899999999996
 30
0.0
 11
67.151899999999983
 21
75.606899999999996
 31
0.0
  0
ARC
  5
12C
  8
0
 62
     7
 10
66.088509000000002
 20
72.947035999999997
 30
0.0
 40
0.468636
 50
182.07938100000001
 51
267.87689499999999
  0
ARC
  5
12D
  8
0
 62
     7
 10
66.088146999999992
 20
72.912674999999993
 30
0.0
 40
0.468286
 50
92.080284999999989
 51
177.87589800000001
  0
LINE
  5
12E
  8
0
 62
     7
 10
66.761200000000002
 20
73.380700000000004
 30
0.0
 11
66.071100000000001
 21
73.380700000000004
 31
0.0
  0
LINE
  5
12F
  8
0
 62
     7
 10
67.643199999999993
 20
73.380700000000004
 30
0.0
 11
67.151899999999983
 21
73.380700000000004
 31
0.0
  0
LINE
  5
130
  8
0
 62
     7
 10
66.393299999999996
 20
65.979200000000006
 30
0.0
 11
66.393299999999996
 21
72.478700000000003
 31
0.0
  0
LINE
  5
131
  8
0
 62
     7
 10
67.643199999999993
 20
72.478700000000003
 30
0.0
 11
66.071100000000001
 21
72.478700000000003
 31
0.0
  0
LINE
  5
132
  8
0
 62
     7
 10
69.488399999999999
 20
77.569900000000004
 30
0.0
 11
69.488399999999999
 21
75.880399999999995
 31
0.0
  0
LINE
  5
133
  8
0
 62
     7
 10
69.488399999999999
 20
77.569900000000004
 30
0.0
 11
67.643199999999993
 21
77.569900000000004
 31
0.0
  0
LINE
  5
134
  8
0
 62
     7
 10
69.215199999999996
 20
75.606899999999996
 30
0.0
 11
69.215199999999996
 21
73.380700000000004
 31
0.0
  0
LINE
  5
135
  8
0
 62
     7
 10
69.215199999999996
 20
75.606899999999996
 30
0.0
 11
69.488399999999999
 21
75.880399999999995
 31
0.0
  0
LINE
  5
136
  8
0
 62
     7
 10
68.134399999999985
 20
75.606899999999996
 30
0.0
 11
68.134399999999985
 21
73.380700000000004
 31
0.0
  0
LINE
  5
137
  8
0
 62
     7
 10
68.525099999999995
 20
75.606899999999996
 30
0.0
 11
68.525099999999995
 21
73.380700000000004
 31
0.0
  0
LINE
  5
138
  8
0
 62
     7
 10
68.525099999999995
 20
75.606899999999996
 30
0.0
 11
69.215199999999996
 21
75.606899999999996
 31
0.0
  0
LINE
  5
139
  8
0
 62
     7
 10
67.643199999999993
 20
75.606899999999996
 30
0.0
 11
68.134399999999985
 21
75.606899999999996
 31
0.0
  0
ARC
  5
13A
  8
0
 62
     7
 10
69.197839000000002
 20
72.912351000000001
 30
0.0
 40
0.468623
 50
2.1622659999999989
 51
87.881511999999987
  0
ARC
  5
13B
  8
0
 62
     7
 10
69.19748100000001
 20
72.947355000000002
 30
0.0
 40
0.4689670000000001
 50
272.16070100000002
 51
357.88306299999999
  0
LINE
  5
13C
  8
0
 62
     7
 10
68.525099999999995
 20
73.380700000000004
 30
0.0
 11
69.215199999999996
 21
73.380700000000004
 31
0.0
  0
LINE
  5
13D
  8
0
 62
     7
 10
67.643199999999993
 20
73.380700000000004
 30
0.0
 11
68.134399999999985
 21
73.380700000000004
 31
0.0
  0
LINE
  5
13E
  8
0
 62
     7
 10
68.893000000000001
 20
65.979200000000006
 30
0.0
 11
68.893000000000001
 21
72.478700000000003
 31
0.0
  0
LINE
  5
13F
  8
0
 62
     7
 10
67.643199999999993
 20
72.478700000000003
 30
0.0
 11
69.215199999999996
 21
72.478700000000003
 31
0.0
  0
LINE
  5
140
  8
0
 62
     7
 10
69.143199999999993
 20
77.569900000000004
 30
0.0
 11
69.143199999999993
 21
102.224
 31
0.0
  0
LINE
  5
141
  8
0
 62
     7
 10
66.143199999999993
 20
77.569900000000004
 30
0.0
 11
66.143199999999993
 21
102.224
 31
0.0
  0
LINE
  5
142
  8
0
 62
     7
 10
71.103399999999993
 20
61.706499999999998
 30
0.0
 11
68.893000000000001
 21
61.11399999999999
 31
0.0
  0
LINE
  5
143
  8
0
 62
     7
 10
68.893000000000001
 20
61.11399999999999
 30
0.0
 11
71.103399999999993
 21
60.522100000000002
 31
0.0
  0
LINE
  5
144
  8
0
 62
     7
 10
71.103399999999993
 20
60.522100000000002
 30
0.0
 11
71.103399999999993
 21
61.706499999999998
 31
0.0
  0
LINE
  5
145
  8
0
 62
     7
 10
64.183099999999996
 20
60.5366
 30
0.0
 11
66.393600000000006
 21
61.128399999999999
 31
0.0
  0
LINE
  5
146
  8
0
 62
     7
 10
66.393600000000006
 20
61.128399999999999
 30
0.0
 11
64.183099999999996
 21
61.720999999999997
 31
0.0
  0
LINE
  5
147
  8
0
 62
     7
 10
64.183099999999996
 20
61.720999999999997
 30
0.0
 11
64.183099999999996
 21
60.5366
 31
0.0
  0
LINE
  5
148
  8
0
 62
     7
 10
58.42349999999999
 20
61.11399999999999
 30
0.0
 11
72.239800000000002
 21
61.11399999999999
 31
0.0
  0
LINE
  5
149
  8
0
 62
     7
 10
68.893000000000001
 20
65.400400000000005
 30
0.0
 11
68.893000000000001
 21
60.622700000000002
 31
0.0
  0
LINE
  5
14A
  8
0
 62
     7
 10
66.393600000000006
 20
65.400400000000005
 30
0.0
 11
66.393600000000006
 21
60.622700000000002
 31
0.0
  0
LINE
  5
14B
  8
0
 62
     7
 10
69.5321
 20
68.478899999999996
 30
0.0
 11
68.8934
 21
68.478899999999996
 31
0.0
  0
LINE
  5
14C
  8
0
 62
     7
 10
81.480099999999993
 20
68.190200000000004
 30
0.0
 11
82.072299999999998
 21
65.979200000000006
 31
0.0
  0
LINE
  5
14D
  8
0
 62
     7
 10
82.072299999999998
 20
65.979200000000006
 30
0.0
 11
82.664699999999996
 21
68.190200000000004
 31
0.0
  0
LINE
  5
14E
  8
0
 62
     7
 10
82.664699999999996
 20
68.190200000000004
 30
0.0
 11
81.480099999999993
 21
68.190200000000004
 31
0.0
  0
LINE
  5
14F
  8
0
 62
     7
 10
82.650099999999995
 20
146.16200000000001
 30
0.0
 11
82.057900000000004
 21
148.37299999999999
 31
0.0
  0
LINE
  5
150
  8
0
 62
     7
 10
82.057900000000004
 20
148.37299999999999
 30
0.0
 11
81.465500000000006
 21
146.16200000000001
 31
0.0
  0
LINE
  5
151
  8
0
 62
     7
 10
81.465500000000006
 20
146.16200000000001
 30
0.0
 11
82.650099999999995
 21
146.16200000000001
 31
0.0
  0
LINE
  5
152
  8
0
 62
     7
 10
82.057900000000004
 20
65.978499999999997
 30
0.0
 11
82.057900000000004
 21
148.37299999999999
 31
0.0
  0
LINE
  5
153
  8
0
 62
     7
 10
75.619600000000005
 20
148.387
 30
0.0
 11
82.579099999999997
 21
148.387
 31
0.0
  0
LINE
  5
154
  8
0
 62
     7
 10
73.230800000000002
 20
65.978499999999997
 30
0.0
 11
82.810599999999994
 21
65.978499999999997
 31
0.0
  0
LINE
  5
155
  8
0
 62
     7
 10
71.672600000000003
 20
157.136
 30
0.0
 11
71.672600000000003
 21
165.38200000000001
 31
0.0
  0
LINE
  5
156
  8
0
 62
     7
 10
66.922399999999996
 20
157.136
 30
0.0
 11
66.922399999999996
 21
165.38200000000001
 31
0.0
  0
ARC
  5
157
  8
0
 62
     7
 10
70.809324000000004
 20
161.20428799999999
 30
0.0
 40
0.8632429999999999
 50
0.158959
 51
34.793256999999997
  0
ARC
  5
158
  8
0
 62
     7
 10
70.440132999999989
 20
160.985805
 30
0.0
 40
1.2914779999999999
 50
33.406970999999999
 51
50.200580999999993
  0
ARC
  5
159
  8
0
 62
     7
 10
69.985359000000003
 20
160.475651
 30
0.0
 40
1.974656999999999
 50
49.537616999999997
 51
64.677765000000008
  0
ARC
  5
15A
  8
0
 62
     7
 10
69.517573999999996
 20
159.568084
 30
0.0
 40
2.9952990000000002
 50
64.014675999999994
 51
80.122455999999985
  0
ARC
  5
15B
  8
0
 62
     7
 10
69.309322999999992
 20
158.66991299999989
 30
0.0
 40
3.9162119999999998
 50
79.374966999999998
 51
90.172955999999985
  0
ARC
  5
15C
  8
0
 62
     7
 10
69.296807999999984
 20
158.632293
 30
0.0
 40
3.9538150000000001
 50
89.989959999999996
 51
105.475025
  0
ARC
  5
15D
  8
0
 62
     7
 10
69.054688999999996
 20
159.609219
 30
0.0
 40
2.9478309999999999
 50
106.006052
 51
117.807648
  0
ARC
  5
15E
  8
0
 62
     7
 10
68.636368999999988
 20
160.434572
 30
0.0
 40
2.0226980000000001
 50
118.233088
 51
132.06342699999999
  0
ARC
  5
15F
  8
0
 62
     7
 10
68.139565000000005
 20
161.005281
 30
0.0
 40
1.2662379999999991
 50
132.675195
 51
154.44556299999999
  0
ARC
  5
160
  8
0
 62
     7
 10
67.789428999999998
 20
161.19922099999999
 30
0.0
 40
0.8670250000000001
 50
156.02714800000001
 51
179.50684999999999
  0
ARC
  5
161
  8
0
 62
     7
 10
70.809324000000004
 20
157.13353799999999
 30
0.0
 40
0.8632429999999999
 50
0.158959
 51
34.793256999999997
  0
ARC
  5
162
  8
0
 62
     7
 10
70.440132999999989
 20
156.915054
 30
0.0
 40
1.2914779999999999
 50
33.406970999999999
 51
50.200580999999993
  0
ARC
  5
163
  8
0
 62
     7
 10
69.985359000000003
 20
156.404901
 30
0.0
 40
1.974656999999999
 50
49.537616999999997
 51
64.677765000000008
  0
ARC
  5
164
  8
0
 62
     7
 10
69.517573999999996
 20
155.497333
 30
0.0
 40
2.9952990000000002
 50
64.014675999999994
 51
80.122455999999985
  0
ARC
  5
165
  8
0
 62
     7
 10
69.309322999999992
 20
154.599163
 30
0.0
 40
3.9162119999999998
 50
79.374966999999998
 51
90.172955999999985
  0
ARC
  5
166
  8
0
 62
     7
 10
69.296807999999984
 20
154.561543
 30
0.0
 40
3.9538150000000001
 50
89.989959999999996
 51
105.475025
  0
ARC
  5
167
  8
0
 62
     7
 10
69.054688999999996
 20
155.53846799999999
 30
0.0
 40
2.9478309999999999
 50
106.006052
 51
117.807648
  0
ARC
  5
168
  8
0
 62
     7
 10
68.636368999999988
 20
156.363821
 30
0.0
 40
2.0226980000000001
 50
118.233088
 51
132.06342699999999
  0
ARC
  5
169
  8
0
 62
     7
 10
68.139565000000005
 20
156.93453099999999
 30
0.0
 40
1.2662379999999991
 50
132.675195
 51
154.44556299999999
  0
ARC
  5
16A
  8
0
 62
     7
 10
67.789428999999998
 20
157.12846999999999
 30
0.0
 40
0.8670250000000001
 50
156.02714800000001
 51
179.50684999999999
  0
ARC
  5
16B
  8
0
 62
     7
 10
67.784909999999996
 20
157.13834
 30
0.0
 40
0.8624769999999999
 50
180.15997699999991
 51
214.79919699999999
  0
ARC
  5
16C
  8
0
 62
     7
 10
68.154017999999994
 20
157.35676799999999
 30
0.0
 40
1.2906089999999999
 50
213.410089
 51
230.20730699999999
  0
ARC
  5
16D
  8
0
 62
     7
 10
68.608772000000002
 20
157.86678000000001
 30
0.0
 40
1.973665999999999
 50
229.539512
 51
244.68294599999999
  0
ARC
  5
16E
  8
0
 62
     7
 10
69.076119999999989
 20
158.77267000000001
 30
0.0
 40
2.9926069999999991
 50
244.011313
 51
260.13375500000001
  0
ARC
  5
16F
  8
0
 62
     7
 10
69.285170999999991
 20
159.67068399999999
 30
0.0
 40
3.9135070000000001
 50
259.37117899999998
 51
270.180519
  0
ARC
  5
170
  8
0
 62
     7
 10
69.297798
 20
159.64381
 30
0.0
 40
3.8866139999999989
 50
269.99561999999997
 51
288.84523100000001
  0
ARC
  5
171
  8
0
 62
     7
 10
69.695787999999993
 20
158.35123200000001
 30
0.0
 40
2.5350980000000001
 50
289.76883900000001
 51
306.411652
  0
ARC
  5
172
  8
0
 62
     7
 10
70.320231000000007
 20
157.456267
 30
0.0
 40
1.444480999999999
 50
307.550164
 51
328.88524200000001
  0
ARC
  5
173
  8
0
 62
     7
 10
70.770212000000001
 20
157.152119
 30
0.0
 40
0.9024979999999999
 50
330.65431599999999
 51
358.97231799999997
  0
ARC
  5
174
  8
0
 62
     7
 10
69.206531999999996
 20
165.29119700000001
 30
0.0
 40
2.4677090000000002
 50
2.1125919999999989
 51
87.887398000000005
  0
ARC
  5
175
  8
0
 62
     7
 10
69.297500999999997
 20
165.38216499999999
 30
0.0
 40
2.3750640000000001
 50
90.0
 51
179.99996999999999
  0
LINE
  5
176
  8
0
 62
     7
 10
52.847099999999998
 20
133.386
 30
0.0
 11
64.766300000000001
 21
133.386
 31
0.0
  0
LINE
  5
177
  8
0
 62
     7
 10
58.624400000000001
 20
140.887
 30
0.0
 11
62.695399999999999
 21
140.887
 31
0.0
  0
LINE
  5
178
  8
0
 62
     7
 10
54.0625
 20
146.17599999999999
 30
0.0
 11
53.470300000000002
 21
148.387
 31
0.0
  0
LINE
  5
179
  8
0
 62
     7
 10
53.470300000000002
 20
148.387
 30
0.0
 11
52.877899999999997
 21
146.17599999999999
 31
0.0
  0
LINE
  5
17A
  8
0
 62
     7
 10
52.877899999999997
 20
146.17599999999999
 30
0.0
 11
54.0625
 21
146.17599999999999
 31
0.0
  0
LINE
  5
17B
  8
0
 62
     7
 10
54.0625
 20
176.154
 30
0.0
 11
53.470300000000002
 21
178.36500000000001
 31
0.0
  0
LINE
  5
17C
  8
0
 62
     7
 10
53.470300000000002
 20
178.36500000000001
 30
0.0
 11
52.877899999999997
 21
176.154
 31
0.0
  0
LINE
  5
17D
  8
0
 62
     7
 10
52.877899999999997
 20
176.154
 30
0.0
 11
54.0625
 21
176.154
 31
0.0
  0
LINE
  5
17E
  8
0
 62
     7
 10
52.892499999999998
 20
150.59700000000001
 30
0.0
 11
53.4848
 21
148.387
 31
0.0
  0
LINE
  5
17F
  8
0
 62
     7
 10
53.4848
 20
148.387
 30
0.0
 11
54.077100000000002
 21
150.59700000000001
 31
0.0
  0
LINE
  5
180
  8
0
 62
     7
 10
54.077100000000002
 20
150.59700000000001
 30
0.0
 11
52.892499999999998
 21
150.59700000000001
 31
0.0
  0
LINE
  5
181
  8
0
 62
     7
 10
52.892499999999998
 20
135.59800000000001
 30
0.0
 11
53.4848
 21
133.387
 31
0.0
  0
LINE
  5
182
  8
0
 62
     7
 10
53.4848
 20
133.387
 30
0.0
 11
54.077100000000002
 21
135.59800000000001
 31
0.0
  0
LINE
  5
183
  8
0
 62
     7
 10
54.077100000000002
 20
135.59800000000001
 30
0.0
 11
52.892499999999998
 21
135.59800000000001
 31
0.0
  0
LINE
  5
184
  8
0
 62
     7
 10
53.470300000000002
 20
178.36600000000001
 30
0.0
 11
53.470300000000002
 21
133.386
 31
0.0
  0
LINE
  5
185
  8
0
 62
     7
 10
52.766800000000003
 20
178.37899999999999
 30
0.0
 11
63.614800000000002
 21
178.37899999999999
 31
0.0
  0
LINE
  5
186
  8
0
 62
     7
 10
59.832900000000002
 20
146.16200000000001
 30
0.0
 11
59.240699999999997
 21
148.37200000000001
 31
0.0
  0
LINE
  5
187
  8
0
 62
     7
 10
59.240699999999997
 20
148.37200000000001
 30
0.0
 11
58.648299999999999
 21
146.16200000000001
 31
0.0
  0
LINE
  5
188
  8
0
 62
     7
 10
58.648299999999999
 20
146.16200000000001
 30
0.0
 11
59.832900000000002
 21
146.16200000000001
 31
0.0
  0
LINE
  5
189
  8
0
 62
     7
 10
58.6629
 20
143.09700000000001
 30
0.0
 11
59.255200000000002
 21
140.887
 31
0.0
  0
LINE
  5
18A
  8
0
 62
     7
 10
59.255200000000002
 20
140.887
 30
0.0
 11
59.847499999999997
 21
143.09700000000001
 31
0.0
  0
LINE
  5
18B
  8
0
 62
     7
 10
59.847499999999997
 20
143.09700000000001
 30
0.0
 11
58.6629
 21
143.09700000000001
 31
0.0
  0
LINE
  5
18C
  8
0
 62
     7
 10
59.240699999999997
 20
148.37299999999999
 30
0.0
 11
59.240699999999997
 21
140.886
 31
0.0
  0
LINE
  5
18D
  8
0
 62
     7
 10
52.766800000000003
 20
148.387
 30
0.0
 11
63.005200000000002
 21
148.387
 31
0.0
  0
LINE
  5
18E
  8
0
 62
     7
 10
67.753399999999985
 20
178.37899999999999
 30
0.0
 11
67.753399999999985
 21
175.92099999999999
 31
0.0
  0
LINE
  5
18F
  8
0
 62
     7
 10
67.753399999999985
 20
175.92099999999999
 30
0.0
 11
70.8416
 21
175.92099999999999
 31
0.0
  0
LINE
  5
190
  8
0
 62
     7
 10
70.8416
 20
175.92099999999999
 30
0.0
 11
70.8416
 21
178.37899999999999
 31
0.0
  0
ARC
  5
191
  8
0
 62
     7
 10
69.318312000000006
 20
177.114553
 30
0.0
 40
0.8931879999999999
 50
0.273601
 51
44.707609999999988
  0
ARC
  5
192
  8
0
 62
     7
 10
69.325194999999994
 20
177.10916599999999
 30
0.0
 40
0.8921279999999999
 50
45.26450599999999
 51
89.743081000000004
  0
ARC
  5
193
  8
0
 62
     7
 10
69.334327999999999
 20
177.107269
 30
0.0
 40
0.8940309999999998
 50
90.328958
 51
134.68579299999999
  0
ARC
  5
194
  8
0
 62
     7
 10
69.341639999999984
 20
177.11355599999999
 30
0.0
 40
0.8947540000000001
 50
135.30177399999999
 51
179.66298499999999
  0
ARC
  5
195
  8
0
 62
     7
 10
69.339647999999997
 20
177.12308200000001
 30
0.0
 40
0.8927579999999998
 50
180.27365499999999
 51
224.75040000000001
  0
ARC
  5
196
  8
0
 62
     7
 10
69.332102000000006
 20
177.12600800000001
 30
0.0
 40
0.889489
 50
225.226493
 51
269.8127990000001
  0
ARC
  5
197
  8
0
 62
     7
 10
69.324069999999992
 20
177.13221100000001
 30
0.0
 40
0.8957019999999999
 50
270.32789200000002
 51
314.61049800000001
  0
ARC
  5
198
  8
0
 62
     7
 10
69.319377000000003
 20
177.12247300000001
 30
0.0
 40
0.8921229999999999
 50
315.26430800000003
 51
359.73211199999997
  0
LINE
  5
199
  8
0
 62
     7
 10
70.211500000000001
 20
177.11799999999999
 30
0.0
 11
70.211500000000001
 21
177.119
 31
0.0
  0
LINE
  5
19A
  8
0
 62
     7
 10
73.867099999999994
 20
170.00399999999999
 30
0.0
 11
73.867099999999994
 21
169.5
 31
0.0
  0
LINE
  5
19B
  8
0
 62
     7
 10
64.728200000000001
 20
170.00399999999999
 30
0.0
 11
64.728200000000001
 21
169.5
 31
0.0
  0
ARC
  5
19C
  8
0
 62
     7
 10
74.156646999999992
 20
178.29413500000001
 30
0.0
 40
0.097387
 50
107.593611
 51
119.324412
  0
ARC
  5
19D
  8
0
 62
     7
 10
74.171235999999993
 20
178.25117299999999
 30
0.0
 40
0.142751
 50
63.604553000000003
 51
107.96322600000001
  0
ARC
  5
19E
  8
0
 62
     7
 10
74.170348000000004
 20
178.25077200000001
 30
0.0
 40
0.143507
 50
19.030605000000001
 51
63.358385000000013
  0
ARC
  5
19F
  8
0
 62
     7
 10
74.164855000000003
 20
178.25425899999999
 30
0.0
 40
0.14765
 50
334.16062599999998
 51
17.055985
  0
LINE
  5
1A0
  8
0
 62
     7
 10
74.297700000000006
 20
178.19
 30
0.0
 11
74.297700000000006
 21
170.00399999999999
 31
0.0
  0
LINE
  5
1A1
  8
0
 62
     7
 10
74.297700000000006
 20
170.00399999999999
 30
0.0
 11
64.297600000000003
 21
170.00399999999999
 31
0.0
  0
LINE
  5
1A2
  8
0
 62
     7
 10
64.297600000000003
 20
170.00399999999999
 30
0.0
 11
64.297600000000003
 21
178.19
 31
0.0
  0
ARC
  5
1A3
  8
0
 62
     7
 10
64.406781999999993
 20
178.24523199999999
 30
0.0
 40
0.122399
 50
197.45932999999999
 51
206.87339600000001
  0
ARC
  5
1A4
  8
0
 62
     7
 10
64.423094999999989
 20
178.25323800000001
 30
0.0
 40
0.140388
 50
153.367425
 51
198.57861800000001
  0
ARC
  5
1A5
  8
0
 62
     7
 10
64.427560999999997
 20
178.24877000000001
 30
0.0
 40
0.146397
 50
109.268439
 51
152.58790400000001
  0
ARC
  5
1A6
  8
0
 62
     7
 10
64.423167000000007
 20
178.25244499999999
 30
0.0
 40
0.141508
 50
63.460929000000007
 51
108.079835
  0
LINE
  5
1A7
  8
0
 62
     7
 10
64.486400000000003
 20
178.37899999999999
 30
0.0
 11
74.108999999999995
 21
178.37899999999999
 31
0.0
  0
ARC
  5
1A8
  8
0
 62
     7
 10
105.432147
 20
157.22051099999999
 30
0.0
 40
16.712506999999999
 50
217.92111399999999
 51
269.5198299999999
  0
ARC
  5
1A9
  8
0
 62
     7
 10
105.294195
 20
157.102328
 30
0.0
 40
16.593737000000001
 50
269.99272500000001
 51
279.56417900000002
  0
LINE
  5
1AA
  8
0
 62
     7
 10
105.849
 20
141.173
 30
0.0
 11
103.63500000000001
 21
140.59100000000001
 31
0.0
  0
LINE
  5
1AB
  8
0
 62
     7
 10
103.63500000000001
 20
140.59100000000001
 30
0.0
 11
105.843
 21
139.988
 31
0.0
  0
LINE
  5
1AC
  8
0
 62
     7
 10
105.843
 20
139.988
 30
0.0
 11
105.849
 21
141.173
 31
0.0
  0
LINE
  5
1AD
  8
0
 62
     7
 10
92.591700000000003
 20
145.571
 30
0.0
 11
94.597099999999983
 21
144.46799999999999
 31
0.0
  0
LINE
  5
1AE
  8
0
 62
     7
 10
94.597099999999983
 20
144.46799999999999
 30
0.0
 11
93.411799999999985
 21
146.42599999999999
 31
0.0
  0
LINE
  5
1AF
  8
0
 62
     7
 10
93.411799999999985
 20
146.42599999999999
 30
0.0
 11
92.591700000000003
 21
145.571
 31
0.0
  0
ARC
  5
1B0
  8
0
 62
     7
 10
130.25405900000001
 20
102.928478
 30
0.0
 40
1.064284999999999
 50
240.31347099999999
 51
269.92408999999998
  0
ARC
  5
1B1
  8
0
 62
     7
 10
130.07850500000001
 20
102.58695400000001
 30
0.0
 40
0.680846
 50
212.296753
 51
238.91391200000001
  0
ARC
  5
1B2
  8
0
 62
     7
 10
130.251239
 20
102.928478
 30
0.0
 40
1.064284999999999
 50
270.07593000000003
 51
299.68654900000001
  0
ARC
  5
1B3
  8
0
 62
     7
 10
130.426793
 20
102.58695400000001
 30
0.0
 40
0.680846
 50
301.08610800000002
 51
327.70326699999998
  0
ARC
  5
1B4
  8
0
 62
     7
 10
130.251239
 20
101.517872
 30
0.0
 40
1.064284999999999
 50
60.313450999999993
 51
89.92407
  0
ARC
  5
1B5
  8
0
 62
     7
 10
130.426793
 20
101.859396
 30
0.0
 40
0.680846
 50
32.296733000000003
 51
58.913891999999997
  0
ARC
  5
1B6
  8
0
 62
     7
 10
130.25405900000001
 20
101.517872
 30
0.0
 40
1.064284999999999
 50
90.075909999999965
 51
119.68652899999999
  0
ARC
  5
1B7
  8
0
 62
     7
 10
130.07850500000001
 20
101.859396
 30
0.0
 40
0.680846
 50
121.086088
 51
147.703247
  0
ARC
  5
1B8
  8
0
 62
     7
 10
128.751229
 20
101.51643
 30
0.0
 40
1.0657270000000001
 50
60.334006999999993
 51
89.923888999999988
  0
ARC
  5
1B9
  8
0
 62
     7
 10
128.92731599999999
 20
101.85873100000001
 30
0.0
 40
0.6813380000000001
 50
32.336767999999999
 51
58.953650000000003
  0
ARC
  5
1BA
  8
0
 62
     7
 10
128.75405499999999
 20
101.517872
 30
0.0
 40
1.064284999999999
 50
90.075909999999965
 51
119.68652899999999
  0
ARC
  5
1BB
  8
0
 62
     7
 10
128.57850099999999
 20
101.859396
 30
0.0
 40
0.680846
 50
121.086088
 51
147.703247
  0
LINE
  5
1BC
  8
0
 62
     7
 10
130.75299999999999
 20
68.478300000000004
 30
0.0
 11
128.25299999999999
 21
68.478300000000004
 31
0.0
  0
LINE
  5
1BD
  8
0
 62
     7
 10
130.75299999999999
 20
65.978099999999984
 30
0.0
 11
128.25299999999999
 21
65.978099999999984
 31
0.0
  0
LINE
  5
1BE
  8
0
 62
     7
 10
127.658
 20
77.5685
 30
0.0
 11
127.658
 21
75.8797
 31
0.0
  0
LINE
  5
1BF
  8
0
 62
     7
 10
127.658
 20
77.5685
 30
0.0
 11
129.50299999999999
 21
77.5685
 31
0.0
  0
LINE
  5
1C0
  8
0
 62
     7
 10
127.931
 20
75.606200000000001
 30
0.0
 11
127.931
 21
73.379999999999995
 31
0.0
  0
LINE
  5
1C1
  8
0
 62
     7
 10
127.931
 20
75.606200000000001
 30
0.0
 11
127.658
 21
75.8797
 31
0.0
  0
LINE
  5
1C2
  8
0
 62
     7
 10
129.012
 20
75.606200000000001
 30
0.0
 11
129.012
 21
73.379999999999995
 31
0.0
  0
LINE
  5
1C3
  8
0
 62
     7
 10
128.62100000000001
 20
75.606200000000001
 30
0.0
 11
128.62100000000001
 21
73.379999999999995
 31
0.0
  0
LINE
  5
1C4
  8
0
 62
     7
 10
128.62100000000001
 20
75.606200000000001
 30
0.0
 11
127.931
 21
75.606200000000001
 31
0.0
  0
LINE
  5
1C5
  8
0
 62
     7
 10
129.50299999999999
 20
75.606200000000001
 30
0.0
 11
129.012
 21
75.606200000000001
 31
0.0
  0
ARC
  5
1C6
  8
0
 62
     7
 10
127.948628
 20
72.946669
 30
0.0
 40
0.4689550000000001
 50
182.20157699999999
 51
267.88599399999998
  0
ARC
  5
1C7
  8
0
 62
     7
 10
127.948285
 20
72.911698000000001
 30
0.0
 40
0.468573
 50
92.073751000000001
 51
177.926219
  0
LINE
  5
1C8
  8
0
 62
     7
 10
128.62100000000001
 20
73.379999999999995
 30
0.0
 11
127.931
 21
73.379999999999995
 31
0.0
  0
LINE
  5
1C9
  8
0
 62
     7
 10
129.50299999999999
 20
73.379999999999995
 30
0.0
 11
129.012
 21
73.379999999999995
 31
0.0
  0
LINE
  5
1CA
  8
0
 62
     7
 10
128.25299999999999
 20
65.978099999999984
 30
0.0
 11
128.25299999999999
 21
72.478000000000009
 31
0.0
  0
LINE
  5
1CB
  8
0
 62
     7
 10
129.50299999999999
 20
72.478000000000009
 30
0.0
 11
127.931
 21
72.478000000000009
 31
0.0
  0
LINE
  5
1CC
  8
0
 62
     7
 10
131.34800000000001
 20
77.5685
 30
0.0
 11
131.34800000000001
 21
75.8797
 31
0.0
  0
LINE
  5
1CD
  8
0
 62
     7
 10
131.34800000000001
 20
77.5685
 30
0.0
 11
129.50299999999999
 21
77.5685
 31
0.0
  0
LINE
  5
1CE
  8
0
 62
     7
 10
131.07499999999999
 20
75.606200000000001
 30
0.0
 11
131.07499999999999
 21
73.379999999999995
 31
0.0
  0
LINE
  5
1CF
  8
0
 62
     7
 10
131.07499999999999
 20
75.606200000000001
 30
0.0
 11
131.34800000000001
 21
75.8797
 31
0.0
  0
LINE
  5
1D0
  8
0
 62
     7
 10
129.994
 20
75.606200000000001
 30
0.0
 11
129.994
 21
73.379999999999995
 31
0.0
  0
LINE
  5
1D1
  8
0
 62
     7
 10
130.38499999999999
 20
75.606200000000001
 30
0.0
 11
130.38499999999999
 21
73.379999999999995
 31
0.0
  0
LINE
  5
1D2
  8
0
 62
     7
 10
130.38499999999999
 20
75.606200000000001
 30
0.0
 11
131.07499999999999
 21
75.606200000000001
 31
0.0
  0
LINE
  5
1D3
  8
0
 62
     7
 10
129.50299999999999
 20
75.606200000000001
 30
0.0
 11
129.994
 21
75.606200000000001
 31
0.0
  0
ARC
  5
1D4
  8
0
 62
     7
 10
131.05730600000001
 20
72.91130600000001
 30
0.0
 40
0.468979
 50
2.119858999999999
 51
87.88013100000002
  0
ARC
  5
1D5
  8
0
 62
     7
 10
131.05838
 20
72.945643000000004
 30
0.0
 40
0.4678930000000001
 50
271.99328100000002
 51
357.91918700000002
  0
LINE
  5
1D6
  8
0
 62
     7
 10
130.38499999999999
 20
73.379999999999995
 30
0.0
 11
131.07499999999999
 21
73.379999999999995
 31
0.0
  0
LINE
  5
1D7
  8
0
 62
     7
 10
129.50299999999999
 20
73.379999999999995
 30
0.0
 11
129.994
 21
73.379999999999995
 31
0.0
  0
LINE
  5
1D8
  8
0
 62
     7
 10
130.75299999999999
 20
65.978099999999984
 30
0.0
 11
130.75299999999999
 21
72.478000000000009
 31
0.0
  0
LINE
  5
1D9
  8
0
 62
     7
 10
129.50299999999999
 20
72.478000000000009
 30
0.0
 11
131.07499999999999
 21
72.478000000000009
 31
0.0
  0
LINE
  5
1DA
  8
0
 62
     7
 10
131.00299999999999
 20
77.569199999999995
 30
0.0
 11
131.00299999999999
 21
102.223
 31
0.0
  0
LINE
  5
1DB
  8
0
 62
     7
 10
128.00299999999999
 20
77.569199999999995
 30
0.0
 11
128.00299999999999
 21
102.223
 31
0.0
  0
LINE
  5
1DC
  8
0
  6
AIGENLINE001
 62
     7
 10
129.50299999999999
 20
134.17400000000001
 30
0.0
 11
129.50299999999999
 21
64.539400000000001
 31
0.0
  0
LINE
  5
1DD
  8
0
 62
     7
 10
131.00299999999999
 20
132.869
 30
0.0
 11
130.48599999999999
 21
133.386
 31
0.0
  0
LINE
  5
1DE
  8
0
 62
     7
 10
128.52000000000001
 20
133.386
 30
0.0
 11
128.00299999999999
 21
132.869
 31
0.0
  0
LINE
  5
1DF
  8
0
 62
     7
 10
131.00299999999999
 20
131.767
 30
0.0
 11
129.38399999999999
 21
133.386
 31
0.0
  0
LINE
  5
1E0
  8
0
 62
     7
 10
129.62200000000001
 20
133.386
 30
0.0
 11
128.00299999999999
 21
131.767
 31
0.0
  0
LINE
  5
1E1
  8
0
 62
     7
 10
131.00299999999999
 20
130.666
 30
0.0
 11
128.28299999999999
 21
133.386
 31
0.0
  0
LINE
  5
1E2
  8
0
 62
     7
 10
130.72300000000001
 20
133.386
 30
0.0
 11
128.00299999999999
 21
130.666
 31
0.0
  0
LINE
  5
1E3
  8
0
 62
     7
 10
130.28200000000001
 20
130.286
 30
0.0
 11
128.00299999999999
 21
132.565
 31
0.0
  0
LINE
  5
1E4
  8
0
 62
     7
 10
131.00299999999999
 20
132.565
 30
0.0
 11
128.72399999999999
 21
130.286
 31
0.0
  0
LINE
  5
1E5
  8
0
 62
     7
 10
129.18100000000001
 20
130.286
 30
0.0
 11
128.00299999999999
 21
131.464
 31
0.0
  0
LINE
  5
1E6
  8
0
 62
     7
 10
131.00299999999999
 20
131.464
 30
0.0
 11
129.82499999999999
 21
130.286
 31
0.0
  0
LINE
  5
1E7
  8
0
 62
     7
 10
131.00299999999999
 20
104.07599999999999
 30
0.0
 11
131.00299999999999
 21
133.386
 31
0.0
  0
LINE
  5
1E8
  8
0
 62
     7
 10
128.00299999999999
 20
104.07599999999999
 30
0.0
 11
128.00299999999999
 21
133.386
 31
0.0
  0
ARC
  5
1E9
  8
0
 62
     7
 10
128.751924
 20
103.370312
 30
0.0
 40
1.064284999999999
 50
60.313450999999993
 51
89.92407
  0
ARC
  5
1EA
  8
0
 62
     7
 10
128.92747800000001
 20
103.71183600000001
 30
0.0
 40
0.680846
 50
32.296733000000003
 51
58.913891999999997
  0
ARC
  5
1EB
  8
0
 62
     7
 10
128.754749
 20
103.36907600000001
 30
0.0
 40
1.0655209999999991
 50
90.076064999999986
 51
119.668908
  0
ARC
  5
1EC
  8
0
 62
     7
 10
128.577518
 20
103.713157
 30
0.0
 40
0.6790180000000001
 50
121.04617399999999
 51
147.73765499999999
  0
ARC
  5
1ED
  8
0
 62
     7
 10
128.754749
 20
104.78215299999999
 30
0.0
 40
1.0655209999999991
 50
240.33109200000001
 51
269.92393499999997
  0
ARC
  5
1EE
  8
0
 62
     7
 10
128.577518
 20
104.43807200000001
 30
0.0
 40
0.6790180000000001
 50
212.26234500000001
 51
238.95382599999999
  0
ARC
  5
1EF
  8
0
 62
     7
 10
128.751924
 20
104.780917
 30
0.0
 40
1.064284999999999
 50
270.07593000000003
 51
299.68654900000001
  0
ARC
  5
1F0
  8
0
 62
     7
 10
128.92747800000001
 20
104.439393
 30
0.0
 40
0.680846
 50
301.08610800000002
 51
327.70326699999998
  0
ARC
  5
1F1
  8
0
 62
     7
 10
130.25439700000001
 20
104.782031
 30
0.0
 40
1.0653980000000001
 50
240.32934299999999
 51
269.92451999999997
  0
ARC
  5
1F2
  8
0
 62
     7
 10
130.07818499999999
 20
104.43913499999999
 30
0.0
 40
0.680437
 50
212.29277099999999
 51
238.92890600000001
  0
ARC
  5
1F3
  8
0
 62
     7
 10
130.25158099999999
 20
104.78161799999999
 30
0.0
 40
1.0649850000000001
 50
270.07601799999998
 51
299.67656099999999
  0
ARC
  5
1F4
  8
0
 62
     7
 10
130.427661
 20
104.439469
 30
0.0
 40
0.6807350000000002
 50
301.058269
 51
327.68982
  0
LINE
  5
1F5
  8
0
 62
     7
 10
59.746600000000001
 20
220.60499999999999
 30
0.0
 11
55.997599999999991
 21
216.85599999999999
 31
0.0
  0
LINE
  5
1F6
  8
0
 62
     7
 10
78.904700000000005
 20
220.61199999999999
 30
0.0
 11
82.563599999999994
 21
216.95400000000001
 31
0.0
  0
ARC
  5
1F7
  8
0
 62
     7
 10
70.15949599999999
 20
203.44139100000001
 30
0.0
 40
1.5447690000000001
 50
323.64811800000001
 51
359.84095000000008
  0
ARC
  5
1F8
  8
0
 62
     7
 10
69.776775000000001
 20
203.686576
 30
0.0
 40
1.9985580000000001
 50
302.87582600000002
 51
324.490567
  0
ARC
  5
1F9
  8
0
 62
     7
 10
69.409514999999999
 20
204.20518999999999
 30
0.0
 40
2.6336080000000002
 50
274.187613
 51
303.46168299999999
  0
ARC
  5
1FA
  8
0
 62
     7
 10
69.330534
 20
204.586715
 30
0.0
 40
3.0203109999999991
 50
269.97461900000002
 51
275.15344700000003
  0
ARC
  5
1FB
  8
0
 62
     7
 10
69.331018999999998
 20
204.50154599999999
 30
0.0
 40
2.935141999999999
 50
244.100784
 51
269.96441399999998
  0
ARC
  5
1FC
  8
0
 62
     7
 10
69.079903000000002
 20
203.90723700000001
 30
0.0
 40
2.2910870000000001
 50
218.94190499999999
 51
243.25815399999999
  0
ARC
  5
1FD
  8
0
 62
     7
 10
68.608768000000012
 20
203.47775300000001
 30
0.0
 40
1.6551359999999999
 50
181.407353
 51
217.62903399999999
  0
ARC
  5
1FE
  8
0
 62
     7
 10
70.158291000000006
 20
206.308425
 30
0.0
 40
1.545974
 50
323.66277700000001
 51
359.84078299999999
  0
ARC
  5
1FF
  8
0
 62
     7
 10
69.777773999999994
 20
206.552029
 30
0.0
 40
1.9970549999999989
 50
302.86954300000002
 51
324.50161100000003
  0
ARC
  5
200
  8
0
 62
     7
 10
69.409901000000005
 20
207.071181
 30
0.0
 40
2.632890999999999
 50
274.18034
 51
303.46193799999998
  0
ARC
  5
201
  8
0
 62
     7
 10
69.330534
 20
207.453397
 30
0.0
 40
3.0203109999999991
 50
269.97461900000002
 51
275.15344700000003
  0
ARC
  5
202
  8
0
 62
     7
 10
69.331019999999995
 20
207.36881399999999
 30
0.0
 40
2.9357279999999988
 50
244.1063
 51
269.96438899999998
  0
ARC
  5
203
  8
0
 62
     7
 10
69.079903000000002
 20
206.773855
 30
0.0
 40
2.2910870000000001
 50
218.94190499999999
 51
243.25815399999999
  0
ARC
  5
204
  8
0
 62
     7
 10
68.609635999999995
 20
206.344661
 30
0.0
 40
1.655999999999999
 50
181.40251000000001
 51
217.618662
  0
LINE
  5
205
  8
0
 62
     7
 10
71.704300000000003
 20
203.43700000000001
 30
0.0
 11
71.704300000000003
 21
225.786
 31
0.0
  0
LINE
  5
206
  8
0
 62
     7
 10
66.954099999999997
 20
203.43700000000001
 30
0.0
 11
66.954099999999997
 21
225.786
 31
0.0
  0
LINE
  5
207
  8
0
 62
     7
 10
108.348
 20
159.65299999999999
 30
0.0
 11
105.714
 21
155.96100000000001
 31
0.0
  0
LINE
  5
208
  8
0
 62
     7
 10
125.38500000000001
 20
163.00700000000001
 30
0.0
 11
114.861
 21
163.00700000000001
 31
0.0
  0
ARC
  5
209
  8
0
 62
     7
 10
114.930725
 20
154.87193199999999
 30
0.0
 40
8.1358169999999994
 50
90.494166000000007
 51
144.00964200000001
  0
LINE
  5
20A
  8
0
 62
     7
 10
102.15300000000001
 20
155.059
 30
0.0
 11
94.072900000000004
 21
143.733
 31
0.0
  0
LINE
  5
20B
  8
0
  6
AIGENLINE001
 62
     7
 10
106.41500000000001
 20
161.03200000000001
 30
0.0
 11
102.476
 21
155.512
 31
0.0
  0
LINE
  5
20C
  8
0
  6
AIGENLINE001
 62
     7
 10
130.386
 20
165.38300000000001
 30
0.0
 11
114.861
 21
165.38300000000001
 31
0.0
  0
ARC
  5
20D
  8
0
  6
AIGENLINE001
 62
     7
 10
114.952634
 20
154.82991799999999
 30
0.0
 40
10.552993000000001
 50
90.499928999999995
 51
144.00532899999999
  0
LINE
  5
20E
  8
0
 62
     7
 10
104.48
 20
162.411
 30
0.0
 11
101.848
 21
158.71899999999999
 31
0.0
  0
LINE
  5
20F
  8
0
 62
     7
 10
125.38500000000001
 20
167.75700000000001
 30
0.0
 11
114.861
 21
167.75700000000001
 31
0.0
  0
ARC
  5
210
  8
0
 62
     7
 10
114.97311500000001
 20
154.78849
 30
0.0
 40
12.969227999999999
 50
90.497270999999998
 51
144.00279399999999
  0
LINE
  5
211
  8
0
 62
     7
 10
103.636
 20
157.137
 30
0.0
 11
101.90600000000001
 21
158.37
 31
0.0
  0
ARC
  5
212
  8
0
 62
     7
 10
102.065674
 20
158.57648599999999
 30
0.0
 40
0.260633
 50
146.77125100000001
 51
232.28177500000001
  0
LINE
  5
213
  8
0
 62
     7
 10
105.366
 20
155.90299999999999
 30
0.0
 11
103.636
 21
157.137
 31
0.0
  0
ARC
  5
214
  8
0
 62
     7
 10
105.508858
 20
156.11897500000001
 30
0.0
 40
0.259401
 50
236.533312
 51
322.42807299999998
  0
LINE
  5
215
  8
0
 62
     7
 10
108.473
 20
159.828
 30
0.0
 11
104.60599999999999
 21
162.58600000000001
 31
0.0
  0
TEXT
  5
216
  8
0
 62
     7
 10
96.074834999999993
 20
137.49799999999999
 30
0.0
 40
3.0923400000000001
  1
35%%d
 41
0.5
 72
     1
 11
97.878699999999995
 21
137.49799999999999
 31
0.0
  0
LINE
  5
217
  8
0
 62
     7
 10
57.69809999999999
 20
215.405
 30
0.0
 11
56.497500000000002
 21
217.35499999999999
 31
0.0
  0
LINE
  5
218
  8
0
 62
     7
 10
56.497500000000002
 20
217.35499999999999
 30
0.0
 11
58.5122
 21
216.267
 31
0.0
  0
LINE
  5
219
  8
0
 62
     7
 10
58.5122
 20
216.267
 30
0.0
 11
57.69809999999999
 21
215.405
 31
0.0
  0
LINE
  5
21A
  8
0
 62
     7
 10
80.960599999999985
 20
215.40600000000001
 30
0.0
 11
82.161199999999994
 21
217.35599999999999
 31
0.0
  0
LINE
  5
21B
  8
0
 62
     7
 10
82.161199999999994
 20
217.35599999999999
 30
0.0
 11
80.146500000000003
 21
216.268
 31
0.0
  0
LINE
  5
21C
  8
0
 62
     7
 10
80.146500000000003
 20
216.268
 30
0.0
 11
80.960599999999985
 21
215.40600000000001
 31
0.0
  0
ARC
  5
21D
  8
0
 62
     7
 10
69.239248000000003
 20
230.40551099999999
 30
0.0
 40
18.364788999999998
 50
270.27848599999999
 51
314.718796
  0
ARC
  5
21E
  8
0
 62
     7
 10
69.417027000000004
 20
230.40123399999999
 30
0.0
 40
18.360507999999999
 50
225.27880099999999
 51
269.723771
  0
ARC
  5
21F
  8
0
 62
     7
 10
121.29962
 20
164.64770999999999
 30
0.0
 40
5.1339040000000002
 50
29.42786400000001
 51
37.278008999999997
  0
ARC
  5
220
  8
0
 62
     7
 10
122.741326
 20
165.50261599999999
 30
0.0
 40
3.4583659999999998
 50
7.7481479999999996
 51
28.827261000000011
  0
ARC
  5
221
  8
0
 62
     7
 10
122.144553
 20
165.44893400000001
 30
0.0
 40
4.0570199999999987
 50
323.00154099999997
 51
7.3630899999999988
  0
LINE
  5
222
  8
0
 62
     7
 10
148.18000000000001
 20
224.44499999999999
 30
0.0
 11
136.12799999999999
 21
224.44499999999999
 31
0.0
  0
LINE
  5
223
  8
0
 62
     7
 10
67.7851
 20
234.94300000000001
 30
0.0
 11
67.7851
 21
225.43199999999999
 31
0.0
  0
LINE
  5
224
  8
0
 62
     7
 10
70.873099999999994
 20
234.94399999999999
 30
0.0
 11
70.873099999999994
 21
225.43100000000001
 31
0.0
  0
ARC
  5
225
  8
0
 62
     7
 10
69.329281000000009
 20
230.18749199999999
 30
0.0
 40
5.000157999999999
 50
269.999033
 51
359.99900300000002
  0
ARC
  5
226
  8
0
 62
     7
 10
69.329281000000009
 20
230.187318
 30
0.0
 40
4.9999839999999987
 50
179.99898300000001
 51
269.999033
  0
ARC
  5
227
  8
0
 62
     7
 10
69.329281999999992
 20
230.18749
 30
0.0
 40
4.9999859999999989
 50
90.000986999999981
 51
180.0009969999999
  0
ARC
  5
228
  8
0
 62
     7
 10
69.329281000000009
 20
230.187318
 30
0.0
 40
5.000157999999999
 50
0.000997
 51
90.000967000000017
  0
LINE
  5
229
  8
0
  6
AIGENLINE001
 62
     7
 10
69.329400000000007
 20
230.18700000000001
 30
0.0
 11
78.5184
 21
220.999
 31
0.0
  0
LINE
  5
22A
  8
0
  6
AIGENLINE003
 62
     7
 10
73.505899999999997
 20
227.43700000000001
 30
0.0
 11
78.019499999999994
 21
222.923
 31
0.0
  0
ARC
  5
22B
  8
0
  6
AIGENLINE003
 62
     7
 10
77.840783999999999
 20
222.78883300000001
 30
0.0
 40
0.223598
 50
352.031837
 51
36.937626999999999
  0
ARC
  5
22C
  8
0
  6
AIGENLINE003
 62
     7
 10
77.837988999999993
 20
222.79152999999999
 30
0.0
 40
0.226751
 50
323.25060999999999
 51
351.45469800000001
  0
LINE
  5
22D
  8
0
  6
AIGENLINE003
 62
     7
 10
78.0197
 20
222.65600000000001
 30
0.0
 11
76.860699999999994
 21
221.49700000000001
 31
0.0
  0
ARC
  5
22E
  8
0
  6
AIGENLINE003
 62
     7
 10
76.727598999999984
 20
221.67333199999999
 30
0.0
 40
0.220873
 50
261.79106899999999
 51
307.06976700000001
  0
ARC
  5
22F
  8
0
  6
AIGENLINE003
 62
     7
 10
76.729950000000002
 20
221.68107499999999
 30
0.0
 40
0.228876
 50
233.425408
 51
261.48539499999998
  0
LINE
  5
230
  8
0
  6
AIGENLINE003
 62
     7
 10
76.593599999999995
 20
221.49700000000001
 30
0.0
 11
72.079800000000006
 21
226.011
 31
0.0
  0
LINE
  5
231
  8
0
  6
AIGENLINE001
 62
     7
 10
69.329400000000007
 20
230.18700000000001
 30
0.0
 11
60.1404
 21
220.999
 31
0.0
  0
LINE
  5
232
  8
0
  6
AIGENLINE003
 62
     7
 10
65.152900000000002
 20
227.43700000000001
 30
0.0
 11
60.639200000000002
 21
222.923
 31
0.0
  0
ARC
  5
233
  8
0
  6
AIGENLINE003
 62
     7
 10
60.817951000000001
 20
222.78883300000001
 30
0.0
 40
0.223597
 50
143.06233399999999
 51
187.96820199999999
  0
ARC
  5
234
  8
0
  6
AIGENLINE003
 62
     7
 10
60.820746
 20
222.79152999999999
 30
0.0
 40
0.226751
 50
188.545321
 51
216.74941000000001
  0
LINE
  5
235
  8
0
  6
AIGENLINE003
 62
     7
 10
60.639099999999992
 20
222.65600000000001
 30
0.0
 11
61.798000000000002
 21
221.49700000000001
 31
0.0
  0
ARC
  5
236
  8
0
  6
AIGENLINE003
 62
     7
 10
61.931358000000003
 20
221.67419200000001
 30
0.0
 40
0.221693
 50
233.01858799999999
 51
278.12061599999998
  0
ARC
  5
237
  8
0
  6
AIGENLINE003
 62
     7
 10
61.928456999999987
 20
221.68186700000001
 30
0.0
 40
0.229708
 50
278.56648999999999
 51
306.52274699999998
  0
LINE
  5
238
  8
0
  6
AIGENLINE003
 62
     7
 10
62.065199999999997
 20
221.49700000000001
 30
0.0
 11
66.578999999999994
 21
226.011
 31
0.0
  0
LINE
  5
239
  8
0
  6
AIGENLINE001
 62
     7
 10
61.392499999999998
 20
230.18700000000001
 30
0.0
 11
76.995800000000003
 21
230.18700000000001
 31
0.0
  0
LINE
  5
23A
  8
0
  6
AIGENLINE001
 62
     7
 10
69.3292
 20
236.911
 30
0.0
 11
69.3292
 21
200.244
 31
0.0
  0
LINE
  5
23B
  8
0
 62
     7
 10
133.19200000000001
 20
153.10300000000001
 30
0.0
 11
135.40299999999999
 21
153.69499999999999
 31
0.0
  0
LINE
  5
23C
  8
0
 62
     7
 10
135.40299999999999
 20
153.69499999999999
 30
0.0
 11
133.19200000000001
 21
154.28800000000001
 31
0.0
  0
LINE
  5
23D
  8
0
 62
     7
 10
133.19200000000001
 20
154.28800000000001
 30
0.0
 11
133.19200000000001
 21
153.10300000000001
 31
0.0
  0
LINE
  5
23E
  8
0
 62
     7
 10
127.642
 20
154.273
 30
0.0
 11
125.431
 21
153.68100000000001
 31
0.0
  0
LINE
  5
23F
  8
0
 62
     7
 10
125.431
 20
153.68100000000001
 30
0.0
 11
127.642
 21
153.08799999999999
 31
0.0
  0
LINE
  5
240
  8
0
 62
     7
 10
127.642
 20
153.08799999999999
 30
0.0
 11
127.642
 21
154.273
 31
0.0
  0
LINE
  5
241
  8
0
 62
     7
 10
135.40299999999999
 20
153.68100000000001
 30
0.0
 11
125.43000000000001
 21
153.68100000000001
 31
0.0
  0
LINE
  5
242
  8
0
 62
     7
 10
135.196
 20
226.214
 30
0.0
 11
133.214
 21
227.35900000000001
 31
0.0
  0
LINE
  5
243
  8
0
 62
     7
 10
133.214
 20
227.35900000000001
 30
0.0
 11
134.35900000000001
 21
225.37700000000001
 31
0.0
  0
LINE
  5
244
  8
0
 62
     7
 10
134.35900000000001
 20
225.37700000000001
 30
0.0
 11
135.196
 21
226.214
 31
0.0
  0
LINE
  5
245
  8
0
 62
     7
 10
125.566
 20
234.16900000000001
 30
0.0
 11
127.548
 21
233.02500000000001
 31
0.0
  0
LINE
  5
246
  8
0
 62
     7
 10
127.548
 20
233.02500000000001
 30
0.0
 11
126.404
 21
235.00700000000001
 31
0.0
  0
LINE
  5
247
  8
0
 62
     7
 10
126.404
 20
235.00700000000001
 30
0.0
 11
125.566
 21
234.16900000000001
 31
0.0
  0
LINE
  5
248
  8
0
 62
     7
 10
125.098
 20
235.47499999999999
 30
0.0
 11
127.548
 21
233.02500000000001
 31
0.0
  0
LINE
  5
249
  8
0
 62
     7
 10
127.557
 20
233.01599999999999
 30
0.0
 11
133.214
 21
227.35900000000001
 31
0.0
  0
LINE
  5
24A
  8
0
 62
     7
 10
133.214
 20
227.35900000000001
 30
0.0
 11
136.12799999999999
 21
224.44499999999999
 31
0.0
  0
LINE
  5
24B
  8
0
  6
AIGENLINE002
 62
     7
 10
130.386
 20
223.68700000000001
 30
0.0
 11
130.386
 21
236.68000000000001
 31
0.0
  0
LINE
  5
24C
  8
0
  6
AIGENLINE002
 62
     7
 10
123.886
 20
230.18700000000001
 30
0.0
 11
136.886
 21
230.18700000000001
 31
0.0
  0
LINE
  5
24D
  8
0
 62
     7
 10
116.855
 20
153.648
 30
0.0
 11
116.26300000000001
 21
155.858
 31
0.0
  0
LINE
  5
24E
  8
0
 62
     7
 10
116.26300000000001
 20
155.858
 30
0.0
 11
115.67100000000001
 21
153.648
 31
0.0
  0
LINE
  5
24F
  8
0
 62
     7
 10
115.67100000000001
 20
153.648
 30
0.0
 11
116.855
 21
153.648
 31
0.0
  0
LINE
  5
250
  8
0
 62
     7
 10
115.685
 20
150.61099999999999
 30
0.0
 11
116.277
 21
148.40100000000001
 31
0.0
  0
LINE
  5
251
  8
0
 62
     7
 10
116.277
 20
148.40100000000001
 30
0.0
 11
116.869
 21
150.61099999999999
 31
0.0
  0
LINE
  5
252
  8
0
 62
     7
 10
116.869
 20
150.61099999999999
 30
0.0
 11
115.685
 21
150.61099999999999
 31
0.0
  0
LINE
  5
253
  8
0
 62
     7
 10
116.26300000000001
 20
155.85900000000001
 30
0.0
 11
116.26300000000001
 21
148.40000000000001
 31
0.0
  0
LINE
  5
254
  8
0
 62
     7
 10
116.96299999999999
 20
155.858
 30
0.0
 11
106.584
 21
155.858
 31
0.0
  0
LINE
  5
255
  8
0
 62
     7
 10
93.499099999999984
 20
154.91200000000001
 30
0.0
 11
92.906899999999993
 21
157.12200000000001
 31
0.0
  0
LINE
  5
256
  8
0
 62
     7
 10
92.906899999999993
 20
157.12200000000001
 30
0.0
 11
92.314699999999988
 21
154.91200000000001
 31
0.0
  0
LINE
  5
257
  8
0
 62
     7
 10
92.314699999999988
 20
154.91200000000001
 30
0.0
 11
93.499099999999984
 21
154.91200000000001
 31
0.0
  0
LINE
  5
258
  8
0
 62
     7
 10
92.329099999999997
 20
150.61099999999999
 30
0.0
 11
92.921400000000006
 21
148.40100000000001
 31
0.0
  0
LINE
  5
259
  8
0
 62
     7
 10
92.921400000000006
 20
148.40100000000001
 30
0.0
 11
93.513599999999997
 21
150.61099999999999
 31
0.0
  0
LINE
  5
25A
  8
0
 62
     7
 10
93.513599999999997
 20
150.61099999999999
 30
0.0
 11
92.329099999999997
 21
150.61099999999999
 31
0.0
  0
LINE
  5
25B
  8
0
 62
     7
 10
92.906899999999993
 20
157.12299999999999
 30
0.0
 11
92.906899999999993
 21
148.40000000000001
 31
0.0
  0
LINE
  5
25C
  8
0
 62
     7
 10
150.571
 20
150.61199999999999
 30
0.0
 11
151.16300000000001
 21
148.40100000000001
 31
0.0
  0
LINE
  5
25D
  8
0
 62
     7
 10
151.16300000000001
 20
148.40100000000001
 30
0.0
 11
151.755
 21
150.61199999999999
 31
0.0
  0
LINE
  5
25E
  8
0
 62
     7
 10
151.755
 20
150.61199999999999
 30
0.0
 11
150.571
 21
150.61199999999999
 31
0.0
  0
LINE
  5
25F
  8
0
 62
     7
 10
151.74100000000001
 20
179.66200000000001
 30
0.0
 11
151.148
 21
181.87299999999999
 31
0.0
  0
LINE
  5
260
  8
0
 62
     7
 10
151.148
 20
181.87299999999999
 30
0.0
 11
150.55600000000001
 21
179.66200000000001
 31
0.0
  0
LINE
  5
261
  8
0
 62
     7
 10
150.55600000000001
 20
179.66200000000001
 30
0.0
 11
151.74100000000001
 21
179.66200000000001
 31
0.0
  0
LINE
  5
262
  8
0
 62
     7
 10
151.148
 20
148.40000000000001
 30
0.0
 11
151.148
 21
181.874
 31
0.0
  0
LINE
  5
263
  8
0
 62
     7
 10
143.55099999999999
 20
150.61199999999999
 30
0.0
 11
144.14400000000001
 21
148.40100000000001
 31
0.0
  0
LINE
  5
264
  8
0
 62
     7
 10
144.14400000000001
 20
148.40100000000001
 30
0.0
 11
144.73599999999999
 21
150.61199999999999
 31
0.0
  0
LINE
  5
265
  8
0
 62
     7
 10
144.73599999999999
 20
150.61199999999999
 30
0.0
 11
143.55099999999999
 21
150.61199999999999
 31
0.0
  0
LINE
  5
266
  8
0
 62
     7
 10
144.721
 20
176.16200000000001
 30
0.0
 11
144.12899999999999
 21
178.37299999999999
 31
0.0
  0
LINE
  5
267
  8
0
 62
     7
 10
144.12899999999999
 20
178.37299999999999
 30
0.0
 11
143.53700000000001
 21
176.16200000000001
 31
0.0
  0
LINE
  5
268
  8
0
 62
     7
 10
143.53700000000001
 20
176.16200000000001
 30
0.0
 11
144.721
 21
176.16200000000001
 31
0.0
  0
LINE
  5
269
  8
0
 62
     7
 10
144.12899999999999
 20
148.40000000000001
 30
0.0
 11
144.12899999999999
 21
178.374
 31
0.0
  0
LINE
  5
26A
  8
0
 62
     7
 10
128.16
 20
187.83199999999999
 30
0.0
 11
130.37100000000001
 21
188.42400000000001
 31
0.0
  0
LINE
  5
26B
  8
0
 62
     7
 10
130.37100000000001
 20
188.42400000000001
 30
0.0
 11
128.16
 21
189.017
 31
0.0
  0
LINE
  5
26C
  8
0
 62
     7
 10
128.16
 20
189.017
 30
0.0
 11
128.16
 21
187.83199999999999
 31
0.0
  0
LINE
  5
26D
  8
0
 62
     7
 10
105.86
 20
189.00200000000001
 30
0.0
 11
103.65000000000001
 21
188.41
 31
0.0
  0
LINE
  5
26E
  8
0
 62
     7
 10
103.65000000000001
 20
188.41
 30
0.0
 11
105.86
 21
187.81700000000001
 31
0.0
  0
LINE
  5
26F
  8
0
 62
     7
 10
105.86
 20
187.81700000000001
 30
0.0
 11
105.86
 21
189.00200000000001
 31
0.0
  0
LINE
  5
270
  8
0
 62
     7
 10
130.37200000000001
 20
188.41
 30
0.0
 11
103.649
 21
188.41
 31
0.0
  0
LINE
  5
271
  8
0
 62
     7
 10
102.586
 20
157.137
 30
0.0
 11
92.206799999999987
 21
157.137
 31
0.0
  0
LINE
  5
272
  8
0
  6
AIGENLINE002
 62
     7
 10
130.386
 20
131.91999999999999
 30
0.0
 11
130.386
 21
141.393
 31
0.0
  0
LINE
  5
273
  8
0
 62
     7
 10
68.320999999999998
 20
225.28899999999999
 30
0.0
 11
68.320999999999998
 21
218.90600000000001
 31
0.0
  0
ARC
  5
274
  8
0
 62
     7
 10
68.543940000000006
 20
218.938052
 30
0.0
 40
0.225272
 50
188.21811500000001
 51
232.81837899999999
  0
ARC
  5
275
  8
0
 62
     7
 10
68.543070999999983
 20
218.94297900000001
 30
0.0
 40
0.228701
 50
233.73787400000009
 51
261.62850100000003
  0
LINE
  5
276
  8
0
 62
     7
 10
68.509799999999984
 20
218.71700000000001
 30
0.0
 11
70.148799999999994
 21
218.71700000000001
 31
0.0
  0
ARC
  5
277
  8
0
 62
     7
 10
70.116574
 20
218.938275
 30
0.0
 40
0.22389
 50
278.27277600000002
 51
322.99903999999998
  0
ARC
  5
278
  8
0
 62
     7
 10
70.110108999999994
 20
218.93981099999999
 30
0.0
 40
0.229993
 50
323.66279800000012
 51
351.50903399999999
  0
LINE
  5
279
  8
0
 62
     7
 10
70.337599999999995
 20
218.90600000000001
 30
0.0
 11
70.337599999999995
 21
225.28899999999999
 31
0.0
  0
LINE
  5
27A
  8
0
  6
AIGENLINE002
 62
     7
 10
130.386
 20
159.31999999999999
 30
0.0
 11
130.386
 21
180.072
 31
0.0
  0
LINE
  5
27B
  8
0
 62
     7
 10
130.386
 20
180.77799999999999
 30
0.0
 11
130.386
 21
189.00899999999999
 31
0.0
  0
LINE
  5
27C
  8
0
 62
     7
 10
103.63500000000001
 20
139.89099999999999
 30
0.0
 11
103.63500000000001
 21
156.11099999999999
 31
0.0
  0
LINE
  5
27D
  8
0
 62
     7
 10
103.63500000000001
 20
157.94900000000001
 30
0.0
 11
103.63500000000001
 21
189.00899999999999
 31
0.0
  0
LINE
  5
27E
  8
0
 62
     7
 10
121.69499999999999
 20
181.887
 30
0.0
 11
151.66999999999999
 21
181.887
 31
0.0
  0
LINE
  5
27F
  8
0
 62
     7
 10
136.20599999999999
 20
148.387
 30
0.0
 11
151.67699999999999
 21
148.387
 31
0.0
  0
LINE
  5
280
  8
0
 62
     7
 10
136.03800000000001
 20
178.387
 30
0.0
 11
144.72900000000001
 21
178.387
 31
0.0
  0
LINE
  5
281
  8
0
 62
     7
 10
92.206799999999987
 20
148.387
 30
0.0
 11
124.41200000000001
 21
148.387
 31
0.0
  0
LINE
  5
282
  8
0
  6
AIGENLINE003
 62
     7
 10
126.03700000000001
 20
179.792
 30
0.0
 11
120.083
 21
181.89099999999999
 31
0.0
  0
ARC
  5
283
  8
0
  6
AIGENLINE003
 62
     7
 10
120.038506
 20
181.672843
 30
0.0
 40
0.222376
 50
78.365607999999995
 51
123.666591
  0
ARC
  5
284
  8
0
  6
AIGENLINE003
 62
     7
 10
120.04374199999999
 20
181.67014599999999
 30
0.0
 40
0.227541
 50
124.387215
 51
152.345676
  0
LINE
  5
285
  8
0
  6
AIGENLINE003
 62
     7
 10
119.842
 20
181.7759999999999
 30
0.0
 11
119.297
 21
180.22999999999999
 31
0.0
  0
ARC
  5
286
  8
0
  6
AIGENLINE003
 62
     7
 10
119.51897099999999
 20
180.187297
 30
0.0
 40
0.226162
 50
169.178257
 51
213.282039
  0
ARC
  5
287
  8
0
  6
AIGENLINE003
 62
     7
 10
119.516503
 20
180.187838
 30
0.0
 40
0.224403
 50
213.74344600000001
 51
242.41419099999999
  0
LINE
  5
288
  8
0
  6
AIGENLINE003
 62
     7
 10
119.413
 20
179.989
 30
0.0
 11
125.366
 21
177.88999999999999
 31
0.0
  0
LINE
  5
289
  8
0
 62
     7
 10
125.417
 20
178.197
 30
0.0
 11
119.104
 21
178.197
 31
0.0
  0
ARC
  5
28A
  8
0
 62
     7
 10
119.135187
 20
177.975435
 30
0.0
 40
0.224024
 50
97.937806000000009
 51
142.923193
  0
ARC
  5
28B
  8
0
 62
     7
 10
119.149203
 20
177.97213300000001
 30
0.0
 40
0.237268
 50
144.32781700000001
 51
171.136357
  0
LINE
  5
28C
  8
0
 62
     7
 10
118.91500000000001
 20
178.00899999999999
 30
0.0
 11
118.91500000000001
 21
176.37
 31
0.0
  0
ARC
  5
28D
  8
0
 62
     7
 10
119.13700300000001
 20
176.40233000000001
 30
0.0
 40
0.224646
 50
188.402017
 51
232.928911
  0
ARC
  5
28E
  8
0
 62
     7
 10
119.13589
 20
176.403829
 30
0.0
 40
0.225178
 50
233.38487699999999
 51
261.92258600000002
  0
LINE
  5
28F
  8
0
 62
     7
 10
119.104
 20
176.18100000000001
 30
0.0
 11
125.417
 21
176.18100000000001
 31
0.0
  0
LINE
  5
290
  8
0
 62
     7
 10
134.98599999999999
 20
170.00399999999999
 30
0.0
 11
134.98599999999999
 21
169.5
 31
0.0
  0
LINE
  5
291
  8
0
 62
     7
 10
125.84699999999999
 20
170.00399999999999
 30
0.0
 11
125.84699999999999
 21
169.5
 31
0.0
  0
ARC
  5
292
  8
0
 62
     7
 10
125.637286
 20
178.166651
 30
0.0
 40
0.222328
 50
143.26377299999999
 51
172.07298499999999
  0
ARC
  5
293
  8
0
 62
     7
 10
125.63798800000001
 20
178.165583
 30
0.0
 40
0.22353
 50
98.259880000000024
 51
143.15196700000001
  0
LINE
  5
294
  8
0
 62
     7
 10
125.60599999999999
 20
178.387
 30
0.0
 11
135.22800000000001
 21
178.387
 31
0.0
  0
ARC
  5
295
  8
0
 62
     7
 10
135.19764599999999
 20
178.16868700000001
 30
0.0
 40
0.220174
 50
53.02844300000001
 51
82.143368999999993
  0
ARC
  5
296
  8
0
 62
     7
 10
135.189334
 20
178.162408
 30
0.0
 40
0.230207
 50
8.7209430000000001
 51
52.315511000000001
  0
LINE
  5
297
  8
0
 62
     7
 10
135.417
 20
178.197
 30
0.0
 11
135.417
 21
170.00399999999999
 31
0.0
  0
LINE
  5
298
  8
0
 62
     7
 10
135.417
 20
170.00399999999999
 30
0.0
 11
125.417
 21
170.00399999999999
 31
0.0
  0
LINE
  5
299
  8
0
 62
     7
 10
125.417
 20
170.00399999999999
 30
0.0
 11
125.417
 21
176.18100000000001
 31
0.0
  0
ARC
  5
29A
  8
0
 62
     7
 10
123.934673
 20
177.19457199999999
 30
0.0
 40
1.7958559999999999
 50
325.63528200000002
 51
9.9768629999999998
  0
ARC
  5
29B
  8
0
 62
     7
 10
123.953761
 20
177.18651600000001
 30
0.0
 40
1.7784880000000001
 50
10.33902
 51
34.634968000000001
  0
ARC
  5
29C
  8
0
 62
     7
 10
125.63757
 20
148.85263800000001
 30
0.0
 40
0.21625
 50
261.57200499999999
 51
278.42801500000002
  0
ARC
  5
29D
  8
0
 62
     7
 10
125.638977
 20
148.86295799999999
 30
0.0
 40
0.226665
 50
217.483994
 51
261.60257799999999
  0
ARC
  5
29E
  8
0
 62
     7
 10
125.64320499999999
 20
148.85993400000001
 30
0.0
 40
0.228234
 50
172.20070200000001
 51
216.23547500000001
  0
LINE
  5
29F
  8
0
 62
     7
 10
125.417
 20
148.89099999999999
 30
0.0
 11
125.417
 21
163.00700000000001
 31
0.0
  0
LINE
  5
2A0
  8
0
 62
     7
 10
125.417
 20
167.75700000000001
 30
0.0
 11
125.417
 21
169.5
 31
0.0
  0
LINE
  5
2A1
  8
0
 62
     7
 10
125.417
 20
169.5
 30
0.0
 11
135.417
 21
169.5
 31
0.0
  0
LINE
  5
2A2
  8
0
 62
     7
 10
135.417
 20
169.5
 30
0.0
 11
135.417
 21
148.89099999999999
 31
0.0
  0
ARC
  5
2A3
  8
0
 62
     7
 10
135.18746200000001
 20
148.863967
 30
0.0
 40
0.230994
 50
340.72746799999999
 51
6.697144999999999
  0
ARC
  5
2A4
  8
0
 62
     7
 10
135.17911899999999
 20
148.86549600000001
 30
0.0
 40
0.239378
 50
296.049893
 51
341.04099500000001
  0
ARC
  5
2A5
  8
0
 62
     7
 10
135.178742
 20
148.86600999999999
 30
0.0
 40
0.240005
 50
251.264252
 51
296.076865
  0
ARC
  5
2A6
  8
0
 62
     7
 10
130.38588799999999
 20
230.187319
 30
0.0
 40
4.0002120000000003
 50
270.00125300000002
 51
0.001224
  0
ARC
  5
2A7
  8
0
 62
     7
 10
130.38605999999999
 20
230.187318
 30
0.0
 40
4.0002110000000002
 50
179.99873700000001
 51
269.998786
  0
ARC
  5
2A8
  8
0
 62
     7
 10
130.38580300000001
 20
230.18723199999999
 30
0.0
 40
3.9999539999999998
 50
89.997533000000004
 51
179.99750299999999
  0
ARC
  5
2A9
  8
0
 62
     7
 10
130.38614699999999
 20
230.18723199999999
 30
0.0
 40
3.9999539999999998
 50
0.002477
 51
90.002447999999987
  0
LINE
  5
2AA
  8
_________2
 62
     7
 10
205.30099999999999
 20
127.411
 30
0.0
 11
183.55000000000001
 21
127.411
 31
0.0
  0
LINE
  5
2AB
  8
_________2
 62
     7
 10
100.3
 20
-4.0910799999999998
 30
0.0
 11
100.3
 21
-21.071400000000001
 31
0.0
  0
LINE
  5
2AC
  8
_________2
 62
     7
 10
100.3
 20
275.93099999999998
 30
0.0
 11
100.3
 21
258.911
 31
0.0
  0
LINE
  5
2AD
  8
_________2
 62
     7
 10
17.049499999999998
 20
127.411
 30
0.0
 11
-4.70052
 21
127.411
 31
0.0
  0
LINE
  5
2AE
  8
_________2
 62
     7
 10
76.741
 20
29.8047
 30
0.0
 11
74.554699999999997
 21
29.8047
 31
0.0
  0
LINE
  5
2AF
  8
_________2
 62
     7
 10
77.233699999999999
 20
29.8047
 30
0.0
 11
76.981499999999997
 21
29.8047
 31
0.0
  0
LINE
  5
2B0
  8
_________2
 62
     7
 10
77.726299999999995
 20
29.8047
 30
0.0
 11
80.651200000000003
 21
29.8047
 31
0.0
  0
LINE
  5
2B1
  8
_________2
 62
     7
 10
77.233699999999999
 20
29.8047
 30
0.0
 11
77.485500000000002
 21
29.8047
 31
0.0
  0
LINE
  5
2B2
  8
_________2
 62
     7
 10
70.837100000000007
 20
29.8047
 30
0.0
 11
68.650499999999994
 21
29.8047
 31
0.0
  0
LINE
  5
2B3
  8
_________2
 62
     7
 10
71.329400000000007
 20
29.8047
 30
0.0
 11
71.077600000000004
 21
29.8047
 31
0.0
  0
LINE
  5
2B4
  8
_________2
 62
     7
 10
71.329400000000007
 20
30.2974
 30
0.0
 11
71.329400000000007
 21
32.484400000000001
 31
0.0
  0
LINE
  5
2B5
  8
_________2
 62
     7
 10
71.329400000000007
 20
29.8047
 30
0.0
 11
71.329400000000007
 21
30.056899999999999
 31
0.0
  0
LINE
  5
2B6
  8
_________2
 62
     7
 10
71.822100000000006
 20
29.8047
 30
0.0
 11
74.009
 21
29.8047
 31
0.0
  0
LINE
  5
2B7
  8
_________2
 62
     7
 10
71.329400000000007
 20
29.8047
 30
0.0
 11
71.581599999999995
 21
29.8047
 31
0.0
  0
LINE
  5
2B8
  8
_________2
 62
     7
 10
71.329400000000007
 20
29.312799999999999
 30
0.0
 11
71.329400000000007
 21
27.125800000000002
 31
0.0
  0
LINE
  5
2B9
  8
_________2
 62
     7
 10
71.329400000000007
 20
29.8047
 30
0.0
 11
71.329400000000007
 21
29.5532
 31
0.0
  0
LINE
  5
2BA
  8
_________2
 62
     7
 10
75.040499999999994
 20
28.5852
 30
0.0
 11
80.218500000000006
 21
27.720400000000001
 31
0.0
  0
LINE
  5
2BB
  8
_________2
 62
     7
 10
75.040499999999994
 20
31.0243
 30
0.0
 11
80.218500000000006
 21
31.889700000000001
 31
0.0
  0
LINE
  5
2BC
  8
_________2
 62
     7
 10
80.218500000000006
 20
27.720400000000001
 30
0.0
 11
80.218500000000006
 21
31.889700000000001
 31
0.0
  0
LINE
  5
2BD
  8
_________2
 62
     7
 10
75.040499999999994
 20
28.5852
 30
0.0
 11
75.040499999999994
 21
31.0243
 31
0.0
  0
ARC
  5
2BE
  8
_________2
 62
     7
 10
71.28285600000001
 20
29.757811
 30
0.0
 40
1.2673589999999999
 50
2.122214
 51
87.893958999999995
  0
ARC
  5
2BF
  8
_________2
 62
     7
 10
71.375959999999992
 20
29.758213000000001
 30
0.0
 40
1.2669559999999991
 50
92.104701000000006
 51
177.89526900000001
  0
ARC
  5
2C0
  8
_________2
 62
     7
 10
71.376357999999996
 20
29.851671
 30
0.0
 40
1.2673680000000001
 50
182.12203600000001
 51
267.877993
  0
ARC
  5
2C1
  8
_________2
 62
     7
 10
71.282531999999989
 20
29.851998999999999
 30
0.0
 40
1.267695999999999
 50
272.12015300000002
 51
357.863674
  0
ARC
  5
2C2
  8
_________2
 62
     7
 10
71.329430000000002
 20
29.804742999999998
 30
0.0
 40
2.0849849999999992
 50
0.00001
 51
89.999980000000008
  0
ARC
  5
2C3
  8
_________2
 62
     7
 10
71.329603000000006
 20
29.804915000000001
 30
0.0
 40
2.084813
 50
90.004733999999999
 51
180.00474399999999
  0
ARC
  5
2C4
  8
_________2
 62
     7
 10
71.409106000000008
 20
29.884775999999999
 30
0.0
 40
2.1657950000000001
 50
182.11776599999999
 51
267.89173399999999
  0
ARC
  5
2C5
  8
_________2
 62
     7
 10
71.249459000000002
 20
29.885429999999999
 30
0.0
 40
2.1664590000000001
 50
272.11546800000002
 51
357.86560400000002
  0
TEXT
  5
2C6
  8
_________2
 62
     7
 10
104.605
 20
1.6794899999999999
 30
0.0
 40
3.0923400000000001
  1
図番
 41
0.5
  0
LINE
  5
2C7
  8
_________2
 62
     7
 10
103.55
 20
5.9087199999999989
 30
0.0
 11
183.55099999999999
 21
5.9087199999999989
 31
0.0
  0
TEXT
  5
2C8
  8
_________2
 62
     7
 10
104.605
 20
11.6793
 30
0.0
 40
3.0923400000000001
  1
品番
 41
0.5
  0
TEXT
  5
2C9
  8
_________2
 62
     7
 10
104.605
 20
31.818100000000001
 30
0.0
 40
3.0923400000000001
  1
名称
 41
0.5
  0
TEXT
  5
2CA
  8
_________2
 62
     7
 10
91.845058333333341
 20
26.821999999999999
 30
0.0
 40
3.6545800000000002
  1
mm
 41
0.5
 72
     1
 11
93.367800000000003
 21
26.821999999999999
 31
0.0
  0
TEXT
  5
2CB
  8
_________2
 62
     7
 10
85.643199999999993
 20
31.818100000000001
 30
0.0
 40
3.0923400000000001
  1
単位
 41
0.5
  0
TEXT
  5
2CC
  8
_________2
 62
     7
 10
85.643199999999993
 20
19.410799999999998
 30
0.0
 40
3.0923400000000001
  1
尺度
 41
0.5
  0
TEXT
  5
2CD
  8
_________2
 62
     7
 10
90.548758666666686
 20
13.2179
 30
0.0
 40
3.6545800000000002
  1
1 ： 4
 41
0.5
 72
     1
 11
93.959699999999998
 21
13.2179
 31
0.0
  0
TEXT
  5
2CE
  8
_________2
 62
     7
 10
135.67859999999999
 20
9.1078600000000005
 30
0.0
 40
3.9357000000000002
  1
VLHV1CDT
 41
0.5
 72
     1
 11
143.55000000000001
 21
9.1078600000000005
 31
0.0
  0
TEXT
  5
2CF
  8
_________2
 62
     7
 10
135.67859999999999
 20
-0.8926299999999999
 30
0.0
 40
3.9357000000000002
  1
VLHV1CDT
 41
0.5
 72
     1
 11
143.55000000000001
 21
-0.8926299999999999
 31
0.0
  0
TEXT
  5
2D0
  8
_________2
 62
     7
 10
24.5868
 20
0.707283
 30
0.0
 40
3.9357000000000002
  1
  （社）日本水道協会認証品
 41
0.5
  0
TEXT
  5
2D1
  8
_________2
 62
     7
 10
109.179
 20
24.2257
 30
0.0
 40
3.9357000000000002
  1
ボラ　湯水混合栓
 41
0.5
  0
TEXT
  5
2D2
  8
_________2
 62
     7
 10
39.425300333333333
 20
13.603
 30
0.0
 40
3.6545800000000002
  1
早川
 41
0.5
 72
     1
 11
41.313499999999998
 21
13.603
 31
0.0
  0
TEXT
  5
2D3
  8
_________2
 62
     7
 10
20.790090666666661
 20
13.603
 30
0.0
 40
3.6545800000000002
  1
石原
 41
0.5
 72
     1
 11
22.7392
 21
13.603
 31
0.0
  0
TEXT
  5
2D4
  8
_________2
 62
     7
 10
67.785399999999996
 20
13.2179
 30
0.0
 40
3.6545800000000002
  1
16.02.01
 41
0.5
  0
TEXT
  5
2D5
  8
_________2
 62
     7
 10
66.593100000000007
 20
19.410799999999998
 30
0.0
 40
3.0923400000000001
  1
日付
 41
0.5
  0
TEXT
  5
2D6
  8
_________2
 62
     7
 10
29.639399999999998
 20
19.410799999999998
 30
0.0
 40
3.0923400000000001
  1
検図
 41
0.5
  0
TEXT
  5
2D7
  8
_________2
 62
     7
 10
18.021100000000001
 20
5.21143
 30
0.0
 40
3.0923400000000001
  1
備考
 41
0.5
  0
TEXT
  5
2D8
  8
_________2
 62
     7
 10
18.021100000000001
 20
19.410799999999998
 30
0.0
 40
3.0923400000000001
  1
製図
 41
0.5
  0
TEXT
  5
2D9
  8
_________2
 62
     7
 10
23.788465333333338
 20
27.936800000000002
 30
0.0
 40
4.4979399999999989
  1
セラトレーディング株式会社
 41
0.5
 72
     1
 11
41.180500000000002
 21
27.936800000000002
 31
0.0
  0
LINE
  5
2DA
  8
_________2
 62
     7
 10
183.55099999999999
 20
-4.0910799999999998
 30
0.0
 11
17.049499999999998
 21
-4.0910799999999998
 31
0.0
  0
LINE
  5
2DB
  8
_________2
 62
     7
 10
17.049499999999998
 20
-4.0910799999999998
 30
0.0
 11
17.049499999999998
 21
258.911
 31
0.0
  0
LINE
  5
2DC
  8
_________2
 62
     7
 10
17.049499999999998
 20
258.911
 30
0.0
 11
183.55099999999999
 21
258.911
 31
0.0
  0
LINE
  5
2DD
  8
_________2
 62
     7
 10
183.55099999999999
 20
258.911
 30
0.0
 11
183.55099999999999
 21
-4.0910799999999998
 31
0.0
  0
LINE
  5
2DE
  8
_________2
 62
     7
 10
65.549599999999998
 20
9.4089600000000004
 30
0.0
 11
65.549599999999998
 21
35.908799999999999
 31
0.0
  0
LINE
  5
2DF
  8
_________2
 62
     7
 10
84.549700000000016
 20
9.4089600000000004
 30
0.0
 11
84.549700000000016
 21
35.908799999999999
 31
0.0
  0
LINE
  5
2E0
  8
_________2
 62
     7
 10
103.55
 20
-4.0910799999999998
 30
0.0
 11
103.55
 21
35.908799999999999
 31
0.0
  0
LINE
  5
2E1
  8
_________2
 62
     7
 10
28.549299999999999
 20
9.4089600000000004
 30
0.0
 11
28.549299999999999
 21
23.409199999999998
 31
0.0
  0
LINE
  5
2E2
  8
_________2
 62
     7
 10
17.049499999999998
 20
9.4089600000000004
 30
0.0
 11
103.55
 21
9.4089600000000004
 31
0.0
  0
LINE
  5
2E3
  8
_________2
 62
     7
 10
17.049499999999998
 20
23.409199999999998
 30
0.0
 11
103.55
 21
23.409199999999998
 31
0.0
  0
LINE
  5
2E4
  8
_________2
 62
     7
 10
103.55
 20
15.9085
 30
0.0
 11
183.55099999999999
 21
15.9085
 31
0.0
  0
LINE
  5
2E5
  8
_________2
 62
     7
 10
17.049499999999998
 20
35.908799999999999
 30
0.0
 11
183.55099999999999
 21
35.908799999999999
 31
0.0
  0
TEXT
  5
2E6
  8
_________2
 62
     7
 10
141.05481
 20
39.0687
 30
0.0
 40
3.9357000000000002
  1
注：色番号はカタログを参照ください
 41
0.5
 72
     2
 11
180.54300000000001
 21
39.0687
 31
0.0
  0
ENDSEC
  0
EOF
