  0
SECTION
  2
HEADER
  9
$ACADVER
  1
AC1009
  9
$INSBASE
 10
0.0
 20
0.0
 30
0.0
  9
$EXTMIN
 10
-4.70052
 20
-21.071400000000001
 30
0.0
  9
$EXTMAX
 10
205.30099999999999
 20
275.93099999999993
 30
0.0
  9
$LIMMIN
 10
0.0
 20
0.0
  9
$LIMMAX
 10
12.0
 20
9.0
  9
$ORTHOMODE
 70
     0
  9
$REGENMODE
 70
     1
  9
$FILLMODE
 70
     1
  9
$QTEXTMODE
 70
     0
  9
$MIRRTEXT
 70
     1
  9
$DRAGMODE
 70
     2
  9
$LTSCALE
 40
1.0
  9
$OSMODE
 70
    37
  9
$ATTMODE
 70
     1
  9
$TEXTSIZE
 40
0.0
  9
$TRACEWID
 40
0.05
  9
$TEXTSTYLE
  7
STANDARD
  9
$CLAYER
  8
0
  9
$CELTYPE
  6
CONTINUOUS
  9
$CECOLOR
 62
   256
  9
$DIMSCALE
 40
1.0
  9
$DIMASZ
 40
0.18
  9
$DIMEXO
 40
0.0625
  9
$DIMDLI
 40
0.38
  9
$DIMRND
 40
0.0
  9
$DIMDLE
 40
0.0
  9
$DIMEXE
 40
0.18
  9
$DIMTP
 40
0.0
  9
$DIMTM
 40
0.0
  9
$DIMTXT
 40
0.18
  9
$DIMCEN
 40
0.09
  9
$DIMTSZ
 40
0.0
  9
$DIMTOL
 70
     0
  9
$DIMLIM
 70
     0
  9
$DIMTIH
 70
     1
  9
$DIMTOH
 70
     1
  9
$DIMSE1
 70
     0
  9
$DIMSE2
 70
     0
  9
$DIMTAD
 70
     0
  9
$DIMZIN
 70
     0
  9
$DIMBLK
  1

  9
$DIMASO
 70
     1
  9
$DIMSHO
 70
     1
  9
$DIMPOST
  1

  9
$DIMAPOST
  1

  9
$DIMALT
 70
     0
  9
$DIMALTD
 70
     2
  9
$DIMALTF
 40
25.399999999999999
  9
$DIMLFAC
 40
1.0
  9
$DIMTOFL
 70
     0
  9
$DIMTVP
 40
0.0
  9
$DIMTIX
 70
     0
  9
$DIMSOXD
 70
     0
  9
$DIMSAH
 70
     0
  9
$DIMBLK1
  1

  9
$DIMBLK2
  1

  9
$DIMSTYLE
  2
STANDARD
  9
$DIMCLRD
 70
     0
  9
$DIMCLRE
 70
     0
  9
$DIMCLRT
 70
     0
  9
$DIMTFAC
 40
1.0
  9
$DIMGAP
 40
0.09
  9
$LUNITS
 70
     2
  9
$LUPREC
 70
     4
  9
$SKETCHINC
 40
0.1
  9
$FILLETRAD
 40
0.0
  9
$AUNITS
 70
     0
  9
$AUPREC
 70
     0
  9
$MENU
  1
.
  9
$ELEVATION
 40
0.0
  9
$PELEVATION
 40
0.0
  9
$THICKNESS
 40
0.0
  9
$LIMCHECK
 70
     0
  9
$BLIPMODE
 70
     0
  9
$CHAMFERA
 40
0.0
  9
$CHAMFERB
 40
0.0
  9
$SKPOLY
 70
     0
  9
$TDCREATE
 40
2444972.375
  9
$TDUPDATE
 40
2456676.2498208098
  9
$TDINDWG
 40
0.000007037
  9
$TDUSRTIMER
 40
0.000007037
  9
$USRTIMER
 70
     1
  9
$ANGBASE
 50
0.0
  9
$ANGDIR
 70
     0
  9
$PDMODE
 70
     0
  9
$PDSIZE
 40
0.0
  9
$PLINEWID
 40
0.0
  9
$COORDS
 70
     1
  9
$SPLFRAME
 70
     0
  9
$SPLINETYPE
 70
     6
  9
$SPLINESEGS
 70
     8
  9
$ATTDIA
 70
     0
  9
$ATTREQ
 70
     1
  9
$HANDLING
 70
     1
  9
$HANDSEED
  5
32D
  9
$SURFTAB1
 70
     6
  9
$SURFTAB2
 70
     6
  9
$SURFTYPE
 70
     6
  9
$SURFU
 70
     6
  9
$SURFV
 70
     6
  9
$UCSNAME
  2

  9
$UCSORG
 10
0.0
 20
0.0
 30
0.0
  9
$UCSXDIR
 10
1.0
 20
0.0
 30
0.0
  9
$UCSYDIR
 10
0.0
 20
1.0
 30
0.0
  9
$PUCSNAME
  2

  9
$PUCSORG
 10
0.0
 20
0.0
 30
0.0
  9
$PUCSXDIR
 10
1.0
 20
0.0
 30
0.0
  9
$PUCSYDIR
 10
0.0
 20
1.0
 30
0.0
  9
$USERI1
 70
     0
  9
$USERI2
 70
     0
  9
$USERI3
 70
     0
  9
$USERI4
 70
     0
  9
$USERI5
 70
     0
  9
$USERR1
 40
0.0
  9
$USERR2
 40
0.0
  9
$USERR3
 40
0.0
  9
$USERR4
 40
0.0
  9
$USERR5
 40
0.0
  9
$WORLDVIEW
 70
     1
  9
$SHADEDGE
 70
     3
  9
$SHADEDIF
 70
    70
  9
$TILEMODE
 70
     1
  9
$MAXACTVP
 70
    48
  9
$PLIMCHECK
 70
     0
  9
$PEXTMIN
 10
1.0000000000000000E+020
 20
1.0000000000000000E+020
 30
1.0000000000000000E+020
  9
$PEXTMAX
 10
-1.0000000000000000E+020
 20
-1.0000000000000000E+020
 30
-1.0000000000000000E+020
  9
$PLIMMIN
 10
0.0
 20
0.0
  9
$PLIMMAX
 10
12.0
 20
9.0
  9
$UNITMODE
 70
     0
  9
$VISRETAIN
 70
     1
  9
$PLINEGEN
 70
     0
  9
$PSLTSCALE
 70
     1
  0
ENDSEC
  0
SECTION
  2
TABLES
  0
TABLE
  2
VPORT
 70
     2
  0
VPORT
  2
*ACTIVE
 70
     0
 10
0.0
 20
0.0
 11
1.0
 21
1.0
 12
202.00678374696719
 22
127.4298
 13
0.0
 23
0.0
 14
1.0
 24
1.0
 15
0.0
 25
0.0
 16
0.0
 26
0.0
 36
1.0
 17
0.0
 27
0.0
 37
0.0
 40
299.45358899587342
 41
2.2894736842105261
 42
50.0
 43
0.0
 44
0.0
 50
0.0
 51
0.0
 71
     0
 72
   100
 73
     1
 74
     1
 75
     0
 76
     0
 77
     0
 78
     0
  0
ENDTAB
  0
TABLE
  2
LTYPE
 70
     4
  0
LTYPE
  2
CONTINUOUS
 70
     0
  3
Solid line
 72
    65
 73
     0
 40
0.0
  0
LTYPE
  2
AIGENLINE001
 70
     0
  3
generate AI->DXF Converter
 72
    65
 73
     4
 40
5.8561449999999988
 49
3.5278
 49
-0.776115
 49
0.776115
 49
-0.776115
  0
LTYPE
  2
AIGENLINE002
 70
     0
  3
generate AI->DXF Converter
 72
    65
 73
     6
 40
7.4083750000000004
 49
3.5278
 49
-0.776115
 49
0.776115
 49
-0.776115
 49
0.776115
 49
-0.776115
  0
LTYPE
  2
AIGENLINE003
 70
     0
  3
generate AI->DXF Converter
 72
    65
 73
     4
 40
5.8558209999999988
 49
3.5278
 49
-0.776007
 49
0.776007
 49
-0.776007
  0
ENDTAB
  0
TABLE
  2
LAYER
 70
     3
  0
LAYER
  2
0
 70
     0
 62
     7
  6
CONTINUOUS
  0
LAYER
  2
_________4
 70
     0
 62
     7
  6
CONTINUOUS
  0
LAYER
  2
_________2
 70
     0
 62
     7
  6
CONTINUOUS
  0
ENDTAB
  0
TABLE
  2
STYLE
 70
     1
  0
STYLE
  2
STANDARD
 70
     0
 40
0.0
 41
0.0
 50
0.0
 71
     0
 42
0.0
  3
TXT
  4
EXTFONT.SHX
  0
ENDTAB
  0
TABLE
  2
VIEW
 70
     0
  0
ENDTAB
  0
TABLE
  2
UCS
 70
     0
  0
ENDTAB
  0
TABLE
  2
APPID
 70
     1
  0
APPID
  2
ACAD
 70
     0
  0
ENDTAB
  0
TABLE
  2
DIMSTYLE
 70
     1
  0
DIMSTYLE
  2
STANDARD
 70
     0
  3

  4

  5

  6

  7

 40
1.0
 41
0.18
 42
0.0625
 43
0.38
 44
0.18
 45
0.0
 46
0.0
 47
0.0
 48
0.0
140
0.18
141
0.09
142
0.0
143
25.399999999999999
144
1.0
145
0.0
146
1.0
147
0.09
 71
     0
 72
     0
 73
     1
 74
     1
 75
     0
 76
     0
 77
     0
 78
     0
170
     0
171
     2
172
     0
173
     0
174
     0
175
     0
176
     0
177
     0
178
     0
  0
ENDTAB
  0
ENDSEC
  0
SECTION
  2
BLOCKS
  0
BLOCK
  8
0
  2
$MODEL_SPACE
 70
     0
 10
0.0
 20
0.0
 30
0.0
  3
$MODEL_SPACE
  1

  0
ENDBLK
  5
1A
  8
0
  0
BLOCK
 67
     1
  8
0
  2
$PAPER_SPACE
 70
     0
 10
0.0
 20
0.0
 30
0.0
  3
$PAPER_SPACE
  1

  0
ENDBLK
  5
17
 67
     1
  8
0
  0
ENDSEC
  0
SECTION
  2
ENTITIES
  0
TEXT
  5
25
  8
0
 62
     7
 10
114.56699999999999
 20
145.5133725
 30
0.0
 40
3.0923400000000001
  1
30
 50
90.0
 41
0.5
 72
     1
 11
114.56699999999999
 21
146.673
 31
0.0
  0
TEXT
  5
26
  8
0
 62
     7
 10
91.211200000000005
 20
146.022525
 30
0.0
 40
3.0923400000000001
  1
35
 50
90.0
 41
0.5
 72
     1
 11
91.211200000000005
 21
147.31100000000001
 31
0.0
  0
TEXT
  5
27
  8
0
 62
     7
 10
127.1522875
 20
137.42199999999991
 30
0.0
 40
3.0923400000000001
  1
%%c30
 41
0.5
 72
     1
 11
129.08500000000001
 21
137.42199999999991
 31
0.0
  0
TEXT
  5
28
  8
0
 62
     7
 10
56.691600000000001
 20
56.445099999999996
 30
0.0
 40
3.0923400000000001
  1
%%c10
 41
0.5
  0
TEXT
  5
29
  8
0
 62
     7
 10
79.715900000000005
 20
99.863287500000013
 30
0.0
 40
3.0923400000000001
  1
480
 50
90.0
 41
0.5
 72
     1
 11
79.715900000000005
 21
101.79599999999991
 31
0.0
  0
TEXT
  5
2A
  8
0
 62
     7
 10
50.9557
 20
155.45198250000001
 30
0.0
 40
3.0923400000000001
  1
120
 50
90.0
 41
0.5
 72
     1
 11
50.9557
 21
157.12700000000001
 31
0.0
  0
TEXT
  5
2B
  8
0
 62
     7
 10
50.9557
 20
134.40737250000001
 30
0.0
 40
3.0923400000000001
  1
60
 50
90.0
 41
0.5
 72
     1
 11
50.9557
 21
135.56700000000001
 31
0.0
  0
TEXT
  5
2C
  8
0
 62
     7
 10
56.801200000000001
 20
135.09842249999991
 30
0.0
 40
3.0923400000000001
  1
max.50
 50
90.0
 41
0.5
 72
     1
 11
56.801200000000001
 21
138.83500000000001
 31
0.0
  0
TEXT
  5
2D
  8
0
 62
     7
 10
82.529899999999998
 20
217.328
 30
0.0
 40
3.0923400000000001
  1
水
 41
0.5
  0
TEXT
  5
2E
  8
0
 62
     7
 10
51.133507999999999
 20
217.328
 30
0.0
 40
3.0923400000000001
  1
湯
 41
0.5
 72
     2
 11
52.576599999999999
 21
217.328
 31
0.0
  0
TEXT
  5
2F
  8
0
 62
     7
 10
136.91288
 20
228.32900000000001
 30
0.0
 40
3.0923400000000001
  1
%%c32
 41
0.5
 72
     2
 11
141.036
 21
228.32900000000001
 31
0.0
  0
TEXT
  5
30
  8
0
 62
     7
 10
107.896986
 20
174.7459999999999
 30
0.0
 40
3.0923400000000001
  1
閉
 41
0.5
 72
     2
 11
109.23699999999999
 21
174.7459999999999
 31
0.0
  0
TEXT
  5
31
  8
0
 62
     7
 10
114.868454
 20
184.7409999999999
 30
0.0
 40
3.0923400000000001
  1
開
 41
0.5
 72
     1
 11
115.59
 21
184.7409999999999
 31
0.0
  0
TEXT
  5
32
  8
0
 62
     7
 10
126.68264600000001
 20
220.28399999999999
 30
0.0
 40
3.0923400000000001
  1
水栓取付穴
 41
0.5
 72
     1
 11
131.11500000000001
 21
220.28399999999999
 31
0.0
  0
TEXT
  5
33
  8
0
 62
     7
 10
113.54598249999999
 20
197.55699999999999
 30
0.0
 40
3.0923400000000001
  1
107
 41
0.5
 72
     1
 11
115.2209999999999
 21
197.55699999999999
 31
0.0
  0
TEXT
  5
34
  8
0
 62
     7
 10
117.783525
 20
191.18899999999999
 30
0.0
 40
3.0923400000000001
  1
78
 41
0.5
 72
     1
 11
119.0719999999999
 21
191.18899999999999
 31
0.0
  0
TEXT
  5
35
  8
0
 62
     7
 10
150.041
 20
161.001135
 30
0.0
 40
3.0923400000000001
  1
164
 50
90.0
 41
0.5
 72
     1
 11
150.041
 21
162.80499999999989
 31
0.0
  0
TEXT
  5
36
  8
0
 62
     7
 10
141.79900000000001
 20
155.96998249999999
 30
0.0
 40
3.0923400000000001
  1
120
 50
90.0
 41
0.5
 72
     1
 11
141.79900000000001
 21
157.64500000000001
 31
0.0
  0
TEXT
  5
37
  8
0
 62
     7
 10
126.96028750000001
 20
149.5379999999999
 30
0.0
 40
3.0923400000000001
  1
%%c40
 41
0.5
 72
     1
 11
128.893
 21
149.5379999999999
 31
0.0
  0
LINE
  5
38
  8
_________4
 62
     7
 10
70.552599999999998
 20
98.756699999999995
 30
0.0
 11
70.552599999999998
 21
128.06700000000001
 31
0.0
  0
LINE
  5
39
  8
_________4
 62
     7
 10
67.552499999999995
 20
98.756699999999995
 30
0.0
 11
67.552499999999995
 21
128.06700000000001
 31
0.0
  0
LINE
  5
3A
  8
_________4
  6
AIGENLINE001
 62
     7
 10
69.052599999999998
 20
59.061399999999999
 30
0.0
 11
69.052599999999998
 21
130.881
 31
0.0
  0
ARC
  5
3B
  8
_________4
 62
     7
 10
69.803620999999993
 20
97.611289999999997
 30
0.0
 40
1.0649809999999991
 50
240.335093
 51
269.92409900000001
  0
ARC
  5
3C
  8
_________4
 62
     7
 10
69.628450999999998
 20
97.270332999999994
 30
0.0
 40
0.682216
 50
212.4180439999999
 51
238.946057
  0
ARC
  5
3D
  8
_________4
 62
     7
 10
69.800797000000003
 20
97.611826000000008
 30
0.0
 40
1.065517
 50
270.075988
 51
299.65729399999998
  0
ARC
  5
3E
  8
_________4
 62
     7
 10
69.976977000000005
 20
97.269075999999998
 30
0.0
 40
0.6806900000000001
 50
301.04592700000001
 51
327.6258160000001
  0
ARC
  5
3F
  8
_________4
 62
     7
 10
69.800798
 20
96.198785000000001
 30
0.0
 40
1.0647999999999991
 50
60.320795999999987
 51
89.924006000000006
  0
ARC
  5
40
  8
_________4
 62
     7
 10
69.977617000000009
 20
96.542329000000024
 30
0.0
 40
0.678974
 50
32.246316999999991
 51
58.929879000000007
  0
ARC
  5
41
  8
_________4
 62
     7
 10
69.803619999999995
 20
96.199320999999983
 30
0.0
 40
1.064263999999999
 50
90.075906999999987
 51
119.686823
  0
ARC
  5
42
  8
_________4
 62
     7
 10
69.62780699999999
 20
96.541081000000005
 30
0.0
 40
0.6804899999999999
 50
121.0781309999999
 51
147.70982799999999
  0
ARC
  5
43
  8
_________4
 62
     7
 10
68.300795999999991
 20
96.197961000000006
 30
0.0
 40
1.065625
 50
60.332545000000003
 51
89.924186999999989
  0
ARC
  5
44
  8
_________4
 62
     7
 10
68.476158999999996
 20
96.539390000000012
 30
0.0
 40
0.6823560000000001
 50
32.359071999999991
 51
58.936844999999998
  0
ARC
  5
45
  8
_________4
 62
     7
 10
68.303616000000005
 20
96.199320999999983
 30
0.0
 40
1.064263999999999
 50
90.075906999999987
 51
119.686823
  0
ARC
  5
46
  8
_________4
 62
     7
 10
68.127803
 20
96.541081000000005
 30
0.0
 40
0.6804899999999999
 50
121.0781309999999
 51
147.70982799999999
  0
ARC
  5
47
  8
_________4
 62
     7
 10
68.301484999999985
 20
98.051416000000003
 30
0.0
 40
1.064263999999999
 50
60.313157999999987
 51
89.924072999999993
  0
ARC
  5
48
  8
_________4
 62
     7
 10
68.477298000000005
 20
98.393176000000011
 30
0.0
 40
0.6804899999999999
 50
32.290152999999997
 51
58.921849000000009
  0
ARC
  5
49
  8
_________4
 62
     7
 10
68.304310000000001
 20
98.050158999999994
 30
0.0
 40
1.0655209999999991
 50
90.076064999999986
 51
119.6689079999999
  0
ARC
  5
4A
  8
_________4
 62
     7
 10
68.127224999999996
 20
98.394092000000001
 30
0.0
 40
0.6792200000000001
 50
121.050224
 51
147.73360500000001
  0
ARC
  5
4B
  8
_________4
 62
     7
 10
68.304310000000001
 20
99.463237000000007
 30
0.0
 40
1.0655209999999991
 50
240.33109200000001
 51
269.92393499999997
  0
ARC
  5
4C
  8
_________4
 62
     7
 10
68.127224999999996
 20
99.119304000000014
 30
0.0
 40
0.6792200000000001
 50
212.26639499999999
 51
238.9497759999999
  0
ARC
  5
4D
  8
_________4
 62
     7
 10
68.301484999999985
 20
99.461980000000025
 30
0.0
 40
1.064263999999999
 50
270.07592699999992
 51
299.68684200000001
  0
ARC
  5
4E
  8
_________4
 62
     7
 10
68.477298000000005
 20
99.120220000000003
 30
0.0
 40
0.6804899999999999
 50
301.07815099999999
 51
327.70984700000002
  0
ARC
  5
4F
  8
_________4
 62
     7
 10
69.803963999999993
 20
99.463155
 30
0.0
 40
1.065439
 50
240.32992399999989
 51
269.92422999999991
  0
ARC
  5
50
  8
_________4
 62
     7
 10
69.627712000000002
 20
99.120176000000001
 30
0.0
 40
0.6803860000000001
 50
212.29124200000001
 51
238.929059
  0
ARC
  5
51
  8
_________4
 62
     7
 10
69.801141999999999
 20
99.462700999999996
 30
0.0
 40
1.0649850000000001
 50
270.07601799999998
 51
299.67656099999999
  0
ARC
  5
52
  8
_________4
 62
     7
 10
69.977221
 20
99.120553000000001
 30
0.0
 40
0.6807350000000002
 50
301.058269
 51
327.68982
  0
LINE
  5
53
  8
_________4
 62
     7
 10
70.302400000000006
 20
63.159700000000001
 30
0.0
 11
67.802700000000002
 21
63.159700000000001
 31
0.0
  0
LINE
  5
54
  8
_________4
 62
     7
 10
70.302400000000006
 20
60.6599
 30
0.0
 11
67.802700000000002
 21
60.6599
 31
0.0
  0
LINE
  5
55
  8
_________4
 62
     7
 10
67.759299999999996
 20
72.250699999999995
 30
0.0
 11
69.052599999999998
 21
72.250699999999995
 31
0.0
  0
LINE
  5
56
  8
_________4
 62
     7
 10
68.561300000000003
 20
70.287599999999998
 30
0.0
 11
68.561300000000003
 21
68.061400000000006
 31
0.0
  0
LINE
  5
57
  8
_________4
 62
     7
 10
68.170599999999993
 20
70.287599999999998
 30
0.0
 11
68.170599999999993
 21
68.061400000000006
 31
0.0
  0
LINE
  5
58
  8
_________4
 62
     7
 10
68.170599999999993
 20
70.287599999999998
 30
0.0
 11
67.480500000000006
 21
70.287599999999998
 31
0.0
  0
LINE
  5
59
  8
_________4
 62
     7
 10
69.052599999999998
 20
70.287599999999998
 30
0.0
 11
68.561300000000003
 21
70.287599999999998
 31
0.0
  0
LINE
  5
5A
  8
_________4
 62
     7
 10
68.170599999999993
 20
68.061400000000006
 30
0.0
 11
67.480500000000006
 21
68.061400000000006
 31
0.0
  0
LINE
  5
5B
  8
_________4
 62
     7
 10
69.052599999999998
 20
68.061400000000006
 30
0.0
 11
68.561300000000003
 21
68.061400000000006
 31
0.0
  0
LINE
  5
5C
  8
_________4
 62
     7
 10
67.802700000000002
 20
60.6599
 30
0.0
 11
67.802700000000002
 21
67.159499999999994
 31
0.0
  0
LINE
  5
5D
  8
_________4
 62
     7
 10
69.052599999999998
 20
67.159499999999994
 30
0.0
 11
67.480500000000006
 21
67.159499999999994
 31
0.0
  0
LINE
  5
5E
  8
_________4
 62
     7
 10
70.897800000000004
 20
72.250699999999995
 30
0.0
 11
70.897800000000004
 21
70.561199999999985
 31
0.0
  0
LINE
  5
5F
  8
_________4
 62
     7
 10
70.897800000000004
 20
72.250699999999995
 30
0.0
 11
69.052599999999998
 21
72.250699999999995
 31
0.0
  0
LINE
  5
60
  8
_________4
 62
     7
 10
70.624600000000001
 20
70.287599999999998
 30
0.0
 11
70.624600000000001
 21
68.061400000000006
 31
0.0
  0
LINE
  5
61
  8
_________4
 62
     7
 10
70.624600000000001
 20
70.287599999999998
 30
0.0
 11
70.897800000000004
 21
70.561199999999985
 31
0.0
  0
LINE
  5
62
  8
_________4
 62
     7
 10
69.543800000000005
 20
70.287599999999998
 30
0.0
 11
69.543800000000005
 21
68.061400000000006
 31
0.0
  0
LINE
  5
63
  8
_________4
 62
     7
 10
69.9345
 20
70.287599999999998
 30
0.0
 11
69.9345
 21
68.061400000000006
 31
0.0
  0
LINE
  5
64
  8
_________4
 62
     7
 10
69.9345
 20
70.287599999999998
 30
0.0
 11
70.624600000000001
 21
70.287599999999998
 31
0.0
  0
LINE
  5
65
  8
_________4
 62
     7
 10
69.052599999999998
 20
70.287599999999998
 30
0.0
 11
69.543800000000005
 21
70.287599999999998
 31
0.0
  0
ARC
  5
66
  8
_________4
 62
     7
 10
70.607236
 20
67.593090000000004
 30
0.0
 40
0.468623
 50
2.1622659999999989
 51
87.881511999999987
  0
ARC
  5
67
  8
_________4
 62
     7
 10
70.606878000000009
 20
67.62809399999999
 30
0.0
 40
0.4689670000000001
 50
272.1607009999999
 51
357.88306299999999
  0
LINE
  5
68
  8
_________4
 62
     7
 10
69.9345
 20
68.061400000000006
 30
0.0
 11
70.624600000000001
 21
68.061400000000006
 31
0.0
  0
LINE
  5
69
  8
_________4
 62
     7
 10
69.052599999999998
 20
68.061400000000006
 30
0.0
 11
69.543800000000005
 21
68.061400000000006
 31
0.0
  0
LINE
  5
6A
  8
_________4
 62
     7
 10
70.302400000000006
 20
60.6599
 30
0.0
 11
70.302400000000006
 21
67.159499999999994
 31
0.0
  0
LINE
  5
6B
  8
_________4
 62
     7
 10
69.052599999999998
 20
67.159499999999994
 30
0.0
 11
70.624600000000001
 21
67.159499999999994
 31
0.0
  0
LINE
  5
6C
  8
_________4
 62
     7
 10
70.552599999999998
 20
72.250699999999995
 30
0.0
 11
70.552599999999998
 21
96.904600000000016
 31
0.0
  0
LINE
  5
6D
  8
_________4
 62
     7
 10
67.552499999999995
 20
72.250699999999995
 30
0.0
 11
67.552499999999995
 21
96.904600000000016
 31
0.0
  0
ARC
  5
6E
  8
0
 62
     7
 10
104.371484
 20
151.892822
 30
0.0
 40
16.703505
 50
218.8416059999999
 51
269.544085
  0
ARC
  5
6F
  8
0
 62
     7
 10
104.240678
 20
151.78358399999999
 30
0.0
 40
16.593737000000001
 50
269.99272500000001
 51
279.56417900000002
  0
LINE
  5
70
  8
0
 62
     7
 10
104.79600000000001
 20
135.8539999999999
 30
0.0
 11
102.58199999999999
 21
135.27299999999991
 31
0.0
  0
LINE
  5
71
  8
0
 62
     7
 10
102.58199999999999
 20
135.27299999999991
 30
0.0
 11
104.7889999999999
 21
134.6689999999999
 31
0.0
  0
LINE
  5
72
  8
0
 62
     7
 10
104.7889999999999
 20
134.6689999999999
 30
0.0
 11
104.79600000000001
 21
135.8539999999999
 31
0.0
  0
LINE
  5
73
  8
0
 62
     7
 10
91.663499999999985
 20
140.126
 30
0.0
 11
93.668899999999994
 21
139.023
 31
0.0
  0
LINE
  5
74
  8
0
 62
     7
 10
93.668899999999994
 20
139.023
 30
0.0
 11
92.483699999999985
 21
140.98099999999999
 31
0.0
  0
LINE
  5
75
  8
0
 62
     7
 10
92.483699999999985
 20
140.98099999999999
 30
0.0
 11
91.663499999999985
 21
140.126
 31
0.0
  0
LINE
  5
76
  8
0
 62
     7
 10
101.117
 20
149.46399999999991
 30
0.0
 11
93.036600000000007
 21
138.13699999999989
 31
0.0
  0
TEXT
  5
77
  8
0
 62
     7
 10
95.498334999999997
 20
132.88699999999989
 30
0.0
 40
3.0923400000000001
  1
35%%d
 41
0.5
 72
     1
 11
97.302199999999999
 21
132.88699999999989
 31
0.0
  0
LINE
  5
78
  8
0
 62
     7
 10
115.8009999999999
 20
148.05399999999989
 30
0.0
 11
115.209
 21
150.26400000000001
 31
0.0
  0
LINE
  5
79
  8
0
 62
     7
 10
115.209
 20
150.26400000000001
 30
0.0
 11
114.617
 21
148.05399999999989
 31
0.0
  0
LINE
  5
7A
  8
0
 62
     7
 10
114.617
 20
148.05399999999989
 30
0.0
 11
115.8009999999999
 21
148.05399999999989
 31
0.0
  0
LINE
  5
7B
  8
0
 62
     7
 10
114.6309999999999
 20
145.29199999999989
 30
0.0
 11
115.2239999999999
 21
143.08199999999991
 31
0.0
  0
LINE
  5
7C
  8
0
 62
     7
 10
115.2239999999999
 20
143.08199999999991
 30
0.0
 11
115.816
 21
145.29199999999989
 31
0.0
  0
LINE
  5
7D
  8
0
 62
     7
 10
115.816
 20
145.29199999999989
 30
0.0
 11
114.6309999999999
 21
145.29199999999989
 31
0.0
  0
LINE
  5
7E
  8
0
 62
     7
 10
115.209
 20
150.2649999999999
 30
0.0
 11
115.209
 21
143.08099999999999
 31
0.0
  0
LINE
  5
7F
  8
0
 62
     7
 10
115.917
 20
150.26400000000001
 30
0.0
 11
105.5379999999999
 21
150.26400000000001
 31
0.0
  0
LINE
  5
80
  8
0
 62
     7
 10
92.445599999999985
 20
149.33099999999999
 30
0.0
 11
91.853399999999993
 21
151.54099999999991
 31
0.0
  0
LINE
  5
81
  8
0
 62
     7
 10
91.853399999999993
 20
151.54099999999991
 30
0.0
 11
91.261200000000002
 21
149.33099999999999
 31
0.0
  0
LINE
  5
82
  8
0
 62
     7
 10
91.261200000000002
 20
149.33099999999999
 30
0.0
 11
92.445599999999985
 21
149.33099999999999
 31
0.0
  0
LINE
  5
83
  8
0
 62
     7
 10
91.275599999999997
 20
145.29199999999989
 30
0.0
 11
91.867800000000003
 21
143.08199999999991
 31
0.0
  0
LINE
  5
84
  8
0
 62
     7
 10
91.867800000000003
 20
143.08199999999991
 30
0.0
 11
92.460099999999997
 21
145.29199999999989
 31
0.0
  0
LINE
  5
85
  8
0
 62
     7
 10
92.460099999999997
 20
145.29199999999989
 30
0.0
 11
91.275599999999997
 21
145.29199999999989
 31
0.0
  0
LINE
  5
86
  8
0
 62
     7
 10
91.853399999999993
 20
151.54199999999989
 30
0.0
 11
91.853399999999993
 21
143.08099999999999
 31
0.0
  0
LINE
  5
87
  8
0
 62
     7
 10
101.54900000000001
 20
151.54099999999991
 30
0.0
 11
91.170500000000004
 21
151.54099999999991
 31
0.0
  0
LINE
  5
88
  8
0
 62
     7
 10
91.153300000000002
 20
143.0679999999999
 30
0.0
 11
123.3589999999999
 21
143.0679999999999
 31
0.0
  0
LINE
  5
89
  8
0
 62
     7
 10
132.81700000000001
 20
132.4429999999999
 30
0.0
 11
132.81700000000001
 21
128.0679999999999
 31
0.0
  0
LINE
  5
8A
  8
0
 62
     7
 10
132.81700000000001
 20
141.05099999999999
 30
0.0
 11
132.81700000000001
 21
135.5679999999999
 31
0.0
  0
LINE
  5
8B
  8
0
 62
     7
 10
133.06700000000001
 20
135.5679999999999
 30
0.0
 11
133.06700000000001
 21
141.05099999999999
 31
0.0
  0
LINE
  5
8C
  8
0
 62
     7
 10
125.81699999999999
 20
141.05099999999999
 30
0.0
 11
125.81699999999999
 21
135.5679999999999
 31
0.0
  0
LINE
  5
8D
  8
0
 62
     7
 10
125.5679999999999
 20
135.5679999999999
 30
0.0
 11
125.5679999999999
 21
141.05099999999999
 31
0.0
  0
LINE
  5
8E
  8
0
 62
     7
 10
132.81700000000001
 20
134.9429999999999
 30
0.0
 11
132.81700000000001
 21
133.6929999999999
 31
0.0
  0
LINE
  5
8F
  8
0
 62
     7
 10
133.06700000000001
 20
133.6929999999999
 30
0.0
 11
133.06700000000001
 21
134.9429999999999
 31
0.0
  0
LINE
  5
90
  8
0
 62
     7
 10
125.81699999999999
 20
134.9429999999999
 30
0.0
 11
125.81699999999999
 21
133.6929999999999
 31
0.0
  0
LINE
  5
91
  8
0
 62
     7
 10
125.5679999999999
 20
133.6929999999999
 30
0.0
 11
125.5679999999999
 21
134.9429999999999
 31
0.0
  0
LINE
  5
92
  8
0
 62
     7
 10
125.81699999999999
 20
132.4429999999999
 30
0.0
 11
125.81699999999999
 21
128.0679999999999
 31
0.0
  0
LINE
  5
93
  8
0
 62
     7
 10
125.5679999999999
 20
128.3179999999999
 30
0.0
 11
125.5679999999999
 21
132.4429999999999
 31
0.0
  0
LINE
  5
94
  8
0
 62
     7
 10
125.5679999999999
 20
128.3179999999999
 30
0.0
 11
133.06700000000001
 21
128.3179999999999
 31
0.0
  0
LINE
  5
95
  8
0
 62
     7
 10
133.06700000000001
 20
132.4429999999999
 30
0.0
 11
133.06700000000001
 21
128.3179999999999
 31
0.0
  0
LINE
  5
96
  8
0
 62
     7
 10
133.06700000000001
 20
128.3179999999999
 30
0.0
 11
132.816
 21
128.0679999999999
 31
0.0
  0
LINE
  5
97
  8
0
 62
     7
 10
132.816
 20
128.0679999999999
 30
0.0
 11
125.81699999999999
 21
128.0679999999999
 31
0.0
  0
LINE
  5
98
  8
0
 62
     7
 10
125.81699999999999
 20
128.0679999999999
 30
0.0
 11
125.5679999999999
 21
128.3179999999999
 31
0.0
  0
LINE
  5
99
  8
0
 62
     7
 10
71.068299999999994
 20
132.4429999999999
 30
0.0
 11
71.068299999999994
 21
128.06700000000001
 31
0.0
  0
LINE
  5
9A
  8
0
 62
     7
 10
71.068299999999994
 20
141.05099999999999
 30
0.0
 11
71.068299999999994
 21
135.5679999999999
 31
0.0
  0
LINE
  5
9B
  8
0
 62
     7
 10
71.318399999999997
 20
135.5679999999999
 30
0.0
 11
71.318399999999997
 21
141.05099999999999
 31
0.0
  0
LINE
  5
9C
  8
0
 62
     7
 10
64.0685
 20
141.05099999999999
 30
0.0
 11
64.0685
 21
135.5679999999999
 31
0.0
  0
LINE
  5
9D
  8
0
 62
     7
 10
63.8187
 20
135.5679999999999
 30
0.0
 11
63.8187
 21
141.05099999999999
 31
0.0
  0
LINE
  5
9E
  8
0
 62
     7
 10
71.068299999999994
 20
134.9429999999999
 30
0.0
 11
71.068299999999994
 21
133.6929999999999
 31
0.0
  0
LINE
  5
9F
  8
0
 62
     7
 10
71.318399999999997
 20
133.6929999999999
 30
0.0
 11
71.318399999999997
 21
134.9429999999999
 31
0.0
  0
LINE
  5
A0
  8
0
 62
     7
 10
64.0685
 20
134.9429999999999
 30
0.0
 11
64.0685
 21
133.6929999999999
 31
0.0
  0
LINE
  5
A1
  8
0
 62
     7
 10
63.8187
 20
133.6929999999999
 30
0.0
 11
63.8187
 21
134.9429999999999
 31
0.0
  0
LINE
  5
A2
  8
0
 62
     7
 10
64.0685
 20
132.4429999999999
 30
0.0
 11
64.0685
 21
128.06700000000001
 31
0.0
  0
LINE
  5
A3
  8
0
 62
     7
 10
63.8187
 20
128.3179999999999
 30
0.0
 11
63.8187
 21
132.4429999999999
 31
0.0
  0
LINE
  5
A4
  8
0
 62
     7
 10
63.8187
 20
128.3179999999999
 30
0.0
 11
71.318399999999997
 21
128.3179999999999
 31
0.0
  0
LINE
  5
A5
  8
0
 62
     7
 10
71.318399999999997
 20
132.4429999999999
 30
0.0
 11
71.318399999999997
 21
128.3179999999999
 31
0.0
  0
LINE
  5
A6
  8
0
 62
     7
 10
71.318399999999997
 20
128.3179999999999
 30
0.0
 11
71.066599999999994
 21
128.06700000000001
 31
0.0
  0
LINE
  5
A7
  8
0
 62
     7
 10
71.066599999999994
 20
128.06700000000001
 30
0.0
 11
64.0685
 21
128.06700000000001
 31
0.0
  0
LINE
  5
A8
  8
0
 62
     7
 10
64.0685
 20
128.06700000000001
 30
0.0
 11
63.8187
 21
128.3179999999999
 31
0.0
  0
LINE
  5
A9
  8
0
 62
     7
 10
128.7239999999999
 20
131.19200000000001
 30
0.0
 11
128.7239999999999
 21
132.44200000000001
 31
0.0
  0
LINE
  5
AA
  8
0
 62
     7
 10
129.9739999999999
 20
131.19200000000001
 30
0.0
 11
129.9739999999999
 21
132.44200000000001
 31
0.0
  0
LINE
  5
AB
  8
0
 62
     7
 10
128.7239999999999
 20
133.69200000000001
 30
0.0
 11
128.7239999999999
 21
134.94200000000001
 31
0.0
  0
LINE
  5
AC
  8
0
 62
     7
 10
129.9739999999999
 20
133.69200000000001
 30
0.0
 11
129.9739999999999
 21
134.94200000000001
 31
0.0
  0
LINE
  5
AD
  8
0
 62
     7
 10
128.29900000000001
 20
129.9429999999999
 30
0.0
 11
128.29900000000001
 21
131.19200000000001
 31
0.0
  0
LINE
  5
AE
  8
0
 62
     7
 10
128.29900000000001
 20
131.19200000000001
 30
0.0
 11
130.39899999999989
 21
131.19200000000001
 31
0.0
  0
LINE
  5
AF
  8
0
 62
     7
 10
130.39899999999989
 20
131.19200000000001
 30
0.0
 11
130.39899999999989
 21
129.9429999999999
 31
0.0
  0
LINE
  5
B0
  8
0
 62
     7
 10
130.39899999999989
 20
129.9429999999999
 30
0.0
 11
128.29900000000001
 21
129.9429999999999
 31
0.0
  0
LINE
  5
B1
  8
0
 62
     7
 10
123.099
 20
132.44200000000001
 30
0.0
 11
123.099
 21
133.69200000000001
 31
0.0
  0
LINE
  5
B2
  8
0
 62
     7
 10
123.099
 20
133.69200000000001
 30
0.0
 11
135.59899999999999
 21
133.69200000000001
 31
0.0
  0
LINE
  5
B3
  8
0
 62
     7
 10
135.59899999999999
 20
133.69200000000001
 30
0.0
 11
135.59899999999999
 21
132.44200000000001
 31
0.0
  0
LINE
  5
B4
  8
0
 62
     7
 10
135.59899999999999
 20
132.44200000000001
 30
0.0
 11
123.099
 21
132.44200000000001
 31
0.0
  0
LINE
  5
B5
  8
0
 62
     7
 10
123.099
 20
134.94200000000001
 30
0.0
 11
123.099
 21
135.3179999999999
 31
0.0
  0
LINE
  5
B6
  8
0
 62
     7
 10
123.099
 20
135.3179999999999
 30
0.0
 11
135.59899999999999
 21
135.3179999999999
 31
0.0
  0
LINE
  5
B7
  8
0
 62
     7
 10
135.59899999999999
 20
135.3179999999999
 30
0.0
 11
135.59899999999999
 21
134.94200000000001
 31
0.0
  0
LINE
  5
B8
  8
0
 62
     7
 10
135.59899999999999
 20
134.94200000000001
 30
0.0
 11
123.099
 21
134.94200000000001
 31
0.0
  0
LINE
  5
B9
  8
0
 62
     7
 10
123.84999999999989
 20
135.3179999999999
 30
0.0
 11
123.84999999999989
 21
135.5679999999999
 31
0.0
  0
LINE
  5
BA
  8
0
 62
     7
 10
123.84999999999989
 20
135.5679999999999
 30
0.0
 11
134.8489999999999
 21
135.5679999999999
 31
0.0
  0
LINE
  5
BB
  8
0
 62
     7
 10
134.8489999999999
 20
135.5679999999999
 30
0.0
 11
134.8489999999999
 21
135.3179999999999
 31
0.0
  0
LINE
  5
BC
  8
0
 62
     7
 10
134.8489999999999
 20
135.3179999999999
 30
0.0
 11
123.84999999999989
 21
135.3179999999999
 31
0.0
  0
LINE
  5
BD
  8
0
 62
     7
 10
129.602
 20
143.0679999999999
 30
0.0
 11
129.602
 21
141.61799999999991
 31
0.0
  0
ARC
  5
BE
  8
0
 62
     7
 10
129.34688499999999
 20
141.61952799999989
 30
0.0
 40
0.254641
 50
315.05220500000001
 51
359.67665799999997
  0
ARC
  5
BF
  8
0
 62
     7
 10
129.35000099999999
 20
141.61549400000001
 30
0.0
 40
0.249586
 50
269.84809100000001
 51
315.20229799999998
  0
ARC
  5
C0
  8
0
 62
     7
 10
129.350765
 20
141.62220400000001
 30
0.0
 40
0.2563
 50
225.424915
 51
269.68138699999997
  0
ARC
  5
C1
  8
0
 62
     7
 10
129.35410100000001
 20
141.61978400000001
 30
0.0
 40
0.256949
 50
180.37753499999999
 51
224.516223
  0
LINE
  5
C2
  8
0
 62
     7
 10
129.09700000000001
 20
141.61799999999991
 30
0.0
 11
129.09700000000001
 21
143.0679999999999
 31
0.0
  0
LINE
  5
C3
  8
0
 62
     7
 10
133.3839999999999
 20
141.05099999999999
 30
0.0
 11
133.3839999999999
 21
143.0679999999999
 31
0.0
  0
LINE
  5
C4
  8
0
 62
     7
 10
125.252
 20
141.05099999999999
 30
0.0
 11
133.3839999999999
 21
141.05099999999999
 31
0.0
  0
LINE
  5
C5
  8
0
 62
     7
 10
133.3839999999999
 20
141.05099999999999
 30
0.0
 11
133.69799999999989
 21
143.0679999999999
 31
0.0
  0
LINE
  5
C6
  8
0
 62
     7
 10
125.252
 20
143.0679999999999
 30
0.0
 11
125.252
 21
141.05099999999999
 31
0.0
  0
LINE
  5
C7
  8
0
 62
     7
 10
125.252
 20
141.05099999999999
 30
0.0
 11
124.9379999999999
 21
143.0679999999999
 31
0.0
  0
LINE
  5
C8
  8
0
 62
     7
 10
124.6329999999999
 20
143.31999999999999
 30
0.0
 11
134.06599999999989
 21
143.31999999999999
 31
0.0
  0
LINE
  5
C9
  8
0
 62
     7
 10
134.06599999999989
 20
143.31999999999999
 30
0.0
 11
134.50699999999989
 21
143.31999999999999
 31
0.0
  0
LINE
  5
CA
  8
0
 62
     7
 10
134.50699999999989
 20
143.31999999999999
 30
0.0
 11
134.50699999999989
 21
143.0679999999999
 31
0.0
  0
LINE
  5
CB
  8
0
 62
     7
 10
134.50699999999989
 20
143.0679999999999
 30
0.0
 11
124.129
 21
143.0679999999999
 31
0.0
  0
LINE
  5
CC
  8
0
 62
     7
 10
124.129
 20
143.0679999999999
 30
0.0
 11
124.129
 21
143.31999999999999
 31
0.0
  0
LINE
  5
CD
  8
0
 62
     7
 10
124.129
 20
143.31999999999999
 30
0.0
 11
124.6329999999999
 21
143.31999999999999
 31
0.0
  0
LINE
  5
CE
  8
0
 62
     7
 10
127.855
 20
137.11699999999999
 30
0.0
 11
125.64400000000001
 21
136.524
 31
0.0
  0
LINE
  5
CF
  8
0
 62
     7
 10
125.64400000000001
 20
136.524
 30
0.0
 11
127.855
 21
135.93199999999999
 31
0.0
  0
LINE
  5
D0
  8
0
 62
     7
 10
127.855
 20
135.93199999999999
 30
0.0
 11
127.855
 21
137.11699999999999
 31
0.0
  0
LINE
  5
D1
  8
0
 62
     7
 10
130.905
 20
135.94699999999989
 30
0.0
 11
133.11600000000001
 21
136.5389999999999
 31
0.0
  0
LINE
  5
D2
  8
0
 62
     7
 10
133.11600000000001
 20
136.5389999999999
 30
0.0
 11
130.905
 21
137.131
 31
0.0
  0
LINE
  5
D3
  8
0
 62
     7
 10
130.905
 20
137.131
 30
0.0
 11
130.905
 21
135.94699999999989
 31
0.0
  0
LINE
  5
D4
  8
0
 62
     7
 10
125.64400000000001
 20
136.524
 30
0.0
 11
133.11699999999999
 21
136.524
 31
0.0
  0
LINE
  5
D5
  8
0
  6
AIGENLINE003
 62
     7
 10
129.34899999999999
 20
140.4189999999999
 30
0.0
 11
129.34899999999999
 21
147.4429999999999
 31
0.0
  0
ARC
  5
D6
  8
0
 62
     7
 10
129.21776799999989
 20
97.609906000000009
 30
0.0
 40
1.064284999999999
 50
240.31347099999991
 51
269.92408999999992
  0
ARC
  5
D7
  8
0
 62
     7
 10
129.04221399999989
 20
97.268381999999988
 30
0.0
 40
0.680846
 50
212.29675299999991
 51
238.91391200000001
  0
ARC
  5
D8
  8
0
 62
     7
 10
129.21494799999991
 20
97.609906000000009
 30
0.0
 40
1.064284999999999
 50
270.07592999999991
 51
299.68654900000001
  0
ARC
  5
D9
  8
0
 62
     7
 10
129.390501
 20
97.268381999999988
 30
0.0
 40
0.680846
 50
301.08610800000002
 51
327.70326699999998
  0
ARC
  5
DA
  8
0
 62
     7
 10
129.21494799999991
 20
96.199299999999994
 30
0.0
 40
1.064284999999999
 50
60.313450999999993
 51
89.92407
  0
ARC
  5
DB
  8
0
 62
     7
 10
129.390501
 20
96.540824000000001
 30
0.0
 40
0.680846
 50
32.296733000000003
 51
58.913891999999997
  0
ARC
  5
DC
  8
0
 62
     7
 10
129.21776799999989
 20
96.199299999999994
 30
0.0
 40
1.064284999999999
 50
90.075909999999965
 51
119.68652899999999
  0
ARC
  5
DD
  8
0
 62
     7
 10
129.04221399999989
 20
96.540824000000001
 30
0.0
 40
0.680846
 50
121.086088
 51
147.703247
  0
ARC
  5
DE
  8
0
 62
     7
 10
127.714938
 20
96.197857999999997
 30
0.0
 40
1.0657270000000001
 50
60.334006999999993
 51
89.923888999999988
  0
ARC
  5
DF
  8
0
 62
     7
 10
127.891025
 20
96.540159000000003
 30
0.0
 40
0.6813380000000001
 50
32.336767999999999
 51
58.953650000000003
  0
ARC
  5
E0
  8
0
 62
     7
 10
127.7177639999999
 20
96.199299999999994
 30
0.0
 40
1.064284999999999
 50
90.075909999999965
 51
119.68652899999999
  0
ARC
  5
E1
  8
0
 62
     7
 10
127.54221
 20
96.540824000000001
 30
0.0
 40
0.680846
 50
121.086088
 51
147.703247
  0
LINE
  5
E2
  8
0
 62
     7
 10
129.71700000000001
 20
63.159700000000001
 30
0.0
 11
127.217
 21
63.159700000000001
 31
0.0
  0
LINE
  5
E3
  8
0
 62
     7
 10
129.71700000000001
 20
60.659199999999998
 30
0.0
 11
127.217
 21
60.659199999999998
 31
0.0
  0
LINE
  5
E4
  8
0
 62
     7
 10
126.621
 20
72.25
 30
0.0
 11
126.621
 21
70.561199999999985
 31
0.0
  0
LINE
  5
E5
  8
0
 62
     7
 10
126.621
 20
72.25
 30
0.0
 11
128.46700000000001
 21
72.25
 31
0.0
  0
LINE
  5
E6
  8
0
 62
     7
 10
126.895
 20
70.287599999999998
 30
0.0
 11
126.895
 21
68.061400000000006
 31
0.0
  0
LINE
  5
E7
  8
0
 62
     7
 10
126.895
 20
70.287599999999998
 30
0.0
 11
126.621
 21
70.561199999999985
 31
0.0
  0
LINE
  5
E8
  8
0
 62
     7
 10
127.97499999999989
 20
70.287599999999998
 30
0.0
 11
127.97499999999989
 21
68.061400000000006
 31
0.0
  0
LINE
  5
E9
  8
0
 62
     7
 10
127.58499999999989
 20
70.287599999999998
 30
0.0
 11
127.58499999999989
 21
68.061400000000006
 31
0.0
  0
LINE
  5
EA
  8
0
 62
     7
 10
127.58499999999989
 20
70.287599999999998
 30
0.0
 11
126.895
 21
70.287599999999998
 31
0.0
  0
LINE
  5
EB
  8
0
 62
     7
 10
128.46700000000001
 20
70.287599999999998
 30
0.0
 11
127.97499999999989
 21
70.287599999999998
 31
0.0
  0
ARC
  5
EC
  8
0
 62
     7
 10
126.91233699999999
 20
67.628096999999997
 30
0.0
 40
0.4689550000000001
 50
182.20157699999999
 51
267.88599399999993
  0
ARC
  5
ED
  8
0
 62
     7
 10
126.91199399999989
 20
67.593125999999998
 30
0.0
 40
0.468573
 50
92.073751000000001
 51
177.926219
  0
LINE
  5
EE
  8
0
 62
     7
 10
127.58499999999989
 20
68.061400000000006
 30
0.0
 11
126.895
 21
68.061400000000006
 31
0.0
  0
LINE
  5
EF
  8
0
 62
     7
 10
128.46700000000001
 20
68.061400000000006
 30
0.0
 11
127.97499999999989
 21
68.061400000000006
 31
0.0
  0
LINE
  5
F0
  8
0
 62
     7
 10
127.217
 20
60.659199999999998
 30
0.0
 11
127.217
 21
67.159499999999994
 31
0.0
  0
LINE
  5
F1
  8
0
 62
     7
 10
128.46700000000001
 20
67.159499999999994
 30
0.0
 11
126.895
 21
67.159499999999994
 31
0.0
  0
LINE
  5
F2
  8
0
 62
     7
 10
130.31200000000001
 20
72.25
 30
0.0
 11
130.31200000000001
 21
70.561199999999985
 31
0.0
  0
LINE
  5
F3
  8
0
 62
     7
 10
130.31200000000001
 20
72.25
 30
0.0
 11
128.46700000000001
 21
72.25
 31
0.0
  0
LINE
  5
F4
  8
0
 62
     7
 10
130.0379999999999
 20
70.287599999999998
 30
0.0
 11
130.0379999999999
 21
68.061400000000006
 31
0.0
  0
LINE
  5
F5
  8
0
 62
     7
 10
130.0379999999999
 20
70.287599999999998
 30
0.0
 11
130.31200000000001
 21
70.561199999999985
 31
0.0
  0
LINE
  5
F6
  8
0
 62
     7
 10
128.95799999999991
 20
70.287599999999998
 30
0.0
 11
128.95799999999991
 21
68.061400000000006
 31
0.0
  0
LINE
  5
F7
  8
0
 62
     7
 10
129.34899999999999
 20
70.287599999999998
 30
0.0
 11
129.34899999999999
 21
68.061400000000006
 31
0.0
  0
LINE
  5
F8
  8
0
 62
     7
 10
129.34899999999999
 20
70.287599999999998
 30
0.0
 11
130.0379999999999
 21
70.287599999999998
 31
0.0
  0
LINE
  5
F9
  8
0
 62
     7
 10
128.46700000000001
 20
70.287599999999998
 30
0.0
 11
128.95799999999991
 21
70.287599999999998
 31
0.0
  0
ARC
  5
FA
  8
0
 62
     7
 10
130.02101499999989
 20
67.592733999999993
 30
0.0
 40
0.468979
 50
2.119858999999999
 51
87.88013100000002
  0
ARC
  5
FB
  8
0
 62
     7
 10
130.02208799999991
 20
67.627071000000001
 30
0.0
 40
0.4678930000000001
 50
271.99328100000002
 51
357.91918700000002
  0
LINE
  5
FC
  8
0
 62
     7
 10
129.34899999999999
 20
68.061400000000006
 30
0.0
 11
130.0379999999999
 21
68.061400000000006
 31
0.0
  0
LINE
  5
FD
  8
0
 62
     7
 10
128.46700000000001
 20
68.061400000000006
 30
0.0
 11
128.95799999999991
 21
68.061400000000006
 31
0.0
  0
LINE
  5
FE
  8
0
 62
     7
 10
129.71700000000001
 20
60.659199999999998
 30
0.0
 11
129.71700000000001
 21
67.159499999999994
 31
0.0
  0
LINE
  5
FF
  8
0
 62
     7
 10
128.46700000000001
 20
67.159499999999994
 30
0.0
 11
130.0379999999999
 21
67.159499999999994
 31
0.0
  0
LINE
  5
100
  8
0
 62
     7
 10
129.96700000000001
 20
72.250699999999995
 30
0.0
 11
129.96700000000001
 21
96.904600000000016
 31
0.0
  0
LINE
  5
101
  8
0
 62
     7
 10
126.967
 20
72.250699999999995
 30
0.0
 11
126.967
 21
96.904600000000016
 31
0.0
  0
LINE
  5
102
  8
0
  6
AIGENLINE001
 62
     7
 10
128.46700000000001
 20
128.8549999999999
 30
0.0
 11
128.46700000000001
 21
59.220500000000001
 31
0.0
  0
LINE
  5
103
  8
0
 62
     7
 10
129.96700000000001
 20
127.55
 30
0.0
 11
129.4489999999999
 21
128.06700000000001
 31
0.0
  0
LINE
  5
104
  8
0
 62
     7
 10
127.4839999999999
 20
128.06700000000001
 30
0.0
 11
126.967
 21
127.55
 31
0.0
  0
LINE
  5
105
  8
0
 62
     7
 10
129.96700000000001
 20
126.449
 30
0.0
 11
128.3479999999999
 21
128.06700000000001
 31
0.0
  0
LINE
  5
106
  8
0
 62
     7
 10
128.58500000000001
 20
128.06700000000001
 30
0.0
 11
126.967
 21
126.449
 31
0.0
  0
LINE
  5
107
  8
0
 62
     7
 10
129.96700000000001
 20
125.34699999999999
 30
0.0
 11
127.247
 21
128.06700000000001
 31
0.0
  0
LINE
  5
108
  8
0
 62
     7
 10
129.68600000000001
 20
128.06700000000001
 30
0.0
 11
126.967
 21
125.34699999999999
 31
0.0
  0
LINE
  5
109
  8
0
 62
     7
 10
129.24600000000001
 20
124.9679999999999
 30
0.0
 11
126.967
 21
127.246
 31
0.0
  0
LINE
  5
10A
  8
0
 62
     7
 10
129.96700000000001
 20
127.246
 30
0.0
 11
127.688
 21
124.9679999999999
 31
0.0
  0
LINE
  5
10B
  8
0
 62
     7
 10
128.14500000000001
 20
124.9679999999999
 30
0.0
 11
126.967
 21
126.1449999999999
 31
0.0
  0
LINE
  5
10C
  8
0
 62
     7
 10
129.96700000000001
 20
126.1449999999999
 30
0.0
 11
128.7889999999999
 21
124.9679999999999
 31
0.0
  0
LINE
  5
10D
  8
0
 62
     7
 10
129.96700000000001
 20
98.756699999999995
 30
0.0
 11
129.96700000000001
 21
128.06700000000001
 31
0.0
  0
LINE
  5
10E
  8
0
 62
     7
 10
126.967
 20
98.756699999999995
 30
0.0
 11
126.967
 21
128.06700000000001
 31
0.0
  0
ARC
  5
10F
  8
0
 62
     7
 10
127.715632
 20
98.051395000000014
 30
0.0
 40
1.064284999999999
 50
60.313450999999993
 51
89.92407
  0
ARC
  5
110
  8
0
 62
     7
 10
127.891186
 20
98.392918999999992
 30
0.0
 40
0.680846
 50
32.296733000000003
 51
58.913891999999997
  0
ARC
  5
111
  8
0
 62
     7
 10
127.7184569999999
 20
98.050158999999994
 30
0.0
 40
1.0655209999999991
 50
90.076064999999986
 51
119.6689079999999
  0
ARC
  5
112
  8
0
 62
     7
 10
127.54122700000001
 20
98.394241000000022
 30
0.0
 40
0.6790180000000001
 50
121.04617399999989
 51
147.73765499999999
  0
ARC
  5
113
  8
0
 62
     7
 10
127.7184569999999
 20
99.463237000000007
 30
0.0
 40
1.0655209999999991
 50
240.33109200000001
 51
269.92393499999997
  0
ARC
  5
114
  8
0
 62
     7
 10
127.54122700000001
 20
99.119155000000006
 30
0.0
 40
0.6790180000000001
 50
212.26234500000001
 51
238.95382599999991
  0
ARC
  5
115
  8
0
 62
     7
 10
127.715632
 20
99.462001000000001
 30
0.0
 40
1.064284999999999
 50
270.07592999999991
 51
299.68654900000001
  0
ARC
  5
116
  8
0
 62
     7
 10
127.891186
 20
99.120477000000022
 30
0.0
 40
0.680846
 50
301.08610800000002
 51
327.70326699999998
  0
ARC
  5
117
  8
0
 62
     7
 10
129.21810600000001
 20
99.463114000000004
 30
0.0
 40
1.0653980000000001
 50
240.32934299999999
 51
269.92451999999997
  0
ARC
  5
118
  8
0
 62
     7
 10
129.0418929999999
 20
99.120218000000008
 30
0.0
 40
0.680437
 50
212.29277099999999
 51
238.9289059999999
  0
ARC
  5
119
  8
0
 62
     7
 10
129.2152889999999
 20
99.462700999999996
 30
0.0
 40
1.0649850000000001
 50
270.07601799999998
 51
299.67656099999999
  0
ARC
  5
11A
  8
0
 62
     7
 10
129.39136899999991
 20
99.120553000000001
 30
0.0
 40
0.6807350000000002
 50
301.058269
 51
327.68982
  0
LINE
  5
11B
  8
0
  6
AIGENLINE003
 62
     7
 10
129.34899999999999
 20
123.649
 30
0.0
 11
129.34899999999999
 21
135.874
 31
0.0
  0
LINE
  5
11C
  8
0
 62
     7
 10
67.414100000000005
 20
127.55
 30
0.0
 11
66.896600000000007
 21
128.06700000000001
 31
0.0
  0
LINE
  5
11D
  8
0
 62
     7
 10
64.931499999999986
 20
128.06700000000001
 30
0.0
 11
64.414000000000001
 21
127.55
 31
0.0
  0
LINE
  5
11E
  8
0
 62
     7
 10
67.414100000000005
 20
126.449
 30
0.0
 11
65.795500000000004
 21
128.06700000000001
 31
0.0
  0
LINE
  5
11F
  8
0
 62
     7
 10
66.032600000000002
 20
128.06700000000001
 30
0.0
 11
64.414000000000001
 21
126.449
 31
0.0
  0
LINE
  5
120
  8
0
 62
     7
 10
67.414100000000005
 20
125.3479999999999
 30
0.0
 11
64.694500000000005
 21
128.06700000000001
 31
0.0
  0
LINE
  5
121
  8
0
 62
     7
 10
67.133600000000001
 20
128.06700000000001
 30
0.0
 11
64.414000000000001
 21
125.3479999999999
 31
0.0
  0
LINE
  5
122
  8
0
 62
     7
 10
66.692599999999999
 20
124.9679999999999
 30
0.0
 11
64.414000000000001
 21
127.247
 31
0.0
  0
LINE
  5
123
  8
0
 62
     7
 10
67.414100000000005
 20
127.247
 30
0.0
 11
65.134799999999998
 21
124.9679999999999
 31
0.0
  0
LINE
  5
124
  8
0
 62
     7
 10
65.5916
 20
124.9679999999999
 30
0.0
 11
64.414000000000001
 21
126.146
 31
0.0
  0
LINE
  5
125
  8
0
 62
     7
 10
67.414100000000005
 20
126.146
 30
0.0
 11
66.235799999999998
 21
124.9679999999999
 31
0.0
  0
LINE
  5
126
  8
0
 62
     7
 10
70.552599999999998
 20
127.55
 30
0.0
 11
70.0351
 21
128.06700000000001
 31
0.0
  0
LINE
  5
127
  8
0
 62
     7
 10
68.069999999999993
 20
128.06700000000001
 30
0.0
 11
67.552499999999995
 21
127.55
 31
0.0
  0
LINE
  5
128
  8
0
 62
     7
 10
70.552599999999998
 20
126.449
 30
0.0
 11
68.933999999999983
 21
128.06700000000001
 31
0.0
  0
LINE
  5
129
  8
0
 62
     7
 10
69.171099999999996
 20
128.06700000000001
 30
0.0
 11
67.552499999999995
 21
126.449
 31
0.0
  0
LINE
  5
12A
  8
0
 62
     7
 10
70.552599999999998
 20
125.3479999999999
 30
0.0
 11
67.832999999999998
 21
128.06700000000001
 31
0.0
  0
LINE
  5
12B
  8
0
 62
     7
 10
70.272099999999995
 20
128.06700000000001
 30
0.0
 11
67.552499999999995
 21
125.3479999999999
 31
0.0
  0
LINE
  5
12C
  8
0
 62
     7
 10
69.831100000000006
 20
124.9679999999999
 30
0.0
 11
67.552499999999995
 21
127.247
 31
0.0
  0
LINE
  5
12D
  8
0
 62
     7
 10
70.552599999999998
 20
127.247
 30
0.0
 11
68.273300000000006
 21
124.9679999999999
 31
0.0
  0
LINE
  5
12E
  8
0
 62
     7
 10
68.730099999999993
 20
124.9679999999999
 30
0.0
 11
67.552499999999995
 21
126.146
 31
0.0
  0
LINE
  5
12F
  8
0
 62
     7
 10
70.552599999999998
 20
126.146
 30
0.0
 11
69.374300000000005
 21
124.9679999999999
 31
0.0
  0
LINE
  5
130
  8
0
 62
     7
 10
67.414100000000005
 20
98.756699999999995
 30
0.0
 11
67.414100000000005
 21
128.06700000000001
 31
0.0
  0
LINE
  5
131
  8
0
 62
     7
 10
64.414000000000001
 20
98.756699999999995
 30
0.0
 11
64.414000000000001
 21
128.06700000000001
 31
0.0
  0
LINE
  5
132
  8
0
  6
AIGENLINE001
 62
     7
 10
65.914100000000005
 20
130.881
 30
0.0
 11
65.914100000000005
 21
59.221200000000003
 31
0.0
  0
LINE
  5
133
  8
0
 62
     7
 10
61.725000000000001
 20
131.19200000000001
 30
0.0
 11
61.725000000000001
 21
132.44200000000001
 31
0.0
  0
LINE
  5
134
  8
0
 62
     7
 10
62.975000000000001
 20
131.19200000000001
 30
0.0
 11
62.975000000000001
 21
132.44200000000001
 31
0.0
  0
LINE
  5
135
  8
0
 62
     7
 10
61.725000000000001
 20
133.69200000000001
 30
0.0
 11
61.725000000000001
 21
134.94200000000001
 31
0.0
  0
LINE
  5
136
  8
0
 62
     7
 10
62.975000000000001
 20
133.69200000000001
 30
0.0
 11
62.975000000000001
 21
134.94200000000001
 31
0.0
  0
LINE
  5
137
  8
0
  6
AIGENLINE001
 62
     7
 10
62.350099999999991
 20
128.89500000000001
 30
0.0
 11
62.350099999999991
 21
136.59
 31
0.0
  0
LINE
  5
138
  8
0
 62
     7
 10
61.29999999999999
 20
129.94200000000001
 30
0.0
 11
61.29999999999999
 21
131.19200000000001
 31
0.0
  0
LINE
  5
139
  8
0
 62
     7
 10
61.29999999999999
 20
131.19200000000001
 30
0.0
 11
63.399999999999991
 21
131.19200000000001
 31
0.0
  0
LINE
  5
13A
  8
0
 62
     7
 10
63.399999999999991
 20
131.19200000000001
 30
0.0
 11
63.399999999999991
 21
129.94200000000001
 31
0.0
  0
LINE
  5
13B
  8
0
 62
     7
 10
63.399999999999991
 20
129.94200000000001
 30
0.0
 11
61.29999999999999
 21
129.94200000000001
 31
0.0
  0
LINE
  5
13C
  8
0
 62
     7
 10
72.225200000000001
 20
131.19200000000001
 30
0.0
 11
72.225200000000001
 21
132.44200000000001
 31
0.0
  0
LINE
  5
13D
  8
0
 62
     7
 10
73.474999999999994
 20
131.19200000000001
 30
0.0
 11
73.474999999999994
 21
132.44200000000001
 31
0.0
  0
LINE
  5
13E
  8
0
 62
     7
 10
72.225200000000001
 20
133.69200000000001
 30
0.0
 11
72.225200000000001
 21
134.94200000000001
 31
0.0
  0
LINE
  5
13F
  8
0
 62
     7
 10
73.474999999999994
 20
133.69200000000001
 30
0.0
 11
73.474999999999994
 21
134.94200000000001
 31
0.0
  0
LINE
  5
140
  8
0
  6
AIGENLINE001
 62
     7
 10
72.850099999999983
 20
128.89500000000001
 30
0.0
 11
72.850099999999983
 21
136.59
 31
0.0
  0
LINE
  5
141
  8
0
  6
AIGENLINE001
 62
     7
 10
67.600099999999998
 20
62.199199999999998
 30
0.0
 11
67.600099999999998
 21
175.50700000000001
 31
0.0
  0
LINE
  5
142
  8
0
 62
     7
 10
71.799999999999983
 20
129.94200000000001
 30
0.0
 11
71.799999999999983
 21
131.19200000000001
 31
0.0
  0
LINE
  5
143
  8
0
 62
     7
 10
71.799999999999983
 20
131.19200000000001
 30
0.0
 11
73.900199999999984
 21
131.19200000000001
 31
0.0
  0
LINE
  5
144
  8
0
 62
     7
 10
73.900199999999984
 20
131.19200000000001
 30
0.0
 11
73.900199999999984
 21
129.94200000000001
 31
0.0
  0
LINE
  5
145
  8
0
 62
     7
 10
73.900199999999984
 20
129.94200000000001
 30
0.0
 11
71.799999999999983
 21
129.94200000000001
 31
0.0
  0
LINE
  5
146
  8
0
 62
     7
 10
61.350000000000001
 20
132.44200000000001
 30
0.0
 11
61.350000000000001
 21
133.69200000000001
 31
0.0
  0
LINE
  5
147
  8
0
 62
     7
 10
61.350000000000001
 20
133.69200000000001
 30
0.0
 11
73.850200000000001
 21
133.69200000000001
 31
0.0
  0
LINE
  5
148
  8
0
 62
     7
 10
73.850200000000001
 20
133.69200000000001
 30
0.0
 11
73.850200000000001
 21
132.44200000000001
 31
0.0
  0
LINE
  5
149
  8
0
 62
     7
 10
73.850200000000001
 20
132.44200000000001
 30
0.0
 11
61.350000000000001
 21
132.44200000000001
 31
0.0
  0
LINE
  5
14A
  8
0
 62
     7
 10
61.350000000000001
 20
134.94200000000001
 30
0.0
 11
61.350000000000001
 21
135.31700000000001
 31
0.0
  0
LINE
  5
14B
  8
0
 62
     7
 10
61.350000000000001
 20
135.31700000000001
 30
0.0
 11
73.850200000000001
 21
135.31700000000001
 31
0.0
  0
LINE
  5
14C
  8
0
 62
     7
 10
73.850200000000001
 20
135.31700000000001
 30
0.0
 11
73.850200000000001
 21
134.94200000000001
 31
0.0
  0
LINE
  5
14D
  8
0
 62
     7
 10
73.850200000000001
 20
134.94200000000001
 30
0.0
 11
61.350000000000001
 21
134.94200000000001
 31
0.0
  0
LINE
  5
14E
  8
0
 62
     7
 10
62.100000000000001
 20
135.31700000000001
 30
0.0
 11
62.100000000000001
 21
135.56700000000001
 31
0.0
  0
LINE
  5
14F
  8
0
 62
     7
 10
62.100000000000001
 20
135.56700000000001
 30
0.0
 11
73.100200000000001
 21
135.56700000000001
 31
0.0
  0
LINE
  5
150
  8
0
 62
     7
 10
73.100200000000001
 20
135.56700000000001
 30
0.0
 11
73.100200000000001
 21
135.31700000000001
 31
0.0
  0
LINE
  5
151
  8
0
 62
     7
 10
73.100200000000001
 20
135.31700000000001
 30
0.0
 11
62.100000000000001
 21
135.31700000000001
 31
0.0
  0
LINE
  5
152
  8
0
 62
     7
 10
67.8523
 20
143.06700000000001
 30
0.0
 11
67.8523
 21
141.61799999999991
 31
0.0
  0
ARC
  5
153
  8
0
 62
     7
 10
67.596812
 20
141.61935
 30
0.0
 40
0.255465
 50
315.23841099999993
 51
359.67903200000001
  0
ARC
  5
154
  8
0
 62
     7
 10
67.600206
 20
141.61747
 30
0.0
 40
0.251734
 50
269.97376000000003
 51
314.998175
  0
ARC
  5
155
  8
0
 62
     7
 10
67.601512999999997
 20
141.621184
 30
0.0
 40
0.255452
 50
225.347014
 51
269.68109099999998
  0
ARC
  5
156
  8
0
 62
     7
 10
67.604518999999996
 20
141.61982699999999
 30
0.0
 40
0.256618
 50
180.42604299999999
 51
224.65655299999989
  0
LINE
  5
157
  8
0
 62
     7
 10
67.347899999999996
 20
141.61799999999991
 30
0.0
 11
67.347899999999996
 21
143.06700000000001
 31
0.0
  0
LINE
  5
158
  8
0
 62
     7
 10
71.634299999999996
 20
141.05099999999999
 30
0.0
 11
71.634299999999996
 21
143.06700000000001
 31
0.0
  0
LINE
  5
159
  8
0
 62
     7
 10
63.503500000000003
 20
141.05099999999999
 30
0.0
 11
71.634299999999996
 21
141.05099999999999
 31
0.0
  0
LINE
  5
15A
  8
0
 62
     7
 10
71.634299999999996
 20
141.05099999999999
 30
0.0
 11
71.949200000000005
 21
143.06700000000001
 31
0.0
  0
LINE
  5
15B
  8
0
 62
     7
 10
63.503500000000003
 20
143.06700000000001
 30
0.0
 11
63.503500000000003
 21
141.05099999999999
 31
0.0
  0
LINE
  5
15C
  8
0
 62
     7
 10
63.503500000000003
 20
141.05099999999999
 30
0.0
 11
63.188299999999998
 21
143.06700000000001
 31
0.0
  0
LINE
  5
15D
  8
0
 62
     7
 10
62.883699999999997
 20
143.3189999999999
 30
0.0
 11
72.316500000000005
 21
143.3189999999999
 31
0.0
  0
LINE
  5
15E
  8
0
 62
     7
 10
72.316500000000005
 20
143.3189999999999
 30
0.0
 11
72.758099999999985
 21
143.3189999999999
 31
0.0
  0
LINE
  5
15F
  8
0
 62
     7
 10
72.758099999999985
 20
143.3189999999999
 30
0.0
 11
72.758099999999985
 21
143.06700000000001
 31
0.0
  0
LINE
  5
160
  8
0
 62
     7
 10
72.758099999999985
 20
143.06700000000001
 30
0.0
 11
62.379399999999997
 21
143.06700000000001
 31
0.0
  0
LINE
  5
161
  8
0
 62
     7
 10
62.379399999999997
 20
143.06700000000001
 30
0.0
 11
62.379399999999997
 21
143.3189999999999
 31
0.0
  0
LINE
  5
162
  8
0
 62
     7
 10
62.379399999999997
 20
143.3189999999999
 30
0.0
 11
62.883699999999997
 21
143.3189999999999
 31
0.0
  0
ARC
  5
163
  8
0
 62
     7
 10
66.66511899999999
 20
97.611289999999997
 30
0.0
 40
1.0649809999999991
 50
240.335093
 51
269.92409900000001
  0
ARC
  5
164
  8
0
 62
     7
 10
66.489948999999996
 20
97.270332999999994
 30
0.0
 40
0.682216
 50
212.4180439999999
 51
238.946057
  0
ARC
  5
165
  8
0
 62
     7
 10
66.662295
 20
97.611826000000008
 30
0.0
 40
1.065517
 50
270.075988
 51
299.65729399999998
  0
ARC
  5
166
  8
0
 62
     7
 10
66.838475999999986
 20
97.269075999999998
 30
0.0
 40
0.6806900000000001
 50
301.04592700000001
 51
327.6258160000001
  0
ARC
  5
167
  8
0
 62
     7
 10
66.662295999999998
 20
96.198785000000001
 30
0.0
 40
1.0647999999999991
 50
60.320795999999987
 51
89.924006000000006
  0
ARC
  5
168
  8
0
 62
     7
 10
66.839115000000007
 20
96.542329000000024
 30
0.0
 40
0.678974
 50
32.246316999999991
 51
58.929879000000007
  0
ARC
  5
169
  8
0
 62
     7
 10
66.665118000000007
 20
96.199320999999983
 30
0.0
 40
1.064263999999999
 50
90.075906999999987
 51
119.686823
  0
ARC
  5
16A
  8
0
 62
     7
 10
66.489305000000002
 20
96.541081000000005
 30
0.0
 40
0.6804899999999999
 50
121.0781309999999
 51
147.70982799999999
  0
ARC
  5
16B
  8
0
 62
     7
 10
65.162293999999989
 20
96.197961000000006
 30
0.0
 40
1.065625
 50
60.332545000000003
 51
89.924186999999989
  0
ARC
  5
16C
  8
0
 62
     7
 10
65.337656999999993
 20
96.539390000000012
 30
0.0
 40
0.6823560000000001
 50
32.359071999999991
 51
58.936844999999998
  0
ARC
  5
16D
  8
0
 62
     7
 10
65.165114000000003
 20
96.199320999999983
 30
0.0
 40
1.064263999999999
 50
90.075906999999987
 51
119.686823
  0
ARC
  5
16E
  8
0
 62
     7
 10
64.989300999999983
 20
96.541081000000005
 30
0.0
 40
0.6804899999999999
 50
121.0781309999999
 51
147.70982799999999
  0
ARC
  5
16F
  8
0
 62
     7
 10
65.162982999999997
 20
98.051416000000003
 30
0.0
 40
1.064263999999999
 50
60.313157999999987
 51
89.924072999999993
  0
ARC
  5
170
  8
0
 62
     7
 10
65.338796000000002
 20
98.393176000000011
 30
0.0
 40
0.6804899999999999
 50
32.290152999999997
 51
58.921849000000009
  0
ARC
  5
171
  8
0
 62
     7
 10
65.165807999999984
 20
98.050158999999994
 30
0.0
 40
1.0655209999999991
 50
90.076064999999986
 51
119.6689079999999
  0
ARC
  5
172
  8
0
 62
     7
 10
64.988722999999993
 20
98.394092000000001
 30
0.0
 40
0.6792200000000001
 50
121.050224
 51
147.73360500000001
  0
ARC
  5
173
  8
0
 62
     7
 10
65.165807999999984
 20
99.463237000000007
 30
0.0
 40
1.0655209999999991
 50
240.33109200000001
 51
269.92393499999997
  0
ARC
  5
174
  8
0
 62
     7
 10
64.988722999999993
 20
99.119304000000014
 30
0.0
 40
0.6792200000000001
 50
212.26639499999999
 51
238.9497759999999
  0
ARC
  5
175
  8
0
 62
     7
 10
65.162982999999997
 20
99.461980000000025
 30
0.0
 40
1.064263999999999
 50
270.07592699999992
 51
299.68684200000001
  0
ARC
  5
176
  8
0
 62
     7
 10
65.338796000000002
 20
99.120220000000003
 30
0.0
 40
0.6804899999999999
 50
301.07815099999999
 51
327.70984700000002
  0
ARC
  5
177
  8
0
 62
     7
 10
66.665462000000005
 20
99.463155
 30
0.0
 40
1.065439
 50
240.32992399999989
 51
269.92422999999991
  0
ARC
  5
178
  8
0
 62
     7
 10
66.489210999999983
 20
99.120176000000001
 30
0.0
 40
0.6803860000000001
 50
212.29124200000001
 51
238.929059
  0
ARC
  5
179
  8
0
 62
     7
 10
66.662639999999996
 20
99.462700999999996
 30
0.0
 40
1.0649850000000001
 50
270.07601799999998
 51
299.67656099999999
  0
ARC
  5
17A
  8
0
 62
     7
 10
66.838719999999995
 20
99.120553000000001
 30
0.0
 40
0.6807350000000002
 50
301.058269
 51
327.68982
  0
LINE
  5
17B
  8
0
 62
     7
 10
67.163899999999998
 20
63.159700000000001
 30
0.0
 11
64.664199999999994
 21
63.159700000000001
 31
0.0
  0
LINE
  5
17C
  8
0
 62
     7
 10
67.163899999999998
 20
60.6599
 30
0.0
 11
64.664199999999994
 21
60.6599
 31
0.0
  0
LINE
  5
17D
  8
0
 62
     7
 10
64.0685
 20
72.250699999999995
 30
0.0
 11
64.0685
 21
70.561199999999985
 31
0.0
  0
LINE
  5
17E
  8
0
 62
     7
 10
64.0685
 20
72.250699999999995
 30
0.0
 11
65.914100000000005
 21
72.250699999999995
 31
0.0
  0
LINE
  5
17F
  8
0
 62
     7
 10
64.341999999999999
 20
70.287599999999998
 30
0.0
 11
64.341999999999999
 21
68.061400000000006
 31
0.0
  0
LINE
  5
180
  8
0
 62
     7
 10
64.341999999999999
 20
70.287599999999998
 30
0.0
 11
64.0685
 21
70.561199999999985
 31
0.0
  0
LINE
  5
181
  8
0
 62
     7
 10
65.422799999999995
 20
70.287599999999998
 30
0.0
 11
65.422799999999995
 21
68.061400000000006
 31
0.0
  0
LINE
  5
182
  8
0
 62
     7
 10
65.0321
 20
70.287599999999998
 30
0.0
 11
65.0321
 21
68.061400000000006
 31
0.0
  0
LINE
  5
183
  8
0
 62
     7
 10
65.0321
 20
70.287599999999998
 30
0.0
 11
64.341999999999999
 21
70.287599999999998
 31
0.0
  0
LINE
  5
184
  8
0
 62
     7
 10
65.914100000000005
 20
70.287599999999998
 30
0.0
 11
65.422799999999995
 21
70.287599999999998
 31
0.0
  0
ARC
  5
185
  8
0
 62
     7
 10
64.359404999999995
 20
67.627775
 30
0.0
 40
0.468636
 50
182.0793809999999
 51
267.87689499999988
  0
ARC
  5
186
  8
0
 62
     7
 10
64.359042000000002
 20
67.593413999999996
 30
0.0
 40
0.468286
 50
92.080284999999989
 51
177.87589800000001
  0
LINE
  5
187
  8
0
 62
     7
 10
65.0321
 20
68.061400000000006
 30
0.0
 11
64.341999999999999
 21
68.061400000000006
 31
0.0
  0
LINE
  5
188
  8
0
 62
     7
 10
65.914100000000005
 20
68.061400000000006
 30
0.0
 11
65.422799999999995
 21
68.061400000000006
 31
0.0
  0
LINE
  5
189
  8
0
 62
     7
 10
64.664199999999994
 20
60.6599
 30
0.0
 11
64.664199999999994
 21
67.159499999999994
 31
0.0
  0
LINE
  5
18A
  8
0
 62
     7
 10
65.914100000000005
 20
67.159499999999994
 30
0.0
 11
64.341999999999999
 21
67.159499999999994
 31
0.0
  0
LINE
  5
18B
  8
0
 62
     7
 10
67.759299999999996
 20
72.250699999999995
 30
0.0
 11
67.759299999999996
 21
70.561199999999985
 31
0.0
  0
LINE
  5
18C
  8
0
 62
     7
 10
67.759299999999996
 20
72.250699999999995
 30
0.0
 11
65.914100000000005
 21
72.250699999999995
 31
0.0
  0
LINE
  5
18D
  8
0
 62
     7
 10
67.486099999999993
 20
70.287599999999998
 30
0.0
 11
67.486099999999993
 21
68.061400000000006
 31
0.0
  0
LINE
  5
18E
  8
0
 62
     7
 10
67.486099999999993
 20
70.287599999999998
 30
0.0
 11
67.759299999999996
 21
70.561199999999985
 31
0.0
  0
LINE
  5
18F
  8
0
 62
     7
 10
66.405299999999997
 20
70.287599999999998
 30
0.0
 11
66.405299999999997
 21
68.061400000000006
 31
0.0
  0
LINE
  5
190
  8
0
 62
     7
 10
66.796000000000006
 20
70.287599999999998
 30
0.0
 11
66.796000000000006
 21
68.061400000000006
 31
0.0
  0
LINE
  5
191
  8
0
 62
     7
 10
66.796000000000006
 20
70.287599999999998
 30
0.0
 11
67.486099999999993
 21
70.287599999999998
 31
0.0
  0
LINE
  5
192
  8
0
 62
     7
 10
65.914100000000005
 20
70.287599999999998
 30
0.0
 11
66.405299999999997
 21
70.287599999999998
 31
0.0
  0
ARC
  5
193
  8
0
 62
     7
 10
67.468733999999998
 20
67.593090000000004
 30
0.0
 40
0.468623
 50
2.1622659999999989
 51
87.881511999999987
  0
ARC
  5
194
  8
0
 62
     7
 10
67.468376000000006
 20
67.62809399999999
 30
0.0
 40
0.4689670000000001
 50
272.1607009999999
 51
357.88306299999999
  0
LINE
  5
195
  8
0
 62
     7
 10
66.796000000000006
 20
68.061400000000006
 30
0.0
 11
67.486099999999993
 21
68.061400000000006
 31
0.0
  0
LINE
  5
196
  8
0
 62
     7
 10
65.914100000000005
 20
68.061400000000006
 30
0.0
 11
66.405299999999997
 21
68.061400000000006
 31
0.0
  0
LINE
  5
197
  8
0
 62
     7
 10
67.163899999999998
 20
60.6599
 30
0.0
 11
67.163899999999998
 21
67.159499999999994
 31
0.0
  0
LINE
  5
198
  8
0
 62
     7
 10
65.914100000000005
 20
67.159499999999994
 30
0.0
 11
67.486099999999993
 21
67.159499999999994
 31
0.0
  0
LINE
  5
199
  8
0
 62
     7
 10
67.414100000000005
 20
72.250699999999995
 30
0.0
 11
67.414100000000005
 21
96.904600000000016
 31
0.0
  0
LINE
  5
19A
  8
0
 62
     7
 10
64.414000000000001
 20
72.250699999999995
 30
0.0
 11
64.414000000000001
 21
96.904600000000016
 31
0.0
  0
LINE
  5
19B
  8
0
 62
     7
 10
69.374300000000005
 20
56.387300000000003
 30
0.0
 11
67.163899999999998
 21
55.794699999999999
 31
0.0
  0
LINE
  5
19C
  8
0
 62
     7
 10
67.163899999999998
 20
55.794699999999999
 30
0.0
 11
69.374300000000005
 21
55.202800000000003
 31
0.0
  0
LINE
  5
19D
  8
0
 62
     7
 10
69.374300000000005
 20
55.202800000000003
 30
0.0
 11
69.374300000000005
 21
56.387300000000003
 31
0.0
  0
LINE
  5
19E
  8
0
 62
     7
 10
62.453899999999997
 20
55.217300000000002
 30
0.0
 11
64.664500000000004
 21
55.80919999999999
 31
0.0
  0
LINE
  5
19F
  8
0
 62
     7
 10
64.664500000000004
 20
55.80919999999999
 30
0.0
 11
62.453899999999997
 21
56.401699999999998
 31
0.0
  0
LINE
  5
1A0
  8
0
 62
     7
 10
62.453899999999997
 20
56.401699999999998
 30
0.0
 11
62.453899999999997
 21
55.217300000000002
 31
0.0
  0
LINE
  5
1A1
  8
0
 62
     7
 10
56.694400000000002
 20
55.794699999999999
 30
0.0
 11
70.5107
 21
55.794699999999999
 31
0.0
  0
LINE
  5
1A2
  8
0
 62
     7
 10
67.163899999999998
 20
60.081099999999999
 30
0.0
 11
67.163899999999998
 21
55.303400000000003
 31
0.0
  0
LINE
  5
1A3
  8
0
 62
     7
 10
64.664500000000004
 20
60.081099999999999
 30
0.0
 11
64.664500000000004
 21
55.303400000000003
 31
0.0
  0
LINE
  5
1A4
  8
0
 62
     7
 10
67.802999999999997
 20
63.159700000000001
 30
0.0
 11
67.164299999999983
 21
63.159700000000001
 31
0.0
  0
LINE
  5
1A5
  8
0
 62
     7
 10
79.751000000000005
 20
62.871000000000002
 30
0.0
 11
80.343199999999996
 21
60.6599
 31
0.0
  0
LINE
  5
1A6
  8
0
 62
     7
 10
80.343199999999996
 20
60.6599
 30
0.0
 11
80.935599999999994
 21
62.871000000000002
 31
0.0
  0
LINE
  5
1A7
  8
0
 62
     7
 10
80.935599999999994
 20
62.871000000000002
 30
0.0
 11
79.751000000000005
 21
62.871000000000002
 31
0.0
  0
LINE
  5
1A8
  8
0
 62
     7
 10
80.921000000000006
 20
140.8429999999999
 30
0.0
 11
80.328800000000001
 21
143.053
 31
0.0
  0
LINE
  5
1A9
  8
0
 62
     7
 10
80.328800000000001
 20
143.053
 30
0.0
 11
79.736400000000003
 21
140.8429999999999
 31
0.0
  0
LINE
  5
1AA
  8
0
 62
     7
 10
79.736400000000003
 20
140.8429999999999
 30
0.0
 11
80.921000000000006
 21
140.8429999999999
 31
0.0
  0
LINE
  5
1AB
  8
0
 62
     7
 10
80.328800000000001
 20
60.659199999999998
 30
0.0
 11
80.328800000000001
 21
143.054
 31
0.0
  0
LINE
  5
1AC
  8
0
 62
     7
 10
73.890500000000003
 20
143.0679999999999
 30
0.0
 11
80.849999999999994
 21
143.0679999999999
 31
0.0
  0
LINE
  5
1AD
  8
0
 62
     7
 10
71.5017
 20
60.659199999999998
 30
0.0
 11
81.081500000000005
 21
60.659199999999998
 31
0.0
  0
LINE
  5
1AE
  8
0
 62
     7
 10
51.118000000000002
 20
128.06700000000001
 30
0.0
 11
63.037199999999999
 21
128.06700000000001
 31
0.0
  0
LINE
  5
1AF
  8
0
 62
     7
 10
56.895299999999999
 20
135.56700000000001
 30
0.0
 11
60.966299999999997
 21
135.56700000000001
 31
0.0
  0
LINE
  5
1B0
  8
0
 62
     7
 10
52.333399999999997
 20
140.857
 30
0.0
 11
51.741199999999999
 21
143.06700000000001
 31
0.0
  0
LINE
  5
1B1
  8
0
 62
     7
 10
51.741199999999999
 20
143.06700000000001
 30
0.0
 11
51.148800000000001
 21
140.857
 31
0.0
  0
LINE
  5
1B2
  8
0
 62
     7
 10
51.148800000000001
 20
140.857
 30
0.0
 11
52.333399999999997
 21
140.857
 31
0.0
  0
LINE
  5
1B3
  8
0
 62
     7
 10
52.333399999999997
 20
170.85799999999989
 30
0.0
 11
51.741199999999999
 21
173.0679999999999
 31
0.0
  0
LINE
  5
1B4
  8
0
 62
     7
 10
51.741199999999999
 20
173.0679999999999
 30
0.0
 11
51.148800000000001
 21
170.85799999999989
 31
0.0
  0
LINE
  5
1B5
  8
0
 62
     7
 10
51.148800000000001
 20
170.85799999999989
 30
0.0
 11
52.333399999999997
 21
170.85799999999989
 31
0.0
  0
LINE
  5
1B6
  8
0
 62
     7
 10
51.163400000000003
 20
145.27799999999991
 30
0.0
 11
51.755699999999997
 21
143.06700000000001
 31
0.0
  0
LINE
  5
1B7
  8
0
 62
     7
 10
51.755699999999997
 20
143.06700000000001
 30
0.0
 11
52.347999999999992
 21
145.27799999999991
 31
0.0
  0
LINE
  5
1B8
  8
0
 62
     7
 10
52.347999999999992
 20
145.27799999999991
 30
0.0
 11
51.163400000000003
 21
145.27799999999991
 31
0.0
  0
LINE
  5
1B9
  8
0
 62
     7
 10
51.148999999999987
 20
130.27899999999991
 30
0.0
 11
51.741199999999999
 21
128.0679999999999
 31
0.0
  0
LINE
  5
1BA
  8
0
 62
     7
 10
51.741199999999999
 20
128.0679999999999
 30
0.0
 11
52.333599999999997
 21
130.27899999999991
 31
0.0
  0
LINE
  5
1BB
  8
0
 62
     7
 10
52.333599999999997
 20
130.27899999999991
 30
0.0
 11
51.148999999999987
 21
130.27899999999991
 31
0.0
  0
LINE
  5
1BC
  8
0
 62
     7
 10
51.741199999999999
 20
173.04699999999991
 30
0.0
 11
51.741199999999999
 21
128.06700000000001
 31
0.0
  0
LINE
  5
1BD
  8
0
 62
     7
 10
58.1038
 20
140.8429999999999
 30
0.0
 11
57.511600000000001
 21
143.053
 31
0.0
  0
LINE
  5
1BE
  8
0
 62
     7
 10
57.511600000000001
 20
143.053
 30
0.0
 11
56.919199999999989
 21
140.8429999999999
 31
0.0
  0
LINE
  5
1BF
  8
0
 62
     7
 10
56.919199999999989
 20
140.8429999999999
 30
0.0
 11
58.1038
 21
140.8429999999999
 31
0.0
  0
LINE
  5
1C0
  8
0
 62
     7
 10
56.933799999999998
 20
137.77799999999999
 30
0.0
 11
57.5261
 21
135.56700000000001
 31
0.0
  0
LINE
  5
1C1
  8
0
 62
     7
 10
57.5261
 20
135.56700000000001
 30
0.0
 11
58.118400000000001
 21
137.77799999999999
 31
0.0
  0
LINE
  5
1C2
  8
0
 62
     7
 10
58.118400000000001
 20
137.77799999999999
 30
0.0
 11
56.933799999999998
 21
137.77799999999999
 31
0.0
  0
LINE
  5
1C3
  8
0
 62
     7
 10
57.511600000000001
 20
143.054
 30
0.0
 11
57.511600000000001
 21
135.56700000000001
 31
0.0
  0
LINE
  5
1C4
  8
0
 62
     7
 10
51.037700000000001
 20
143.06700000000001
 30
0.0
 11
61.2761
 21
143.06700000000001
 31
0.0
  0
ARC
  5
1C5
  8
0
 62
     7
 10
68.430391
 20
206.1687179999999
 30
0.0
 40
1.5447690000000001
 50
323.64811800000001
 51
359.84095000000002
  0
ARC
  5
1C6
  8
0
 62
     7
 10
68.047669999999997
 20
206.413904
 30
0.0
 40
1.9985580000000001
 50
302.8758259999999
 51
324.490567
  0
ARC
  5
1C7
  8
0
 62
     7
 10
67.680410999999992
 20
206.9325169999999
 30
0.0
 40
2.6336080000000002
 50
274.187613
 51
303.46168299999999
  0
ARC
  5
1C8
  8
0
 62
     7
 10
67.60142900000001
 20
207.314042
 30
0.0
 40
3.0203109999999991
 50
269.97461900000002
 51
275.15344700000003
  0
ARC
  5
1C9
  8
0
 62
     7
 10
67.601913999999994
 20
207.22887299999991
 30
0.0
 40
2.935141999999999
 50
244.10078399999989
 51
269.96441399999998
  0
ARC
  5
1CA
  8
0
 62
     7
 10
67.350797999999998
 20
206.6345639999999
 30
0.0
 40
2.2910870000000001
 50
218.94190499999999
 51
243.25815399999999
  0
ARC
  5
1CB
  8
0
 62
     7
 10
66.879662999999994
 20
206.20508000000001
 30
0.0
 40
1.6551359999999999
 50
181.40735299999989
 51
217.6290339999999
  0
ARC
  5
1CC
  8
0
 62
     7
 10
68.429186999999999
 20
209.03575299999989
 30
0.0
 40
1.545974
 50
323.66277700000001
 51
359.84078299999987
  0
ARC
  5
1CD
  8
0
 62
     7
 10
68.048670000000001
 20
209.27935699999989
 30
0.0
 40
1.9970549999999989
 50
302.86954300000002
 51
324.50161099999991
  0
ARC
  5
1CE
  8
0
 62
     7
 10
67.680796999999998
 20
209.79850799999991
 30
0.0
 40
2.632890999999999
 50
274.18034
 51
303.46193799999992
  0
ARC
  5
1CF
  8
0
 62
     7
 10
67.60142900000001
 20
210.180724
 30
0.0
 40
3.0203109999999991
 50
269.97461900000002
 51
275.15344700000003
  0
ARC
  5
1D0
  8
0
 62
     7
 10
67.601916000000003
 20
210.09614099999999
 30
0.0
 40
2.9357279999999988
 50
244.1063
 51
269.96438899999998
  0
ARC
  5
1D1
  8
0
 62
     7
 10
67.350797999999998
 20
209.50118199999989
 30
0.0
 40
2.2910870000000001
 50
218.94190499999999
 51
243.25815399999999
  0
ARC
  5
1D2
  8
0
 62
     7
 10
66.880531000000005
 20
209.07198799999989
 30
0.0
 40
1.655999999999999
 50
181.40251000000001
 51
217.618662
  0
LINE
  5
1D3
  8
0
 62
     7
 10
69.975200000000001
 20
206.16399999999999
 30
0.0
 11
69.975200000000001
 21
228.51400000000001
 31
0.0
  0
LINE
  5
1D4
  8
0
 62
     7
 10
65.224999999999994
 20
206.16399999999999
 30
0.0
 11
65.224999999999994
 21
228.51400000000001
 31
0.0
  0
LINE
  5
1D5
  8
0
 62
     7
 10
107.312
 20
154.05699999999999
 30
0.0
 11
104.678
 21
150.36500000000001
 31
0.0
  0
LINE
  5
1D6
  8
0
 62
     7
 10
124.3479999999999
 20
157.41200000000001
 30
0.0
 11
113.8239999999999
 21
157.41200000000001
 31
0.0
  0
ARC
  5
1D7
  8
0
 62
     7
 10
113.89443300000001
 20
149.27637200000001
 30
0.0
 40
8.1358169999999994
 50
90.494166000000007
 51
144.0096419999999
  0
LINE
  5
1D8
  8
0
  6
AIGENLINE001
 62
     7
 10
105.3779999999999
 20
155.43600000000001
 30
0.0
 11
101.4399999999999
 21
149.916
 31
0.0
  0
LINE
  5
1D9
  8
0
  6
AIGENLINE001
 62
     7
 10
129.34899999999999
 20
159.78700000000001
 30
0.0
 11
113.8239999999999
 21
159.78700000000001
 31
0.0
  0
ARC
  5
1DA
  8
0
  6
AIGENLINE001
 62
     7
 10
113.9163429999999
 20
149.23435900000001
 30
0.0
 40
10.55299299999999
 50
90.499928999999995
 51
144.00532899999999
  0
LINE
  5
1DB
  8
0
 62
     7
 10
103.444
 20
156.81599999999989
 30
0.0
 11
100.81100000000001
 21
153.12399999999991
 31
0.0
  0
LINE
  5
1DC
  8
0
 62
     7
 10
124.3479999999999
 20
162.16200000000001
 30
0.0
 11
113.8239999999999
 21
162.16200000000001
 31
0.0
  0
ARC
  5
1DD
  8
0
 62
     7
 10
113.936824
 20
149.19293099999999
 30
0.0
 40
12.96922799999999
 50
90.497270999999998
 51
144.00279399999999
  0
LINE
  5
1DE
  8
0
 62
     7
 10
102.5989999999999
 20
151.54099999999991
 30
0.0
 11
100.87
 21
152.77500000000001
 31
0.0
  0
ARC
  5
1DF
  8
0
 62
     7
 10
101.0293829999999
 20
152.98092700000001
 30
0.0
 40
0.260633
 50
146.77125100000001
 51
232.28177500000001
  0
LINE
  5
1E0
  8
0
 62
     7
 10
104.3299999999999
 20
150.30699999999999
 30
0.0
 11
102.5989999999999
 21
151.54099999999991
 31
0.0
  0
ARC
  5
1E1
  8
0
 62
     7
 10
104.472567
 20
150.52341499999989
 30
0.0
 40
0.259401
 50
236.533312
 51
322.42807299999993
  0
LINE
  5
1E2
  8
0
 62
     7
 10
107.43600000000001
 20
154.232
 30
0.0
 11
103.56999999999989
 21
156.99100000000001
 31
0.0
  0
LINE
  5
1E3
  8
0
 62
     7
 10
69.975200000000001
 20
151.53999999999991
 30
0.0
 11
69.975200000000001
 21
159.78700000000001
 31
0.0
  0
LINE
  5
1E4
  8
0
 62
     7
 10
65.224999999999994
 20
151.53999999999991
 30
0.0
 11
65.224999999999994
 21
159.78700000000001
 31
0.0
  0
ARC
  5
1E5
  8
0
 62
     7
 10
69.111914999999996
 20
155.60872900000001
 30
0.0
 40
0.8632429999999999
 50
0.158959
 51
34.793256999999997
  0
ARC
  5
1E6
  8
0
 62
     7
 10
68.742723999999995
 20
155.39024499999999
 30
0.0
 40
1.2914779999999999
 50
33.406970999999992
 51
50.200580999999993
  0
ARC
  5
1E7
  8
0
 62
     7
 10
68.287949999999995
 20
154.88009199999991
 30
0.0
 40
1.974656999999999
 50
49.537616999999997
 51
64.677765000000008
  0
ARC
  5
1E8
  8
0
 62
     7
 10
67.820165000000003
 20
153.97252399999991
 30
0.0
 40
2.9952990000000002
 50
64.014675999999994
 51
80.122455999999985
  0
ARC
  5
1E9
  8
0
 62
     7
 10
67.611913000000001
 20
153.074354
 30
0.0
 40
3.9162119999999998
 50
79.374966999999998
 51
90.172955999999985
  0
ARC
  5
1EA
  8
0
 62
     7
 10
67.599399000000005
 20
153.03673399999991
 30
0.0
 40
3.9538150000000001
 50
89.989959999999996
 51
105.475025
  0
ARC
  5
1EB
  8
0
 62
     7
 10
67.357280000000003
 20
154.01365899999999
 30
0.0
 40
2.9478309999999999
 50
106.0060519999999
 51
117.807648
  0
ARC
  5
1EC
  8
0
 62
     7
 10
66.938959999999994
 20
154.839012
 30
0.0
 40
2.0226980000000001
 50
118.233088
 51
132.0634269999999
  0
ARC
  5
1ED
  8
0
 62
     7
 10
66.442156000000011
 20
155.4097219999999
 30
0.0
 40
1.2662379999999991
 50
132.675195
 51
154.44556299999991
  0
ARC
  5
1EE
  8
0
 62
     7
 10
66.092019999999991
 20
155.60366200000001
 30
0.0
 40
0.8670250000000001
 50
156.02714800000001
 51
179.50684999999999
  0
ARC
  5
1EF
  8
0
 62
     7
 10
69.111914999999996
 20
151.53797800000001
 30
0.0
 40
0.8632429999999999
 50
0.158959
 51
34.793256999999997
  0
ARC
  5
1F0
  8
0
 62
     7
 10
68.742723999999995
 20
151.3194949999999
 30
0.0
 40
1.2914779999999999
 50
33.406970999999992
 51
50.200580999999993
  0
ARC
  5
1F1
  8
0
 62
     7
 10
68.287949999999995
 20
150.8093409999999
 30
0.0
 40
1.974656999999999
 50
49.537616999999997
 51
64.677765000000008
  0
ARC
  5
1F2
  8
0
 62
     7
 10
67.820165000000003
 20
149.90177399999999
 30
0.0
 40
2.9952990000000002
 50
64.014675999999994
 51
80.122455999999985
  0
ARC
  5
1F3
  8
0
 62
     7
 10
67.611913000000001
 20
149.00360299999991
 30
0.0
 40
3.9162119999999998
 50
79.374966999999998
 51
90.172955999999985
  0
ARC
  5
1F4
  8
0
 62
     7
 10
67.599399000000005
 20
148.96598299999991
 30
0.0
 40
3.9538150000000001
 50
89.989959999999996
 51
105.475025
  0
ARC
  5
1F5
  8
0
 62
     7
 10
67.357280000000003
 20
149.94290899999999
 30
0.0
 40
2.9478309999999999
 50
106.0060519999999
 51
117.807648
  0
ARC
  5
1F6
  8
0
 62
     7
 10
66.938959999999994
 20
150.76826199999999
 30
0.0
 40
2.0226980000000001
 50
118.233088
 51
132.0634269999999
  0
ARC
  5
1F7
  8
0
 62
     7
 10
66.442156000000011
 20
151.33897099999999
 30
0.0
 40
1.2662379999999991
 50
132.675195
 51
154.44556299999991
  0
ARC
  5
1F8
  8
0
 62
     7
 10
66.092019999999991
 20
151.53291100000001
 30
0.0
 40
0.8670250000000001
 50
156.02714800000001
 51
179.50684999999999
  0
ARC
  5
1F9
  8
0
 62
     7
 10
66.087501000000003
 20
151.54278099999999
 30
0.0
 40
0.8624769999999999
 50
180.15997699999991
 51
214.79919699999999
  0
ARC
  5
1FA
  8
0
 62
     7
 10
66.456608000000003
 20
151.76120800000001
 30
0.0
 40
1.2906089999999999
 50
213.410089
 51
230.20730699999999
  0
ARC
  5
1FB
  8
0
 62
     7
 10
66.911361999999997
 20
152.27121999999989
 30
0.0
 40
1.973665999999999
 50
229.539512
 51
244.68294599999999
  0
ARC
  5
1FC
  8
0
 62
     7
 10
67.378710999999996
 20
153.17711
 30
0.0
 40
2.9926069999999991
 50
244.01131299999989
 51
260.13375500000001
  0
ARC
  5
1FD
  8
0
 62
     7
 10
67.587761999999984
 20
154.0751239999999
 30
0.0
 40
3.9135070000000001
 50
259.37117899999993
 51
270.18051899999989
  0
ARC
  5
1FE
  8
0
 62
     7
 10
67.600389000000007
 20
154.04825099999991
 30
0.0
 40
3.8866139999999989
 50
269.99561999999997
 51
288.84523100000001
  0
ARC
  5
1FF
  8
0
 62
     7
 10
67.998378000000002
 20
152.755673
 30
0.0
 40
2.5350980000000001
 50
289.76883900000001
 51
306.411652
  0
ARC
  5
200
  8
0
 62
     7
 10
68.622821000000002
 20
151.86070699999999
 30
0.0
 40
1.444480999999999
 50
307.550164
 51
328.88524199999989
  0
ARC
  5
201
  8
0
 62
     7
 10
69.072801999999996
 20
151.55655999999999
 30
0.0
 40
0.9024979999999999
 50
330.65431599999988
 51
358.97231799999997
  0
ARC
  5
202
  8
0
 62
     7
 10
67.509123000000002
 20
159.69563799999989
 30
0.0
 40
2.4677090000000002
 50
2.1125919999999989
 51
87.887398000000005
  0
ARC
  5
203
  8
0
 62
     7
 10
67.600091000000006
 20
159.78660500000001
 30
0.0
 40
2.3750640000000001
 50
90.0
 51
179.99996999999991
  0
LINE
  5
204
  8
0
 62
     7
 10
55.99969999999999
 20
218.15199999999999
 30
0.0
 11
54.7684
 21
220.08299999999991
 31
0.0
  0
LINE
  5
205
  8
0
 62
     7
 10
54.7684
 20
220.08299999999991
 30
0.0
 11
56.79999999999999
 21
219.02699999999999
 31
0.0
  0
LINE
  5
206
  8
0
 62
     7
 10
56.79999999999999
 20
219.02699999999999
 30
0.0
 11
55.99969999999999
 21
218.15199999999999
 31
0.0
  0
LINE
  5
207
  8
0
 62
     7
 10
79.200800000000001
 20
218.15299999999991
 30
0.0
 11
80.432100000000005
 21
220.08299999999991
 31
0.0
  0
LINE
  5
208
  8
0
 62
     7
 10
80.432100000000005
 20
220.08299999999991
 30
0.0
 11
78.400499999999994
 21
219.02699999999999
 31
0.0
  0
LINE
  5
209
  8
0
 62
     7
 10
78.400499999999994
 20
219.02699999999999
 30
0.0
 11
79.200800000000001
 21
218.15299999999991
 31
0.0
  0
ARC
  5
20A
  8
0
 62
     7
 10
67.509517000000002
 20
233.1343509999999
 30
0.0
 40
18.366305000000001
 50
270.28041699999989
 51
314.71686399999987
  0
ARC
  5
20B
  8
0
 62
     7
 10
67.687927999999985
 20
233.1285729999999
 30
0.0
 40
18.360520999999991
 50
225.27881699999989
 51
269.72375499999998
  0
ARC
  5
20C
  8
0
 62
     7
 10
120.263329
 20
159.05215100000001
 30
0.0
 40
5.1339040000000002
 50
29.427864
 51
37.278008999999997
  0
ARC
  5
20D
  8
0
 62
     7
 10
121.705035
 20
159.90705600000001
 30
0.0
 40
3.4583659999999998
 50
7.7481479999999996
 51
28.827261
  0
ARC
  5
20E
  8
0
 62
     7
 10
121.108262
 20
159.853375
 30
0.0
 40
4.0570199999999987
 50
323.00154099999997
 51
7.3630899999999988
  0
ARC
  5
20F
  8
0
  6
AIGENLINE002
 62
     7
 10
53.904524000000002
 20
219.7423189999999
 30
0.0
 40
0.4137470000000001
 50
174.024708
 51
191.93163699999991
  0
ARC
  5
210
  8
0
  6
AIGENLINE002
 62
     7
 10
54.224626999999998
 20
219.79750299999989
 30
0.0
 40
0.738444
 50
190.98595299999999
 51
206.75441599999991
  0
ARC
  5
211
  8
0
  6
AIGENLINE002
 62
     7
 10
54.657672999999988
 20
220.000021
 30
0.0
 40
1.2163790000000001
 50
206.08996099999999
 51
225.91141999999999
  0
ARC
  5
212
  8
0
  6
AIGENLINE002
 62
     7
 10
54.742266999999998
 20
220.05892
 30
0.0
 40
1.31769
 50
225.05126799999991
 51
246.116041
  0
ARC
  5
213
  8
0
  6
AIGENLINE002
 62
     7
 10
54.466676999999997
 20
219.48432099999999
 30
0.0
 40
0.6809880000000002
 50
247.74380300000001
 51
263.89759099999998
  0
ARC
  5
214
  8
0
  6
AIGENLINE002
 62
     7
 10
54.429679999999998
 20
219.20610599999989
 30
0.0
 40
0.400481
 50
264.92938599999991
 51
275.78697499999993
  0
ARC
  5
215
  8
0
  6
AIGENLINE002
 62
     7
 10
54.661714000000003
 20
219.15607199999999
 30
0.0
 40
0.32804
 50
276.37306599999988
 51
312.20729599999999
  0
ARC
  5
216
  8
0
  6
AIGENLINE002
 62
     7
 10
53.803495999999988
 20
219.99347499999999
 30
0.0
 40
0.288724
 50
135.25102200000001
 51
176.16859600000001
  0
LINE
  5
217
  8
0
  6
AIGENLINE002
 62
     7
 10
53.515399999999993
 20
220.01300000000001
 30
0.0
 11
53.492699999999999
 21
219.77999999999989
 31
0.0
  0
LINE
  5
218
  8
0
  6
AIGENLINE002
 62
     7
 10
54.70089999999999
 20
218.83000000000001
 30
0.0
 11
54.468000000000004
 21
218.80799999999991
 31
0.0
  0
LINE
  5
219
  8
0
  6
AIGENLINE002
 62
     7
 10
64.765399999999985
 20
228.797
 30
0.0
 11
54.882100000000001
 21
218.91300000000001
 31
0.0
  0
LINE
  5
21A
  8
0
  6
AIGENLINE002
 62
     7
 10
63.4818
 20
230.08000000000001
 30
0.0
 11
53.598399999999998
 21
220.197
 31
0.0
  0
LINE
  5
21B
  8
0
  6
AIGENLINE001
 62
     7
 10
67.600099999999998
 20
232.91499999999991
 30
0.0
 11
53.0886
 21
218.404
 31
0.0
  0
ARC
  5
21C
  8
0
  6
AIGENLINE002
 62
     7
 10
81.298899000000006
 20
219.741613
 30
0.0
 40
0.410598
 50
348.07631299999991
 51
6.120417999999999
  0
ARC
  5
21D
  8
0
  6
AIGENLINE002
 62
     7
 10
80.979081999999991
 20
219.79606199999989
 30
0.0
 40
0.734876
 50
333.23123599999991
 51
349.07454100000001
  0
ARC
  5
21E
  8
0
  6
AIGENLINE002
 62
     7
 10
80.547968000000012
 20
219.99688399999991
 30
0.0
 40
1.2103280000000001
 50
314.006304
 51
333.93516699999992
  0
ARC
  5
21F
  8
0
  6
AIGENLINE002
 62
     7
 10
80.457637000000005
 20
220.05919800000001
 30
0.0
 40
1.318082999999999
 50
293.89267599999999
 51
314.94874099999998
  0
ARC
  5
220
  8
0
  6
AIGENLINE002
 62
     7
 10
80.733660999999984
 20
219.4837179999999
 30
0.0
 40
0.680395
 50
276.11323599999992
 51
292.26832599999989
  0
ARC
  5
221
  8
0
  6
AIGENLINE002
 62
     7
 10
80.770780999999985
 20
219.20479399999999
 30
0.0
 40
0.39917
 50
264.20349700000003
 51
275.07900999999993
  0
LINE
  5
222
  8
0
  6
AIGENLINE002
 62
     7
 10
127.5199999999999
 20
174.239
 30
0.0
 11
123.867
 21
175.75899999999999
 31
0.0
  0
ARC
  5
223
  8
0
  6
AIGENLINE002
 62
     7
 10
125.21454199999989
 20
179.017729
 30
0.0
 40
3.525989
 50
216.482821
 51
247.53982500000001
  0
LINE
  5
224
  8
0
  6
AIGENLINE002
 62
     7
 10
122.3799999999999
 20
176.92099999999991
 30
0.0
 11
117.08
 21
183.953
 31
0.0
  0
LINE
  5
225
  8
0
  6
AIGENLINE002
 62
     7
 10
115.502
 20
182.774
 30
0.0
 11
120.74299999999999
 21
175.767
 31
0.0
  0
ARC
  5
226
  8
0
  6
AIGENLINE002
 62
     7
 10
126.5186469999999
 20
180.6456
 30
0.0
 40
7.5601529999999988
 50
220.190674
 51
243.07954199999989
  0
LINE
  5
227
  8
0
  6
AIGENLINE002
 62
     7
 10
123.096
 20
173.90499999999989
 30
0.0
 11
126.74799999999991
 21
172.38499999999991
 31
0.0
  0
LINE
  5
228
  8
0
  6
AIGENLINE002
 62
     7
 10
117.08
 20
183.953
 30
0.0
 11
116.8479999999999
 21
184.05000000000001
 31
0.0
  0
LINE
  5
229
  8
0
  6
AIGENLINE002
 62
     7
 10
116.8479999999999
 20
184.05000000000001
 30
0.0
 11
115.459
 21
182.99700000000001
 31
0.0
  0
LINE
  5
22A
  8
0
  6
AIGENLINE002
 62
     7
 10
115.459
 20
182.99700000000001
 30
0.0
 11
115.502
 21
182.774
 31
0.0
  0
LINE
  5
22B
  8
0
  6
AIGENLINE002
 62
     7
 10
115.502
 20
182.774
 30
0.0
 11
117.08
 21
183.953
 31
0.0
  0
LINE
  5
22C
  8
0
 62
     7
 10
141.107
 20
227.0259999999999
 30
0.0
 11
135.23799999999989
 21
227.0259999999999
 31
0.0
  0
ARC
  5
22D
  8
0
  6
AIGENLINE002
 62
     7
 10
80.54049599999999
 20
219.16056499999999
 30
0.0
 40
0.332734
 50
228.05383900000001
 51
263.36583899999988
  0
ARC
  5
22E
  8
0
  6
AIGENLINE002
 62
     7
 10
81.395700000000005
 20
219.99248900000001
 30
0.0
 40
0.290118
 50
4.0082349999999991
 51
44.75025999999999
  0
LINE
  5
22F
  8
0
  6
AIGENLINE002
 62
     7
 10
81.685100000000006
 20
220.01300000000001
 30
0.0
 11
81.707800000000006
 21
219.77999999999989
 31
0.0
  0
LINE
  5
230
  8
0
  6
AIGENLINE002
 62
     7
 10
80.499300000000005
 20
218.83000000000001
 30
0.0
 11
80.732499999999987
 21
218.80799999999991
 31
0.0
  0
LINE
  5
231
  8
0
  6
AIGENLINE002
 62
     7
 10
70.434700000000007
 20
228.797
 30
0.0
 11
80.318100000000001
 21
218.91300000000001
 31
0.0
  0
LINE
  5
232
  8
0
  6
AIGENLINE002
 62
     7
 10
71.718400000000003
 20
230.08000000000001
 30
0.0
 11
81.601699999999994
 21
220.197
 31
0.0
  0
LINE
  5
233
  8
0
  6
AIGENLINE001
 62
     7
 10
67.600099999999998
 20
232.91499999999991
 30
0.0
 11
82.111599999999996
 21
218.404
 31
0.0
  0
ARC
  5
234
  8
0
 62
     7
 10
67.022840999999985
 20
214.03861499999991
 30
0.0
 40
0.33135
 50
183.04387700000001
 51
218.52588
  0
ARC
  5
235
  8
0
 62
     7
 10
66.971890999999999
 20
214.020206
 30
0.0
 40
0.279934
 50
146.05401000000001
 51
179.8333409999999
  0
ARC
  5
236
  8
0
 62
     7
 10
67.119190000000003
 20
213.931702
 30
0.0
 40
0.451636
 50
127.05591
 51
147.174792
  0
ARC
  5
237
  8
0
 62
     7
 10
67.325529000000003
 20
213.67918499999999
 30
0.0
 40
0.777596
 50
112.94307499999999
 51
127.977228
  0
ARC
  5
238
  8
0
 62
     7
 10
67.530951999999999
 20
213.22664399999991
 30
0.0
 40
1.2744789999999999
 50
95.626830999999996
 51
113.51693899999989
  0
ARC
  5
239
  8
0
 62
     7
 10
67.598849000000001
 20
212.826775
 30
0.0
 40
1.6793180000000001
 50
89.957614000000007
 51
96.594563999999991
  0
ARC
  5
23A
  8
0
 62
     7
 10
67.599478000000005
 20
212.92106200000001
 30
0.0
 40
1.585030999999999
 50
70.280408999999992
 51
89.977823999999998
  0
ARC
  5
23B
  8
0
 62
     7
 10
67.801148999999995
 20
213.54904500000001
 30
0.0
 40
0.9260909999999999
 50
55.38032900000001
 51
68.916202999999996
  0
ARC
  5
23C
  8
0
 62
     7
 10
68.016548999999983
 20
213.87002299999989
 30
0.0
 40
0.539594
 50
36.803100999999991
 51
54.839434999999987
  0
ARC
  5
23D
  8
0
 62
     7
 10
68.195145999999994
 20
214.0103529999999
 30
0.0
 40
0.312571
 50
1.9556880000000001
 51
35.818506999999997
  0
ARC
  5
23E
  8
0
 62
     7
 10
68.219316000000006
 20
214.0220259999999
 30
0.0
 40
0.288221
 50
318.81312100000002
 51
359.80004899999989
  0
LINE
  5
23F
  8
0
 62
     7
 10
68.436199999999999
 20
213.83199999999991
 30
0.0
 11
68.287700000000001
 21
213.6509999999999
 31
0.0
  0
LINE
  5
240
  8
0
 62
     7
 10
66.761899999999997
 20
213.83399999999989
 30
0.0
 11
66.910700000000006
 21
213.65299999999999
 31
0.0
  0
ARC
  5
241
  8
0
 62
     7
 10
68.120439000000005
 20
213.80965599999999
 30
0.0
 40
0.229311
 50
320.64886299999989
 51
359.78633600000001
  0
ARC
  5
242
  8
0
 62
     7
 10
67.963612999999995
 20
213.92009100000001
 30
0.0
 40
0.4208390000000001
 50
301.62381399999998
 51
322.56108699999999
  0
ARC
  5
243
  8
0
 62
     7
 10
67.768948999999992
 20
214.20744300000001
 30
0.0
 40
0.76774
 50
287.244731
 51
302.74984899999998
  0
ARC
  5
244
  8
0
 62
     7
 10
67.617976999999996
 20
214.64537699999991
 30
0.0
 40
1.230828
 50
269.16739699999999
 51
287.91317199999997
  0
ARC
  5
245
  8
0
 62
     7
 10
67.598810999999998
 20
214.72269700000001
 30
0.0
 40
1.3080179999999999
 50
248.98634799999991
 51
270.056082
  0
ARC
  5
246
  8
0
 62
     7
 10
67.394362000000001
 20
214.138599
 30
0.0
 40
0.689703
 50
231.297888
 51
247.44098799999989
  0
ARC
  5
247
  8
0
 62
     7
 10
67.197603000000001
 20
213.8839549999999
 30
0.0
 40
0.367993
 50
208.99504999999999
 51
230.41517400000001
  0
ARC
  5
248
  8
0
 62
     7
 10
67.078387000000006
 20
213.81148300000001
 30
0.0
 40
0.228658
 50
180.67212900000001
 51
207.59153900000001
  0
ARC
  5
249
  8
0
 62
     7
 10
67.078868999999997
 20
213.8079459999999
 30
0.0
 40
0.229126
 50
140.6110909999999
 51
179.78628499999999
  0
ARC
  5
24A
  8
0
 62
     7
 10
67.236019999999996
 20
213.69718399999999
 30
0.0
 40
0.4211050000000001
 50
121.5979389999999
 51
142.53287499999999
  0
ARC
  5
24B
  8
0
 62
     7
 10
67.431092000000007
 20
213.40886599999999
 30
0.0
 40
0.7690360000000001
 50
107.23106199999999
 51
122.721982
  0
ARC
  5
24C
  8
0
 62
     7
 10
67.582207999999994
 20
212.96998099999999
 30
0.0
 40
1.2330709999999989
 50
89.169018000000008
 51
107.8966719999999
  0
ARC
  5
24D
  8
0
 62
     7
 10
67.60136700000001
 20
212.8971149999999
 30
0.0
 40
1.3058069999999991
 50
68.968343999999988
 51
90.055969999999988
  0
ARC
  5
24E
  8
0
 62
     7
 10
67.805591000000007
 20
213.48002099999991
 30
0.0
 40
0.6886910000000001
 50
51.267409999999991
 51
67.422710999999993
  0
ARC
  5
24F
  8
0
 62
     7
 10
68.001925
 20
213.733845
 30
0.0
 40
0.36789
 50
28.968588
 51
50.38605900000001
  0
ARC
  5
250
  8
0
 62
     7
 10
68.121020000000001
 20
213.80615
 30
0.0
 40
0.228744
 50
0.6640500000000001
 51
27.571479
  0
LINE
  5
251
  8
0
 62
     7
 10
66.691999999999993
 20
227.999
 30
0.0
 11
66.691999999999993
 21
214.0209999999999
 31
0.0
  0
LINE
  5
252
  8
0
 62
     7
 10
68.507499999999993
 20
227.999
 30
0.0
 11
68.507499999999993
 21
214.0209999999999
 31
0.0
  0
LINE
  5
253
  8
0
 62
     7
 10
66.000900000000001
 20
237.65199999999999
 30
0.0
 11
66.000900000000001
 21
228.17799999999991
 31
0.0
  0
LINE
  5
254
  8
0
 62
     7
 10
69.139399999999995
 20
237.672
 30
0.0
 11
69.139399999999995
 21
228.15700000000001
 31
0.0
  0
ARC
  5
255
  8
0
 62
     7
 10
67.600262000000001
 20
232.91490499999989
 30
0.0
 40
5.0000720000000003
 50
269.99804599999987
 51
359.99801600000001
  0
ARC
  5
256
  8
0
 62
     7
 10
67.599918000000002
 20
232.9149029999999
 30
0.0
 40
5.00007
 50
180.00198399999999
 51
270.00199399999991
  0
ARC
  5
257
  8
0
 62
     7
 10
67.600092000000004
 20
232.91473099999999
 30
0.0
 40
5.0002440000000004
 50
90.0
 51
179.99996999999991
  0
ARC
  5
258
  8
0
 62
     7
 10
67.600090000000009
 20
232.91473099999999
 30
0.0
 40
5.0002440000000004
 50
0.00001
 51
89.999980000000008
  0
LINE
  5
259
  8
0
  6
AIGENLINE001
 62
     7
 10
59.663200000000003
 20
232.91499999999991
 30
0.0
 11
75.266499999999994
 21
232.91499999999991
 31
0.0
  0
LINE
  5
25A
  8
0
  6
AIGENLINE001
 62
     7
 10
67.600099999999998
 20
239.63800000000001
 30
0.0
 11
67.600099999999998
 21
202.97099999999989
 31
0.0
  0
ARC
  5
25B
  8
0
 62
     7
 10
129.34951100000001
 20
232.91490499999989
 30
0.0
 40
3.9999539999999998
 50
269.99755199999993
 51
359.997523
  0
ARC
  5
25C
  8
0
 62
     7
 10
129.34916599999991
 20
232.9149029999999
 30
0.0
 40
3.9999530000000001
 50
180.002477
 51
270.00248699999997
  0
ARC
  5
25D
  8
0
 62
     7
 10
129.34916799999999
 20
232.91455899999991
 30
0.0
 40
3.9999539999999998
 50
89.997533000000004
 51
179.99750299999991
  0
ARC
  5
25E
  8
0
 62
     7
 10
129.34951100000001
 20
232.91455899999991
 30
0.0
 40
3.9999539999999998
 50
0.002477
 51
90.002447999999987
  0
LINE
  5
25F
  8
0
 62
     7
 10
132.125
 20
147.3609999999999
 30
0.0
 11
134.33500000000001
 21
147.953
 31
0.0
  0
LINE
  5
260
  8
0
 62
     7
 10
134.33500000000001
 20
147.953
 30
0.0
 11
132.125
 21
148.54599999999991
 31
0.0
  0
LINE
  5
261
  8
0
 62
     7
 10
132.125
 20
148.54599999999991
 30
0.0
 11
132.125
 21
147.3609999999999
 31
0.0
  0
LINE
  5
262
  8
0
 62
     7
 10
126.56100000000001
 20
148.53100000000001
 30
0.0
 11
124.34999999999999
 21
147.93899999999991
 31
0.0
  0
LINE
  5
263
  8
0
 62
     7
 10
124.34999999999999
 20
147.93899999999991
 30
0.0
 11
126.56100000000001
 21
147.346
 31
0.0
  0
LINE
  5
264
  8
0
 62
     7
 10
126.56100000000001
 20
147.346
 30
0.0
 11
126.56100000000001
 21
148.53100000000001
 31
0.0
  0
LINE
  5
265
  8
0
 62
     7
 10
134.33600000000001
 20
147.93899999999991
 30
0.0
 11
124.3489999999999
 21
147.93899999999991
 31
0.0
  0
LINE
  5
266
  8
0
 62
     7
 10
134.15899999999991
 20
228.94200000000001
 30
0.0
 11
132.17799999999991
 21
230.0859999999999
 31
0.0
  0
LINE
  5
267
  8
0
 62
     7
 10
132.17799999999991
 20
230.0859999999999
 30
0.0
 11
133.322
 21
228.10400000000001
 31
0.0
  0
LINE
  5
268
  8
0
 62
     7
 10
133.322
 20
228.10400000000001
 30
0.0
 11
134.15899999999991
 21
228.94200000000001
 31
0.0
  0
LINE
  5
269
  8
0
 62
     7
 10
124.529
 20
236.89699999999999
 30
0.0
 11
126.511
 21
235.75299999999999
 31
0.0
  0
LINE
  5
26A
  8
0
 62
     7
 10
126.511
 20
235.75299999999999
 30
0.0
 11
125.367
 21
237.73500000000001
 31
0.0
  0
LINE
  5
26B
  8
0
 62
     7
 10
125.367
 20
237.73500000000001
 30
0.0
 11
124.529
 21
236.89699999999999
 31
0.0
  0
LINE
  5
26C
  8
0
 62
     7
 10
124.0809999999999
 20
238.18299999999991
 30
0.0
 11
126.511
 21
235.75299999999999
 31
0.0
  0
LINE
  5
26D
  8
0
 62
     7
 10
126.5209999999999
 20
235.744
 30
0.0
 11
132.17799999999991
 21
230.0859999999999
 31
0.0
  0
LINE
  5
26E
  8
0
 62
     7
 10
132.17799999999991
 20
230.0859999999999
 30
0.0
 11
135.23799999999989
 21
227.0259999999999
 31
0.0
  0
LINE
  5
26F
  8
0
  6
AIGENLINE001
 62
     7
 10
129.34899999999999
 20
226.41900000000001
 30
0.0
 11
129.34899999999999
 21
239.41499999999991
 31
0.0
  0
LINE
  5
270
  8
0
  6
AIGENLINE001
 62
     7
 10
122.8539999999999
 20
232.91499999999991
 30
0.0
 11
135.8479999999999
 21
232.91499999999991
 31
0.0
  0
LINE
  5
271
  8
0
 62
     7
 10
150.21199999999999
 20
145.279
 30
0.0
 11
150.804
 21
143.06899999999999
 31
0.0
  0
LINE
  5
272
  8
0
 62
     7
 10
150.804
 20
143.06899999999999
 30
0.0
 11
151.39599999999999
 21
145.279
 31
0.0
  0
LINE
  5
273
  8
0
 62
     7
 10
151.39599999999999
 20
145.279
 30
0.0
 11
150.21199999999999
 21
145.279
 31
0.0
  0
LINE
  5
274
  8
0
 62
     7
 10
151.38200000000001
 20
181.84399999999999
 30
0.0
 11
150.7889999999999
 21
184.054
 31
0.0
  0
LINE
  5
275
  8
0
 62
     7
 10
150.7889999999999
 20
184.054
 30
0.0
 11
150.197
 21
181.84399999999999
 31
0.0
  0
LINE
  5
276
  8
0
 62
     7
 10
150.197
 20
181.84399999999999
 30
0.0
 11
151.38200000000001
 21
181.84399999999999
 31
0.0
  0
LINE
  5
277
  8
0
 62
     7
 10
150.7889999999999
 20
143.0679999999999
 30
0.0
 11
150.7889999999999
 21
184.05500000000001
 31
0.0
  0
LINE
  5
278
  8
0
 62
     7
 10
141.96999999999991
 20
145.279
 30
0.0
 11
142.56200000000001
 21
143.06899999999999
 31
0.0
  0
LINE
  5
279
  8
0
 62
     7
 10
142.56200000000001
 20
143.06899999999999
 30
0.0
 11
143.154
 21
145.279
 31
0.0
  0
LINE
  5
27A
  8
0
 62
     7
 10
143.154
 20
145.279
 30
0.0
 11
141.96999999999991
 21
145.279
 31
0.0
  0
LINE
  5
27B
  8
0
 62
     7
 10
143.1399999999999
 20
170.8429999999999
 30
0.0
 11
142.548
 21
173.05399999999989
 31
0.0
  0
LINE
  5
27C
  8
0
 62
     7
 10
142.548
 20
173.05399999999989
 30
0.0
 11
141.95500000000001
 21
170.8429999999999
 31
0.0
  0
LINE
  5
27D
  8
0
 62
     7
 10
141.95500000000001
 20
170.8429999999999
 30
0.0
 11
143.1399999999999
 21
170.8429999999999
 31
0.0
  0
LINE
  5
27E
  8
0
 62
     7
 10
142.548
 20
143.0679999999999
 30
0.0
 11
142.548
 21
173.05500000000001
 31
0.0
  0
LINE
  5
27F
  8
0
 62
     7
 10
127.1239999999999
 20
189.94900000000001
 30
0.0
 11
129.33500000000001
 21
190.542
 31
0.0
  0
LINE
  5
280
  8
0
 62
     7
 10
129.33500000000001
 20
190.542
 30
0.0
 11
127.1239999999999
 21
191.13399999999999
 31
0.0
  0
LINE
  5
281
  8
0
 62
     7
 10
127.1239999999999
 20
191.13399999999999
 30
0.0
 11
127.1239999999999
 21
189.94900000000001
 31
0.0
  0
LINE
  5
282
  8
0
 62
     7
 10
112.06
 20
191.119
 30
0.0
 11
109.84999999999999
 21
190.52699999999999
 31
0.0
  0
LINE
  5
283
  8
0
 62
     7
 10
109.84999999999999
 20
190.52699999999999
 30
0.0
 11
112.06
 21
189.935
 31
0.0
  0
LINE
  5
284
  8
0
 62
     7
 10
112.06
 20
189.935
 30
0.0
 11
112.06
 21
191.119
 31
0.0
  0
LINE
  5
285
  8
0
 62
     7
 10
129.33600000000001
 20
190.52699999999999
 30
0.0
 11
109.8489999999999
 21
190.52699999999999
 31
0.0
  0
LINE
  5
286
  8
0
 62
     7
 10
127.13799999999991
 20
196.31399999999999
 30
0.0
 11
129.34899999999999
 21
196.90700000000001
 31
0.0
  0
LINE
  5
287
  8
0
 62
     7
 10
129.34899999999999
 20
196.90700000000001
 30
0.0
 11
127.13799999999991
 21
197.499
 31
0.0
  0
LINE
  5
288
  8
0
 62
     7
 10
127.13799999999991
 20
197.499
 30
0.0
 11
127.13799999999991
 21
196.31399999999999
 31
0.0
  0
LINE
  5
289
  8
0
 62
     7
 10
104.81
 20
197.48400000000001
 30
0.0
 11
102.59999999999999
 21
196.89199999999991
 31
0.0
  0
LINE
  5
28A
  8
0
 62
     7
 10
102.59999999999999
 20
196.89199999999991
 30
0.0
 11
104.81
 21
196.30000000000001
 31
0.0
  0
LINE
  5
28B
  8
0
 62
     7
 10
104.81
 20
196.30000000000001
 30
0.0
 11
104.81
 21
197.48400000000001
 31
0.0
  0
LINE
  5
28C
  8
0
 62
     7
 10
129.34899999999999
 20
196.89199999999991
 30
0.0
 11
102.5989999999999
 21
196.89199999999991
 31
0.0
  0
LINE
  5
28D
  8
0
  6
AIGENLINE001
 62
     7
 10
129.34899999999999
 20
153.02799999999991
 30
0.0
 11
129.34899999999999
 21
176.17099999999991
 31
0.0
  0
LINE
  5
28E
  8
0
 62
     7
 10
129.34899999999999
 20
176.17099999999991
 30
0.0
 11
129.34899999999999
 21
197.49199999999999
 31
0.0
  0
LINE
  5
28F
  8
0
 62
     7
 10
102.5989999999999
 20
134.572
 30
0.0
 11
102.5989999999999
 21
197.49199999999999
 31
0.0
  0
LINE
  5
290
  8
0
 62
     7
 10
109.8489999999999
 20
177.34599999999989
 30
0.0
 11
109.8489999999999
 21
191.12700000000001
 31
0.0
  0
LINE
  5
291
  8
0
 62
     7
 10
118.63200000000001
 20
184.0679999999999
 30
0.0
 11
151.31100000000001
 21
184.0679999999999
 31
0.0
  0
LINE
  5
292
  8
0
 62
     7
 10
135.114
 20
143.0679999999999
 30
0.0
 11
151.31800000000001
 21
143.0679999999999
 31
0.0
  0
LINE
  5
293
  8
0
 62
     7
 10
134.98799999999989
 20
173.0679999999999
 30
0.0
 11
143.30099999999999
 21
173.0679999999999
 31
0.0
  0
LINE
  5
294
  8
0
 62
     7
 10
51.037700000000001
 20
173.0679999999999
 30
0.0
 11
61.666200000000003
 21
173.0679999999999
 31
0.0
  0
LINE
  5
295
  8
0
 62
     7
 10
133.86799999999991
 20
164.72099999999989
 30
0.0
 11
133.86799999999991
 21
164.21899999999999
 31
0.0
  0
LINE
  5
296
  8
0
 62
     7
 10
124.7679999999999
 20
164.72099999999989
 30
0.0
 11
124.7679999999999
 21
164.21899999999999
 31
0.0
  0
LINE
  5
297
  8
0
 62
     7
 10
124.3489999999999
 20
172.87999999999991
 30
0.0
 11
120.3929999999999
 21
172.87999999999991
 31
0.0
  0
ARC
  5
298
  8
0
 62
     7
 10
120.38633799999999
 20
176.40848
 30
0.0
 40
3.5283679999999991
 50
239.07421099999991
 51
270.10929399999992
  0
LINE
  5
299
  8
0
 62
     7
 10
118.57299999999989
 20
173.38200000000001
 30
0.0
 11
110.979
 21
177.83799999999999
 31
0.0
  0
LINE
  5
29A
  8
0
 62
     7
 10
109.97499999999999
 20
176.143
 30
0.0
 11
117.5059999999999
 21
171.68700000000001
 31
0.0
  0
ARC
  5
29B
  8
0
 62
     7
 10
120.957886
 20
178.38812799999991
 30
0.0
 40
7.5377039999999988
 50
242.74272300000001
 51
265.702675
  0
LINE
  5
29C
  8
0
 62
     7
 10
120.3929999999999
 20
170.87200000000001
 30
0.0
 11
124.3489999999999
 21
170.87200000000001
 31
0.0
  0
LINE
  5
29D
  8
0
 62
     7
 10
124.3489999999999
 20
170.87200000000001
 30
0.0
 11
124.3489999999999
 21
164.72099999999989
 31
0.0
  0
LINE
  5
29E
  8
0
 62
     7
 10
124.3489999999999
 20
164.72099999999989
 30
0.0
 11
134.3489999999999
 21
164.72099999999989
 31
0.0
  0
LINE
  5
29F
  8
0
 62
     7
 10
134.3489999999999
 20
164.72099999999989
 30
0.0
 11
134.3489999999999
 21
172.87999999999991
 31
0.0
  0
ARC
  5
2A0
  8
0
 62
     7
 10
134.1273469999999
 20
172.8470759999999
 30
0.0
 40
0.224338
 50
8.4699419999999996
 51
52.979438000000002
  0
ARC
  5
2A1
  8
0
 62
     7
 10
134.13095100000001
 20
172.852181
 30
0.0
 40
0.218092
 50
52.927853000000013
 51
82.136138000000003
  0
LINE
  5
2A2
  8
0
 62
     7
 10
134.16099999999989
 20
173.0679999999999
 30
0.0
 11
124.47499999999999
 21
173.0679999999999
 31
0.0
  0
ARC
  5
2A3
  8
0
 62
     7
 10
124.45985
 20
172.94184300000001
 30
0.0
 40
0.127265
 50
83.234443999999996
 51
127.813755
  0
ARC
  5
2A4
  8
0
 62
     7
 10
124.45771499999999
 20
172.94348099999999
 30
0.0
 40
0.124664
 50
127.49969399999991
 51
173.16235399999999
  0
ARC
  5
2A5
  8
0
 62
     7
 10
124.45577299999989
 20
172.941836
 30
0.0
 40
0.122946
 50
172.29378199999999
 51
210.13185799999999
  0
ARC
  5
2A6
  8
0
 62
     7
 10
122.88380600000001
 20
171.86978599999989
 30
0.0
 40
1.780127999999999
 50
10.398742
 51
34.580362999999991
  0
ARC
  5
2A7
  8
0
 62
     7
 10
122.88005699999999
 20
171.87985299999991
 30
0.0
 40
1.7820299999999989
 50
325.54351400000002
 51
10.058640999999991
  0
LINE
  5
2A8
  8
0
 62
     7
 10
110.979
 20
177.83799999999999
 30
0.0
 11
110.72799999999999
 21
177.83799999999999
 31
0.0
  0
LINE
  5
2A9
  8
0
 62
     7
 10
110.72799999999999
 20
177.83799999999999
 30
0.0
 11
109.8489999999999
 21
176.33199999999999
 31
0.0
  0
LINE
  5
2AA
  8
0
 62
     7
 10
109.8489999999999
 20
176.33199999999999
 30
0.0
 11
109.97499999999999
 21
176.143
 31
0.0
  0
LINE
  5
2AB
  8
0
 62
     7
 10
109.97499999999999
 20
176.143
 30
0.0
 11
110.979
 21
177.83799999999999
 31
0.0
  0
LINE
  5
2AC
  8
0
 62
     7
 10
124.3489999999999
 20
162.16200000000001
 30
0.0
 11
124.3489999999999
 21
164.21899999999999
 31
0.0
  0
LINE
  5
2AD
  8
0
 62
     7
 10
124.3489999999999
 20
164.21899999999999
 30
0.0
 11
134.3489999999999
 21
164.21899999999999
 31
0.0
  0
LINE
  5
2AE
  8
0
 62
     7
 10
134.3489999999999
 20
164.21899999999999
 30
0.0
 11
134.3489999999999
 21
143.56999999999991
 31
0.0
  0
ARC
  5
2AF
  8
0
 62
     7
 10
134.02376599999991
 20
143.649902
 30
0.0
 40
0.335114
 50
316.08633199999991
 51
346.222601
  0
ARC
  5
2B0
  8
0
 62
     7
 10
134.03033600000001
 20
143.64792700000001
 30
0.0
 40
0.329026
 50
270.93969199999992
 51
315.54054100000002
  0
LINE
  5
2B1
  8
0
 62
     7
 10
134.03599999999989
 20
143.3189999999999
 30
0.0
 11
124.601
 21
143.3189999999999
 31
0.0
  0
ARC
  5
2B2
  8
0
 62
     7
 10
124.569411
 20
143.52300700000001
 30
0.0
 40
0.20643
 50
261.3130569999999
 51
278.68696299999988
  0
ARC
  5
2B3
  8
0
 62
     7
 10
124.572543
 20
143.545514
 30
0.0
 40
0.229152
 50
217.79752099999999
 51
261.38904200000002
  0
ARC
  5
2B4
  8
0
 62
     7
 10
124.573396
 20
143.53927200000001
 30
0.0
 40
0.226066
 50
172.16377499999999
 51
216.41475299999999
  0
LINE
  5
2B5
  8
0
 62
     7
 10
124.3489999999999
 20
143.56999999999991
 30
0.0
 11
124.3489999999999
 21
157.41200000000001
 31
0.0
  0
LINE
  5
2B6
  8
0
 62
     7
 10
66.000900000000001
 20
173.0679999999999
 30
0.0
 11
66.000900000000001
 21
170.55799999999991
 31
0.0
  0
LINE
  5
2B7
  8
0
 62
     7
 10
66.000900000000001
 20
170.55799999999991
 30
0.0
 11
69.138999999999996
 21
170.55799999999991
 31
0.0
  0
LINE
  5
2B8
  8
0
 62
     7
 10
69.138999999999996
 20
170.55799999999991
 30
0.0
 11
69.138999999999996
 21
173.0679999999999
 31
0.0
  0
LINE
  5
2B9
  8
0
 62
     7
 10
68.448999999999984
 20
176.7709999999999
 30
0.0
 11
68.448999999999984
 21
171.8129999999999
 31
0.0
  0
ARC
  5
2BA
  8
0
 62
     7
 10
67.560399000000004
 20
171.81742199999991
 30
0.0
 40
0.8885790000000001
 50
315.23335299999991
 51
359.72552100000001
  0
ARC
  5
2BB
  8
0
 62
     7
 10
67.56647199999999
 20
171.82142300000001
 30
0.0
 40
0.8871129999999999
 50
270.21325899999999
 51
314.77367500000003
  0
ARC
  5
2BC
  8
0
 62
     7
 10
67.574893000000003
 20
171.82413600000001
 30
0.0
 40
0.8898340000000001
 50
225.29777300000001
 51
269.67038500000001
  0
ARC
  5
2BD
  8
0
 62
     7
 10
67.578085999999999
 20
171.81669600000001
 30
0.0
 40
0.886824
 50
180.22812999999991
 51
224.81303600000001
  0
LINE
  5
2BE
  8
0
 62
     7
 10
66.691299999999998
 20
171.8129999999999
 30
0.0
 11
66.691299999999998
 21
176.7709999999999
 31
0.0
  0
ARC
  5
2BF
  8
0
 62
     7
 10
67.579862000000006
 20
176.77530100000001
 30
0.0
 40
0.8886029999999999
 50
180.27514400000001
 51
224.76602199999999
  0
ARC
  5
2C0
  8
0
 62
     7
 10
67.573542000000003
 20
176.77993199999989
 30
0.0
 40
0.887411
 50
225.26570299999989
 51
269.756732
  0
ARC
  5
2C1
  8
0
 62
     7
 10
67.564667
 20
176.7848449999999
 30
0.0
 40
0.892331
 50
270.32790799999992
 51
314.60479099999998
  0
ARC
  5
2C2
  8
0
 62
     7
 10
67.554818999999995
 20
176.777604
 30
0.0
 40
0.8941729999999999
 50
315.37990000000002
 51
359.57897400000002
  0
ARC
  5
2C3
  8
0
 62
     7
 10
67.560399000000004
 20
176.76677699999991
 30
0.0
 40
0.8885790000000001
 50
0.274479
 51
44.766646999999992
  0
ARC
  5
2C4
  8
0
 62
     7
 10
67.565639000000004
 20
176.761954
 30
0.0
 40
0.888283
 50
45.225545999999987
 51
89.733307999999994
  0
ARC
  5
2C5
  8
0
 62
     7
 10
67.574900999999997
 20
176.761234
 30
0.0
 40
0.8890090000000001
 50
90.330456999999981
 51
134.75563999999989
  0
ARC
  5
2C6
  8
0
 62
     7
 10
67.581001000000001
 20
176.7662949999999
 30
0.0
 40
0.889745
 50
135.26404099999999
 51
179.694794
  0
LINE
  5
2C7
  8
0
 62
     7
 10
72.151799999999994
 20
164.72099999999989
 30
0.0
 11
72.151799999999994
 21
164.21899999999999
 31
0.0
  0
LINE
  5
2C8
  8
0
 62
     7
 10
62.988500000000002
 20
164.72099999999989
 30
0.0
 11
62.988500000000002
 21
164.21899999999999
 31
0.0
  0
LINE
  5
2C9
  8
0
 62
     7
 10
68.448999999999984
 20
173.0679999999999
 30
0.0
 11
72.465299999999985
 21
173.0679999999999
 31
0.0
  0
ARC
  5
2CA
  8
0
 62
     7
 10
72.433301999999983
 20
172.845899
 30
0.0
 40
0.224612
 50
53.387281000000002
 51
81.813496999999998
  0
ARC
  5
2CB
  8
0
 62
     7
 10
72.434466
 20
172.8494649999999
 30
0.0
 40
0.221059
 50
7.9708289999999993
 51
53.078293000000009
  0
LINE
  5
2CC
  8
0
 62
     7
 10
72.653400000000005
 20
172.87999999999991
 30
0.0
 11
72.653400000000005
 21
164.72099999999989
 31
0.0
  0
LINE
  5
2CD
  8
0
 62
     7
 10
72.653400000000005
 20
164.72099999999989
 30
0.0
 11
62.486499999999999
 21
164.72099999999989
 31
0.0
  0
LINE
  5
2CE
  8
0
 62
     7
 10
62.486499999999999
 20
164.72099999999989
 30
0.0
 11
62.486499999999999
 21
172.87999999999991
 31
0.0
  0
ARC
  5
2CF
  8
0
 62
     7
 10
62.707667000000001
 20
172.848769
 30
0.0
 40
0.223374
 50
143.4640149999999
 51
171.93206599999991
  0
ARC
  5
2D0
  8
0
 62
     7
 10
62.708100999999999
 20
172.844313
 30
0.0
 40
0.2264
 50
98.5077
 51
142.62347199999991
  0
LINE
  5
2D1
  8
0
 62
     7
 10
62.674599999999991
 20
173.0679999999999
 30
0.0
 11
66.691299999999998
 21
173.0679999999999
 31
0.0
  0
LINE
  5
2D2
  8
0
  6
AIGENLINE001
 62
     7
 10
67.600099999999998
 20
127.706
 30
0.0
 11
67.600099999999998
 21
178.6399999999999
 31
0.0
  0
ARC
  5
2D3
  8
0
 62
     7
 10
62.72025
 20
143.56459299999989
 30
0.0
 40
0.258379
 50
264.914062
 51
288.06070299999988
  0
ARC
  5
2D4
  8
0
 62
     7
 10
62.72513
 20
143.54788799999989
 30
0.0
 40
0.242255
 50
219.10650299999989
 51
263.41393299999999
  0
ARC
  5
2D5
  8
0
 62
     7
 10
62.726523999999998
 20
143.5447659999999
 30
0.0
 40
0.24139
 50
173.89479299999991
 51
218.32280499999999
  0
LINE
  5
2D6
  8
0
 62
     7
 10
62.486499999999999
 20
143.56999999999991
 30
0.0
 11
62.486499999999999
 21
164.21899999999999
 31
0.0
  0
LINE
  5
2D7
  8
0
 62
     7
 10
62.486499999999999
 20
164.21899999999999
 30
0.0
 11
72.653400000000005
 21
164.21899999999999
 31
0.0
  0
LINE
  5
2D8
  8
0
 62
     7
 10
72.653400000000005
 20
164.21899999999999
 30
0.0
 11
72.653400000000005
 21
143.56999999999991
 31
0.0
  0
ARC
  5
2D9
  8
0
 62
     7
 10
72.457288000000005
 20
143.53874400000001
 30
0.0
 40
0.198646
 50
350.81887799999993
 51
9.1811220000000002
  0
ARC
  5
2DA
  8
0
 62
     7
 10
72.438146000000003
 20
143.53594499999991
 30
0.0
 40
0.217174
 50
306.47864099999998
 51
352.35378600000001
  0
ARC
  5
2DB
  8
0
 62
     7
 10
72.434332999999995
 20
143.536733
 30
0.0
 40
0.22009
 50
261.70596399999988
 51
307.15487200000001
  0
LINE
  5
2DC
  8
_________2
 62
     7
 10
205.30099999999999
 20
127.411
 30
0.0
 11
183.55000000000001
 21
127.411
 31
0.0
  0
LINE
  5
2DD
  8
_________2
 62
     7
 10
100.2999999999999
 20
-4.0910799999999998
 30
0.0
 11
100.2999999999999
 21
-21.071400000000001
 31
0.0
  0
LINE
  5
2DE
  8
_________2
 62
     7
 10
100.2999999999999
 20
275.93099999999993
 30
0.0
 11
100.2999999999999
 21
258.911
 31
0.0
  0
LINE
  5
2DF
  8
_________2
 62
     7
 10
17.049499999999998
 20
127.411
 30
0.0
 11
-4.70052
 21
127.411
 31
0.0
  0
LINE
  5
2E0
  8
_________2
 62
     7
 10
76.741
 20
29.8047
 30
0.0
 11
74.554699999999997
 21
29.8047
 31
0.0
  0
LINE
  5
2E1
  8
_________2
 62
     7
 10
77.233699999999999
 20
29.8047
 30
0.0
 11
76.981499999999997
 21
29.8047
 31
0.0
  0
LINE
  5
2E2
  8
_________2
 62
     7
 10
77.726299999999995
 20
29.8047
 30
0.0
 11
80.651200000000003
 21
29.8047
 31
0.0
  0
LINE
  5
2E3
  8
_________2
 62
     7
 10
77.233699999999999
 20
29.8047
 30
0.0
 11
77.485500000000002
 21
29.8047
 31
0.0
  0
LINE
  5
2E4
  8
_________2
 62
     7
 10
70.837100000000007
 20
29.8047
 30
0.0
 11
68.650499999999994
 21
29.8047
 31
0.0
  0
LINE
  5
2E5
  8
_________2
 62
     7
 10
71.329400000000007
 20
29.8047
 30
0.0
 11
71.077600000000004
 21
29.8047
 31
0.0
  0
LINE
  5
2E6
  8
_________2
 62
     7
 10
71.329400000000007
 20
30.2974
 30
0.0
 11
71.329400000000007
 21
32.484400000000001
 31
0.0
  0
LINE
  5
2E7
  8
_________2
 62
     7
 10
71.329400000000007
 20
29.8047
 30
0.0
 11
71.329400000000007
 21
30.056899999999992
 31
0.0
  0
LINE
  5
2E8
  8
_________2
 62
     7
 10
71.822100000000006
 20
29.8047
 30
0.0
 11
74.009
 21
29.8047
 31
0.0
  0
LINE
  5
2E9
  8
_________2
 62
     7
 10
71.329400000000007
 20
29.8047
 30
0.0
 11
71.581599999999995
 21
29.8047
 31
0.0
  0
LINE
  5
2EA
  8
_________2
 62
     7
 10
71.329400000000007
 20
29.312799999999999
 30
0.0
 11
71.329400000000007
 21
27.125800000000002
 31
0.0
  0
LINE
  5
2EB
  8
_________2
 62
     7
 10
71.329400000000007
 20
29.8047
 30
0.0
 11
71.329400000000007
 21
29.5532
 31
0.0
  0
LINE
  5
2EC
  8
_________2
 62
     7
 10
75.040499999999994
 20
28.5852
 30
0.0
 11
80.218500000000006
 21
27.720400000000001
 31
0.0
  0
LINE
  5
2ED
  8
_________2
 62
     7
 10
75.040499999999994
 20
31.0243
 30
0.0
 11
80.218500000000006
 21
31.889700000000001
 31
0.0
  0
LINE
  5
2EE
  8
_________2
 62
     7
 10
80.218500000000006
 20
27.720400000000001
 30
0.0
 11
80.218500000000006
 21
31.889700000000001
 31
0.0
  0
LINE
  5
2EF
  8
_________2
 62
     7
 10
75.040499999999994
 20
28.5852
 30
0.0
 11
75.040499999999994
 21
31.0243
 31
0.0
  0
ARC
  5
2F0
  8
_________2
 62
     7
 10
71.28285600000001
 20
29.757811
 30
0.0
 40
1.2673589999999999
 50
2.122214
 51
87.893958999999995
  0
ARC
  5
2F1
  8
_________2
 62
     7
 10
71.375959999999992
 20
29.758213000000001
 30
0.0
 40
1.2669559999999991
 50
92.104701000000006
 51
177.8952689999999
  0
ARC
  5
2F2
  8
_________2
 62
     7
 10
71.376357999999996
 20
29.851671
 30
0.0
 40
1.2673680000000001
 50
182.12203600000001
 51
267.877993
  0
ARC
  5
2F3
  8
_________2
 62
     7
 10
71.282531999999989
 20
29.851998999999989
 30
0.0
 40
1.267695999999999
 50
272.12015300000002
 51
357.863674
  0
ARC
  5
2F4
  8
_________2
 62
     7
 10
71.329430000000002
 20
29.804742999999998
 30
0.0
 40
2.0849849999999992
 50
0.00001
 51
89.999980000000008
  0
ARC
  5
2F5
  8
_________2
 62
     7
 10
71.329603000000006
 20
29.804915000000001
 30
0.0
 40
2.084813
 50
90.004733999999999
 51
180.00474399999999
  0
ARC
  5
2F6
  8
_________2
 62
     7
 10
71.409106000000008
 20
29.884775999999999
 30
0.0
 40
2.1657950000000001
 50
182.11776599999999
 51
267.89173399999999
  0
ARC
  5
2F7
  8
_________2
 62
     7
 10
71.249459000000002
 20
29.885429999999989
 30
0.0
 40
2.1664590000000001
 50
272.11546800000002
 51
357.86560400000002
  0
TEXT
  5
2F8
  8
_________2
 62
     7
 10
104.605
 20
1.6794899999999999
 30
0.0
 40
3.0923400000000001
  1
図番
 41
0.5
  0
LINE
  5
2F9
  8
_________2
 62
     7
 10
103.55
 20
5.9087199999999989
 30
0.0
 11
183.55099999999999
 21
5.9087199999999989
 31
0.0
  0
TEXT
  5
2FA
  8
_________2
 62
     7
 10
104.605
 20
11.679299999999991
 30
0.0
 40
3.0923400000000001
  1
品番
 41
0.5
  0
TEXT
  5
2FB
  8
_________2
 62
     7
 10
104.605
 20
31.818100000000001
 30
0.0
 40
3.0923400000000001
  1
名称
 41
0.5
  0
TEXT
  5
2FC
  8
_________2
 62
     7
 10
91.845058333333341
 20
26.821999999999989
 30
0.0
 40
3.6545800000000002
  1
mm
 41
0.5
 72
     1
 11
93.367800000000003
 21
26.821999999999989
 31
0.0
  0
TEXT
  5
2FD
  8
_________2
 62
     7
 10
85.643199999999993
 20
31.818100000000001
 30
0.0
 40
3.0923400000000001
  1
単位
 41
0.5
  0
TEXT
  5
2FE
  8
_________2
 62
     7
 10
85.643199999999993
 20
19.410799999999991
 30
0.0
 40
3.0923400000000001
  1
尺度
 41
0.5
  0
TEXT
  5
2FF
  8
_________2
 62
     7
 10
90.548758666666686
 20
13.2179
 30
0.0
 40
3.6545800000000002
  1
1 ： 4
 41
0.5
 72
     1
 11
93.959699999999998
 21
13.2179
 31
0.0
  0
TEXT
  5
300
  8
_________2
 62
     7
 10
133.38277500000001
 20
9.1078600000000005
 30
0.0
 40
3.9357000000000002
  1
VL.HV1CDT-M
 41
0.5
 72
     1
 11
143.55000000000001
 21
9.1078600000000005
 31
0.0
  0
TEXT
  5
301
  8
_________2
 62
     7
 10
133.71074999999999
 20
-0.8926299999999999
 30
0.0
 40
3.9357000000000002
  1
VLHV1CDT-M
 41
0.5
 72
     1
 11
143.55000000000001
 21
-0.8926299999999999
 31
0.0
  0
TEXT
  5
302
  8
_________2
 62
     7
 10
24.5868
 20
0.707283
 30
0.0
 40
3.9357000000000002
  1
  （社）日本水道協会認証品
 41
0.5
  0
TEXT
  5
303
  8
_________2
 62
     7
 10
109.179
 20
24.2257
 30
0.0
 40
3.9357000000000002
  1
湯水混合水栓
 41
0.5
  0
TEXT
  5
304
  8
_________2
 62
     7
 10
39.425300333333333
 20
13.603
 30
0.0
 40
3.6545800000000002
  1
早川
 41
0.5
 72
     1
 11
41.313499999999998
 21
13.603
 31
0.0
  0
TEXT
  5
305
  8
_________2
 62
     7
 10
20.790090666666661
 20
13.603
 30
0.0
 40
3.6545800000000002
  1
石原
 41
0.5
 72
     1
 11
22.73919999999999
 21
13.603
 31
0.0
  0
TEXT
  5
306
  8
_________2
 62
     7
 10
67.785399999999996
 20
13.2179
 30
0.0
 40
3.6545800000000002
  1
14.01.14
 41
0.5
  0
TEXT
  5
307
  8
_________2
 62
     7
 10
66.593100000000007
 20
19.410799999999991
 30
0.0
 40
3.0923400000000001
  1
日付
 41
0.5
  0
TEXT
  5
308
  8
_________2
 62
     7
 10
29.639399999999998
 20
19.410799999999991
 30
0.0
 40
3.0923400000000001
  1
検図
 41
0.5
  0
TEXT
  5
309
  8
_________2
 62
     7
 10
18.021100000000001
 20
5.21143
 30
0.0
 40
3.0923400000000001
  1
備考
 41
0.5
  0
TEXT
  5
30A
  8
_________2
 62
     7
 10
18.021100000000001
 20
19.410799999999991
 30
0.0
 40
3.0923400000000001
  1
製図
 41
0.5
  0
TEXT
  5
30B
  8
_________2
 62
     7
 10
23.788465333333338
 20
27.936800000000002
 30
0.0
 40
4.4979399999999989
  1
セラトレーディング株式会社
 41
0.5
 72
     1
 11
41.180500000000002
 21
27.936800000000002
 31
0.0
  0
LINE
  5
30C
  8
_________2
 62
     7
 10
183.55099999999999
 20
-4.0910799999999998
 30
0.0
 11
17.049499999999998
 21
-4.0910799999999998
 31
0.0
  0
LINE
  5
30D
  8
_________2
 62
     7
 10
17.049499999999998
 20
-4.0910799999999998
 30
0.0
 11
17.049499999999998
 21
258.911
 31
0.0
  0
LINE
  5
30E
  8
_________2
 62
     7
 10
17.049499999999998
 20
258.911
 30
0.0
 11
183.55099999999999
 21
258.911
 31
0.0
  0
LINE
  5
30F
  8
_________2
 62
     7
 10
183.55099999999999
 20
258.911
 30
0.0
 11
183.55099999999999
 21
-4.0910799999999998
 31
0.0
  0
LINE
  5
310
  8
_________2
 62
     7
 10
65.549599999999998
 20
9.4089600000000004
 30
0.0
 11
65.549599999999998
 21
35.908799999999999
 31
0.0
  0
LINE
  5
311
  8
_________2
 62
     7
 10
84.549700000000016
 20
9.4089600000000004
 30
0.0
 11
84.549700000000016
 21
35.908799999999999
 31
0.0
  0
LINE
  5
312
  8
_________2
 62
     7
 10
103.55
 20
-4.0910799999999998
 30
0.0
 11
103.55
 21
35.908799999999999
 31
0.0
  0
LINE
  5
313
  8
_________2
 62
     7
 10
28.549299999999992
 20
9.4089600000000004
 30
0.0
 11
28.549299999999992
 21
23.409199999999998
 31
0.0
  0
LINE
  5
314
  8
_________2
 62
     7
 10
17.049499999999998
 20
9.4089600000000004
 30
0.0
 11
103.55
 21
9.4089600000000004
 31
0.0
  0
LINE
  5
315
  8
_________2
 62
     7
 10
17.049499999999998
 20
23.409199999999998
 30
0.0
 11
103.55
 21
23.409199999999998
 31
0.0
  0
LINE
  5
316
  8
_________2
 62
     7
 10
103.55
 20
15.9085
 30
0.0
 11
183.55099999999999
 21
15.9085
 31
0.0
  0
LINE
  5
317
  8
_________2
 62
     7
 10
17.049499999999998
 20
35.908799999999999
 30
0.0
 11
183.55099999999999
 21
35.908799999999999
 31
0.0
  0
TEXT
  5
318
  8
_________2
 62
     7
 10
141.05480999999989
 20
39.068699999999993
 30
0.0
 40
3.9357000000000002
  1
注：色番号はカタログを参照ください
 41
0.5
 72
     2
 11
180.54300000000001
 21
39.068699999999993
 31
0.0
  0
ENDSEC
  0
EOF
