  0
SECTION
  2
HEADER
  9
$ACADVER
  1
AC1009
  9
$LUNITS
 70
2
  9
$LUPREC
 70
4
  9
$LTSCALE
 40
1.0
  9
$EXTMIN
 10
-104.7936
 20
0.176
 30
0
  9
$EXTMAX
 10
315.2069
 20
297.1763
 30
0
  0
ENDSEC
  0
SECTION
  2
TABLES
  0
TABLE
  2
LTYPE
 70
256
  0
LTYPE
  2
AIGENLINE001
 70
64
  3
generate AI->DXF Converter
 72
65
 73
2
 40
1.5875
 49
0.7937
 49
-0.7937
  0
LTYPE
  2
AIGENLINE002
 70
64
  3
generate AI->DXF Converter
 72
65
 73
4
 40
5.989
 49
3.6079
 49
-0.7937
 49
0.7937
 49
-0.7937
  0
LTYPE
  2
AIGENLINE003
 70
64
  3
generate AI->DXF Converter
 72
65
 73
2
 40
1.5376
 49
0.7688
 49
-0.7688
  0
LTYPE
  2
AIGENLINE004
 70
64
  3
generate AI->DXF Converter
 72
65
 73
4
 40
5.8008
 49
3.4944
 49
-0.7688
 49
0.7688
 49
-0.7688
  0
LTYPE
  2
AIGENLINE005
 70
64
  3
generate AI->DXF Converter
 72
65
 73
2
 40
1.5358
 49
0.7679
 49
-0.7679
  0
LTYPE
  2
AIGENLINE006
 70
64
  3
generate AI->DXF Converter
 72
65
 73
4
 40
5.7941
 49
3.4904
 49
-0.7679
 49
0.7679
 49
-0.7679
  0
LTYPE
  2
AIGENLINE007
 70
64
  3
generate AI->DXF Converter
 72
65
 73
2
 40
1.6472
 49
0.8236
 49
-0.8236
  0
LTYPE
  2
AIGENLINE008
 70
64
  3
generate AI->DXF Converter
 72
65
 73
4
 40
6.2145
 49
3.7437
 49
-0.8236
 49
0.8236
 49
-0.8236
  0
LTYPE
  2
AIGENLINE009
 70
64
  3
generate AI->DXF Converter
 72
65
 73
2
 40
1.5253
 49
0.7627
 49
-0.7627
  0
LTYPE
  2
AIGENLINE010
 70
64
  3
generate AI->DXF Converter
 72
65
 73
4
 40
5.7547
 49
3.4667
 49
-0.7627
 49
0.7627
 49
-0.7627
  0
LTYPE
  2
AIGENLINE011
 70
64
  3
generate AI->DXF Converter
 72
65
 73
2
 40
1.5255
 49
0.7628
 49
-0.7628
  0
LTYPE
  2
AIGENLINE012
 70
64
  3
generate AI->DXF Converter
 72
65
 73
4
 40
5.7554
 49
3.4671
 49
-0.7628
 49
0.7628
 49
-0.7628
  0
LTYPE
  2
AIGENLINE013
 70
64
  3
generate AI->DXF Converter
 72
65
 73
2
 40
1.2767
 49
0.6384
 49
-0.6384
  0
LTYPE
  2
AIGENLINE014
 70
64
  3
generate AI->DXF Converter
 72
65
 73
4
 40
4.8168
 49
2.9017
 49
-0.6384
 49
0.6384
 49
-0.6384
  0
LTYPE
  2
AIGENLINE015
 70
64
  3
generate AI->DXF Converter
 72
65
 73
2
 40
1.5838
 49
0.7919
 49
-0.7919
  0
LTYPE
  2
AIGENLINE016
 70
64
  3
generate AI->DXF Converter
 72
65
 73
4
 40
5.9752
 49
3.5995
 49
-0.7919
 49
0.7919
 49
-0.7919
  0
LTYPE
  2
AIGENLINE017
 70
64
  3
generate AI->DXF Converter
 72
65
 73
2
 40
2.7216
 49
1.3608
 49
-1.3608
  0
LTYPE
  2
AIGENLINE018
 70
64
  3
generate AI->DXF Converter
 72
65
 73
2
 40
1.5847
 49
0.7923
 49
-0.7923
  0
LTYPE
  2
AIGENLINE019
 70
64
  3
generate AI->DXF Converter
 72
65
 73
4
 40
5.9786
 49
3.6016
 49
-0.7923
 49
0.7923
 49
-0.7923
  0
LTYPE
  2
AIGENLINE020
 70
64
  3
generate AI->DXF Converter
 72
65
 73
2
 40
1.6913
 49
0.8457
 49
-0.8457
  0
LTYPE
  2
AIGENLINE021
 70
64
  3
generate AI->DXF Converter
 72
65
 73
4
 40
6.3808
 49
3.8439
 49
-0.8457
 49
0.8457
 49
-0.8457
  0
LTYPE
  2
AIGENLINE022
 70
64
  3
generate AI->DXF Converter
 72
65
 73
4
 40
5.8561
 49
3.5278
 49
-0.7761
 49
0.7761
 49
-0.7761
  0
LTYPE
  2
AIGENLINE023
 70
64
  3
generate AI->DXF Converter
 72
65
 73
6
 40
7.4083
 49
3.5278
 49
-0.7761
 49
0.7761
 49
-0.7761
 49
0.7761
 49
-0.7761
  0
LTYPE
  2
AIGENLINE024
 70
64
  3
generate AI->DXF Converter
 72
65
 73
4
 40
5.8558
 49
3.5278
 49
-0.776
 49
0.776
 49
-0.776
  0
ENDTAB
  0
TABLE
  2
LAYER
 70
4
  0
LAYER
  2
LAYER_1
 70
64
 62
7
  6
CONTINUOUS
  0
LAYER
  2
LAYER_2
 70
64
 62
7
  6
CONTINUOUS
  0
LAYER
  2
LAYER_3
 70
64
 62
7
  6
CONTINUOUS
  0
LAYER
  2
LAYER_4
 70
64
 62
7
  6
CONTINUOUS
  0
ENDTAB
  0
TABLE
  2
STYLE
 70
6
  0
STYLE
  2
STANDARD
 70
0
 40
0
 50
0
 71
0
 41
0
 42
0
  3
TXT
  4
BIGFONT
  0
ENDTAB
  0
ENDSEC
  0
SECTION
  2
BLOCKS
  0
BLOCK
  8
LAYER_3
  2
AIGNBL03030014
 70
64
 10
0
 20
0
 30
0
  3
AIGNBL03030014
  0
LINE
  8
LAYER_3
 10
57.8569
 20
262.9557
 11
61.0976
 21
259.7151
  0
LINE
  8
LAYER_3
 10
59.1289
 20
260.8469
 11
61.1109
 21
259.7026
  0
LINE
  8
LAYER_3
 10
61.1109
 20
259.7026
 11
59.9665
 21
261.6846
  0
LINE
  8
LAYER_3
 10
59.9665
 20
261.6846
 11
59.1289
 21
260.8469
  0
LINE
  8
LAYER_3
 10
70.6345
 20
251.015
 11
68.6529
 21
252.1593
  0
LINE
  8
LAYER_3
 10
68.6529
 20
252.1593
 11
69.797
 21
250.1773
  0
LINE
  8
LAYER_3
 10
69.797
 20
250.1773
 11
70.6345
 21
251.015
  0
ENDBLK
  0
BLOCK
  8
LAYER_3
  2
AIGNBL03030017
 70
64
 10
0
 20
0
 30
0
  3
AIGNBL03030017
  0
LINE
  8
LAYER_3
 10
71.5307
 20
150.5914
 11
58.2152
 21
150.5914
  0
LINE
  8
LAYER_3
 10
60.4268
 20
151.1836
 11
58.2161
 21
150.5914
  0
LINE
  8
LAYER_3
 10
58.2161
 20
150.5914
 11
60.4268
 21
149.999
  0
LINE
  8
LAYER_3
 10
60.4268
 20
149.999
 11
60.4268
 21
151.1836
  0
LINE
  8
LAYER_3
 10
69.3191
 20
150.0186
 11
71.5298
 21
150.6108
  0
LINE
  8
LAYER_3
 10
71.5298
 20
150.6108
 11
69.3191
 21
151.2031
  0
LINE
  8
LAYER_3
 10
69.3191
 20
151.2031
 11
69.3191
 21
150.0186
  0
ENDBLK
  0
BLOCK
  8
LAYER_3
  2
AIGNBL03030025
 70
64
 10
0
 20
0
 30
0
  3
AIGNBL03030025
  0
LINE
  8
LAYER_3
 10
63.7049
 20
125.1469
 11
63.7049
 21
123.383
  0
LINE
  8
LAYER_3
  6
AIGENLINE003
 10
63.7049
 20
122.6142
 11
63.7049
 21
121.461
  0
LINE
  8
LAYER_3
  6
AIGENLINE004
 10
63.7049
 20
121.0766
 11
63.7049
 21
34.4494
  0
LINE
  8
LAYER_3
 10
63.7049
 20
34.065
 11
63.7049
 21
32.3011
  0
ENDBLK
  0
BLOCK
  8
LAYER_2
  2
AIGNBL02020004
 70
64
 10
0
 20
0
 30
0
  3
AIGNBL02020004
  0
LINE
  8
LAYER_2
 10
-23.6361
 20
32.0889
 11
-23.6361
 21
33.8528
  0
LINE
  8
LAYER_2
  6
AIGENLINE001
 10
-23.6361
 20
34.6465
 11
-23.6361
 21
35.8371
  0
LINE
  8
LAYER_2
  6
AIGENLINE002
 10
-23.6361
 20
36.234
 11
-23.6361
 21
125.6727
  0
LINE
  8
LAYER_2
 10
-23.6361
 20
126.0695
 11
-23.6361
 21
127.8334
  0
ENDBLK
  0
BLOCK
  8
LAYER_3
  2
AIGNBL03020003
 70
64
 10
0
 20
0
 30
0
  3
AIGNBL03020003
  0
LINE
  8
LAYER_3
 10
-25.5723
 20
123.615
 11
-25.5723
 21
125.3789
  0
LINE
  8
LAYER_3
  6
AIGENLINE005
 10
-25.5723
 20
126.1467
 11
-25.5723
 21
127.2986
  0
LINE
  8
LAYER_3
  6
AIGENLINE006
 10
-25.5723
 20
127.6825
 11
-25.5723
 21
185.2394
  0
LINE
  8
LAYER_3
 10
-25.5723
 20
185.6233
 11
-25.5723
 21
187.3872
  0
ENDBLK
  0
BLOCK
  8
LAYER_3
  2
AIGNBL03020005
 70
64
 10
0
 20
0
 30
0
  3
AIGNBL03020005
  0
LINE
  8
LAYER_3
 10
64.8817
 20
157.3769
 11
64.8817
 21
159.1408
  0
LINE
  8
LAYER_3
  6
AIGENLINE007
 10
64.8817
 20
159.9644
 11
64.8817
 21
161.1998
  0
LINE
  8
LAYER_3
  6
AIGENLINE008
 10
64.8817
 20
161.6116
 11
64.8817
 21
186.0578
  0
LINE
  8
LAYER_3
 10
64.8817
 20
186.4696
 11
64.8817
 21
188.2334
  0
ENDBLK
  0
BLOCK
  8
LAYER_3
  2
AIGNBL03020007
 70
64
 10
0
 20
0
 30
0
  3
AIGNBL03020007
  0
LINE
  8
LAYER_3
 10
64.8817
 20
198.6541
 11
26.8817
 21
198.6541
  0
LINE
  8
LAYER_3
 10
29.0933
 20
199.2462
 11
26.8826
 21
198.654
  0
LINE
  8
LAYER_3
 10
26.8826
 20
198.654
 11
29.0933
 21
198.0616
  0
LINE
  8
LAYER_3
 10
29.0933
 20
198.0616
 11
29.0933
 21
199.2462
  0
LINE
  8
LAYER_3
 10
62.6701
 20
198.0812
 11
64.8808
 21
198.6734
  0
LINE
  8
LAYER_3
 10
64.8808
 20
198.6734
 11
62.6701
 21
199.2658
  0
LINE
  8
LAYER_3
 10
62.6701
 20
199.2658
 11
62.6701
 21
198.0812
  0
ENDBLK
  0
BLOCK
  8
LAYER_3
  2
AIGNBL03020009
 70
64
 10
0
 20
0
 30
0
  3
AIGNBL03020009
  0
LINE
  8
LAYER_3
 10
80.5476
 20
144.0967
 11
80.5476
 21
184.0791
  0
LINE
  8
LAYER_3
 10
81.1398
 20
181.8674
 11
80.5476
 21
184.078
  0
LINE
  8
LAYER_3
 10
80.5476
 20
184.078
 11
79.9554
 21
181.8674
  0
LINE
  8
LAYER_3
 10
79.9554
 20
181.8674
 11
81.1398
 21
181.8674
  0
LINE
  8
LAYER_3
 10
79.9747
 20
146.3084
 11
80.5669
 21
144.0979
  0
LINE
  8
LAYER_3
 10
80.5669
 20
144.0979
 11
81.1591
 21
146.3084
  0
LINE
  8
LAYER_3
 10
81.1591
 20
146.3084
 11
79.9747
 21
146.3084
  0
ENDBLK
  0
BLOCK
  8
LAYER_3
  2
AIGNBL0302000B
 70
64
 10
0
 20
0
 30
0
  3
AIGNBL0302000B
  0
LINE
  8
LAYER_3
 10
89.444
 20
144.0967
 11
89.444
 21
188.7645
  0
LINE
  8
LAYER_3
 10
90.0362
 20
186.5528
 11
89.444
 21
188.7634
  0
LINE
  8
LAYER_3
 10
89.444
 20
188.7634
 11
88.8518
 21
186.5528
  0
LINE
  8
LAYER_3
 10
88.8518
 20
186.5528
 11
90.0362
 21
186.5528
  0
LINE
  8
LAYER_3
 10
88.8711
 20
146.3084
 11
89.4633
 21
144.0979
  0
LINE
  8
LAYER_3
 10
89.4633
 20
144.0979
 11
90.0555
 21
146.3084
  0
LINE
  8
LAYER_3
 10
90.0555
 20
146.3084
 11
88.8711
 21
146.3084
  0
ENDBLK
  0
BLOCK
  8
LAYER_3
  2
AIGNBL0302000D
 70
64
 10
0
 20
0
 30
0
  3
AIGNBL0302000D
  0
LINE
  8
LAYER_3
 10
56.2212
 20
255.931
 11
57.9851
 21
255.931
  0
LINE
  8
LAYER_3
  6
AIGENLINE009
 10
58.7477
 20
255.931
 11
59.8917
 21
255.931
  0
LINE
  8
LAYER_3
  6
AIGENLINE010
 10
60.2731
 20
255.931
 11
71.4011
 21
255.931
  0
LINE
  8
LAYER_3
 10
71.7824
 20
255.931
 11
73.5463
 21
255.931
  0
ENDBLK
  0
BLOCK
  8
LAYER_3
  2
AIGNBL0302000F
 70
64
 10
0
 20
0
 30
0
  3
AIGNBL0302000F
  0
LINE
  8
LAYER_3
 10
64.8817
 20
247.2705
 11
64.8817
 21
249.0344
  0
LINE
  8
LAYER_3
  6
AIGENLINE011
 10
64.8817
 20
249.7971
 11
64.8817
 21
250.9413
  0
LINE
  8
LAYER_3
  6
AIGENLINE012
 10
64.8817
 20
251.3227
 11
64.8817
 21
262.4522
  0
LINE
  8
LAYER_3
 10
64.8817
 20
262.8336
 11
64.8817
 21
264.5975
  0
ENDBLK
  0
BLOCK
  8
LAYER_3
  2
AIGNBL03020011
 70
64
 10
0
 20
0
 30
0
  3
AIGNBL03020011
  0
LINE
  8
LAYER_3
 10
68.6529
 20
252.1593
 11
72.7333
 21
248.0794
  0
ENDBLK
  0
BLOCK
  8
LAYER_3
  2
AIGNBL03020013
 70
64
 10
0
 20
0
 30
0
  3
AIGNBL03020013
  0
INSERT
  8
LAYER_3
  2
AIGNBL03030014
 10
0
 20
0
 30
0
  0
ENDBLK
  0
BLOCK
  8
LAYER_3
  2
AIGNBL03020016
 70
64
 10
0
 20
0
 30
0
  3
AIGNBL03020016
  0
INSERT
  8
LAYER_3
  2
AIGNBL03030017
 10
0
 20
0
 30
0
  0
ENDBLK
  0
BLOCK
  8
LAYER_3
  2
AIGNBL0302001A
 70
64
 10
0
 20
0
 30
0
  3
AIGNBL0302001A
  0
LINE
  8
LAYER_3
 10
-39.0236
 20
144.0784
 11
-39.0236
 21
134.0952
  0
LINE
  8
LAYER_3
 10
-39.5965
 20
136.3069
 11
-39.0043
 21
134.0963
  0
LINE
  8
LAYER_3
 10
-39.0043
 20
134.0963
 11
-38.4119
 21
136.3069
  0
LINE
  8
LAYER_3
 10
-38.4119
 20
136.3069
 11
-39.5965
 21
136.3069
  0
LINE
  8
LAYER_3
 10
-38.4314
 20
141.8668
 11
-39.0237
 21
144.0772
  0
LINE
  8
LAYER_3
 10
-39.0237
 20
144.0772
 11
-39.616
 21
141.8668
  0
LINE
  8
LAYER_3
 10
-39.616
 20
141.8668
 11
-38.4314
 21
141.8668
  0
ENDBLK
  0
BLOCK
  8
LAYER_3
  2
AIGNBL0302001B
 70
64
 10
0
 20
0
 30
0
  3
AIGNBL0302001B
  0
LINE
  8
LAYER_3
 10
-46.7174
 20
184.0681
 11
-46.7174
 21
124.0963
  0
LINE
  8
LAYER_3
 10
-47.3096
 20
126.3081
 11
-46.7174
 21
124.0977
  0
LINE
  8
LAYER_3
 10
-46.7174
 20
124.0977
 11
-46.125
 21
126.3081
  0
LINE
  8
LAYER_3
 10
-46.125
 20
126.3081
 11
-47.3096
 21
126.3081
  0
LINE
  8
LAYER_3
 10
-47.2903
 20
146.3068
 11
-46.6981
 21
144.0963
  0
LINE
  8
LAYER_3
 10
-46.6981
 20
144.0963
 11
-46.1057
 21
146.3068
  0
LINE
  8
LAYER_3
 10
-46.1057
 20
146.3068
 11
-47.2903
 21
146.3068
  0
LINE
  8
LAYER_3
 10
-46.1252
 20
181.8867
 11
-46.7175
 21
184.0971
  0
LINE
  8
LAYER_3
 10
-46.7175
 20
184.0971
 11
-47.3098
 21
181.8867
  0
LINE
  8
LAYER_3
 10
-47.3098
 20
181.8867
 11
-46.1252
 21
181.8867
  0
LINE
  8
LAYER_3
 10
-46.1252
 20
141.8859
 11
-46.7175
 21
144.0963
  0
LINE
  8
LAYER_3
 10
-46.7175
 20
144.0963
 11
-47.3098
 21
141.8859
  0
LINE
  8
LAYER_3
 10
-47.3098
 20
141.8859
 11
-46.1252
 21
141.8859
  0
ENDBLK
  0
BLOCK
  8
LAYER_3
  2
AIGNBL0302001E
 70
64
 10
0
 20
0
 30
0
  3
AIGNBL0302001E
  0
LINE
  8
LAYER_3
 10
-18.5724
 20
125.2004
 11
-18.5724
 21
126.9643
  0
LINE
  8
LAYER_3
  6
AIGENLINE013
 10
-18.5724
 20
127.6027
 11
-18.5724
 21
128.5602
  0
LINE
  8
LAYER_3
  6
AIGENLINE014
 10
-18.5724
 20
128.8794
 11
-18.5724
 21
133.377
  0
LINE
  8
LAYER_3
 10
-18.5724
 20
133.6962
 11
-18.5724
 21
135.4601
  0
ENDBLK
  0
BLOCK
  8
LAYER_3
  2
AIGNBL03020020
 70
64
 10
0
 20
0
 30
0
  3
AIGNBL03020020
  0
LINE
  8
LAYER_3
 10
-32.5723
 20
125.2004
 11
-32.5723
 21
126.9643
  0
LINE
  8
LAYER_3
  6
AIGENLINE013
 10
-32.5723
 20
127.6027
 11
-32.5723
 21
128.5602
  0
LINE
  8
LAYER_3
  6
AIGENLINE014
 10
-32.5723
 20
128.8794
 11
-32.5723
 21
133.377
  0
LINE
  8
LAYER_3
 10
-32.5723
 20
133.6962
 11
-32.5723
 21
135.4601
  0
ENDBLK
  0
BLOCK
  8
LAYER_3
  2
AIGNBL03020022
 70
64
 10
0
 20
0
 30
0
  3
AIGNBL03020022
  0
LINE
  8
LAYER_3
 10
-27.8201
 20
127.8334
 11
-27.8201
 21
126.0695
  0
LINE
  8
LAYER_3
  6
AIGENLINE015
 10
-27.8201
 20
125.2776
 11
-27.8201
 21
124.0898
  0
LINE
  8
LAYER_3
  6
AIGENLINE016
 10
-27.8201
 20
123.6939
 11
-27.8201
 21
34.4618
  0
LINE
  8
LAYER_3
 10
-27.8201
 20
34.0659
 11
-27.8201
 21
32.302
  0
ENDBLK
  0
BLOCK
  8
LAYER_3
  2
AIGNBL03020024
 70
64
 10
0
 20
0
 30
0
  3
AIGNBL03020024
  0
INSERT
  8
LAYER_3
  2
AIGNBL03030025
 10
0
 20
0
 30
0
  0
ENDBLK
  0
BLOCK
  8
LAYER_3
  2
AIGNBL03020027
 70
64
 10
0
 20
0
 30
0
  3
AIGNBL03020027
  0
LINE
  8
LAYER_3
 10
59.941
 20
135.3719
 11
69.9051
 21
135.3719
  0
LINE
  8
LAYER_3
 10
66.9561
 20
134.6021
 11
69.9042
 21
135.3912
  0
LINE
  8
LAYER_3
 10
69.9042
 20
135.3912
 11
66.9561
 21
136.1813
  0
LINE
  8
LAYER_3
 10
66.9561
 20
136.1813
 11
66.9561
 21
134.6021
  0
LINE
  8
LAYER_3
 10
62.889
 20
136.162
 11
59.9419
 21
135.3719
  0
LINE
  8
LAYER_3
 10
59.9419
 20
135.3719
 11
62.889
 21
134.5828
  0
LINE
  8
LAYER_3
 10
62.889
 20
134.5828
 11
62.889
 21
136.162
  0
ENDBLK
  0
BLOCK
  8
LAYER_3
  2
AIGNBL03020029
 70
64
 10
0
 20
0
 30
0
  3
AIGNBL03020029
  0
LINE
  8
LAYER_3
 10
14.8874
 20
154.4312
 11
14.8874
 21
144.1144
  0
LINE
  8
LAYER_3
 10
14.3145
 20
146.3261
 11
14.9067
 21
144.1156
  0
LINE
  8
LAYER_3
 10
14.9067
 20
144.1156
 11
15.4989
 21
146.3261
  0
LINE
  8
LAYER_3
 10
15.4989
 20
146.3261
 11
14.3145
 21
146.3261
  0
LINE
  8
LAYER_3
 10
15.4796
 20
152.2197
 11
14.8874
 21
154.43
  0
LINE
  8
LAYER_3
 10
14.8874
 20
154.43
 11
14.2952
 21
152.2197
  0
LINE
  8
LAYER_3
 10
14.2952
 20
152.2197
 11
15.4796
 21
152.2197
  0
ENDBLK
  0
BLOCK
  8
LAYER_3
  2
AIGNBL0302002B
 70
64
 10
0
 20
0
 30
0
  3
AIGNBL0302002B
  0
LINE
  8
LAYER_3
 10
46.0283
 20
152.6936
 11
46.0283
 21
144.1144
  0
LINE
  8
LAYER_3
 10
45.4554
 20
146.3261
 11
46.0476
 21
144.1156
  0
LINE
  8
LAYER_3
 10
46.0476
 20
144.1156
 11
46.6398
 21
146.3261
  0
LINE
  8
LAYER_3
 10
46.6398
 20
146.3261
 11
45.4554
 21
146.3261
  0
LINE
  8
LAYER_3
 10
46.6205
 20
150.4821
 11
46.0283
 21
152.6925
  0
LINE
  8
LAYER_3
 10
46.0283
 20
152.6925
 11
45.4361
 21
150.4821
  0
LINE
  8
LAYER_3
 10
45.4361
 20
150.4821
 11
46.6205
 21
150.4821
  0
ENDBLK
  0
BLOCK
  8
LAYER_3
  2
AIGNBL0302002E
 70
64
 10
0
 20
0
 30
0
  3
AIGNBL0302002E
  0
LINE
  8
LAYER_3
 10
-32.5306
 20
24.2807
 11
-30.3198
 21
24.8729
  0
LINE
  8
LAYER_3
 10
-30.3198
 20
24.8729
 11
-32.5306
 21
25.4652
  0
LINE
  8
LAYER_3
 10
-32.5306
 20
25.4652
 11
-32.5306
 21
24.2807
  0
LINE
  8
LAYER_3
 10
-23.1096
 20
25.4652
 11
-25.3204
 21
24.8729
  0
LINE
  8
LAYER_3
 10
-25.3204
 20
24.8729
 11
-23.1096
 21
24.2807
  0
LINE
  8
LAYER_3
 10
-23.1096
 20
24.2807
 11
-23.1096
 21
25.4652
  0
ENDBLK
  0
BLOCK
  8
LAYER_3
  2
AIGNBL03020033
 70
64
 10
0
 20
0
 30
0
  3
AIGNBL03020033
  0
LINE
  8
LAYER_3
 10
30.4187
 20
159.4814
 11
29.407
 21
158.0365
  0
LINE
  8
LAYER_3
  6
AIGENLINE017
 10
28.6264
 20
156.9218
 11
27.4557
 21
155.2498
  0
LINE
  8
LAYER_3
 10
27.0654
 20
154.6924
 11
26.0537
 21
153.2475
  0
ENDBLK
  0
BLOCK
  8
LAYER_3
  2
AIGNBL03020035
 70
64
 10
0
 20
0
 30
0
  3
AIGNBL03020035
  0
LINE
  8
LAYER_3
 10
64.8817
 20
165.0113
 11
63.1178
 21
165.0113
  0
LINE
  8
LAYER_3
  6
AIGENLINE018
 10
62.3254
 20
165.0113
 11
61.1369
 21
165.0113
  0
LINE
  8
LAYER_3
  6
AIGENLINE019
 10
60.7407
 20
165.0113
 11
43.201
 21
165.0113
  0
LINE
  8
LAYER_3
 10
42.8049
 20
165.0113
 11
41.041
 21
165.0113
  0
ENDBLK
  0
BLOCK
  8
LAYER_3
  2
AIGNBL03020037
 70
64
 10
0
 20
0
 30
0
  3
AIGNBL03020037
  0
ARC
  8
LAYER_3
 10
41.0287
 20
152.0526
 40
12.9522
 50
137.1967085
 51
145.0014926
  0
ARC
  8
LAYER_3
  6
AIGENLINE020
 10
41.0453
 20
152.0324
 40
12.9781
 50
127.8370009
 51
133.4468076
  0
ARC
  8
LAYER_3
  6
AIGENLINE021
 10
41.0754
 20
151.9663
 40
13.0494
 50
99.74602722
 51
125.9104603
  0
ARC
  8
LAYER_3
 10
41.0415
 20
152.0655
 40
12.9458
 50
90.00180796
 51
97.81052784
  0
ENDBLK
  0
BLOCK
  8
LAYER_3
  2
AIGNBL03020039
 70
64
 10
0
 20
0
 30
0
  3
AIGNBL03020039
  0
LINE
  8
LAYER_3
 10
66.667
 20
34.2193
 11
60.7427
 21
34.2193
  0
ARC
  8
LAYER_3
 10
60.7427
 20
34.4328
 40
0.2135
 50
180.0001092
 51
269.9998908
  0
LINE
  8
LAYER_3
 10
60.5292
 20
34.4328
 11
60.5292
 21
38.0063
  0
ARC
  8
LAYER_3
 10
60.7427
 20
38.0063
 40
0.2135
 50
89.9987258
 51
180.0012742
  0
LINE
  8
LAYER_3
 10
60.7427
 20
38.2198
 11
66.667
 21
38.2198
  0
ARC
  8
LAYER_3
 10
66.667
 20
38.0063
 40
0.2135
 50
359.9971993
 51
90.00280072
  0
LINE
  8
LAYER_3
 10
66.8805
 20
38.0063
 11
66.8805
 21
34.4328
  0
ARC
  8
LAYER_3
 10
66.667
 20
34.4328
 40
0.2135
 50
269.9985828
 51
0.001417177731
  0
ENDBLK
  0
BLOCK
  8
LAYER_3
  2
AIGNBL0302003A
 70
64
 10
0
 20
0
 30
0
  3
AIGNBL0302003A
  0
LINE
  8
LAYER_3
 10
63.7049
 20
37.3758
 11
63.7049
 21
35.0633
  0
ENDBLK
  0
BLOCK
  8
LAYER_3
  2
AIGNBL0302003B
 70
64
 10
0
 20
0
 30
0
  3
AIGNBL0302003B
  0
ARC
  8
LAYER_3
 10
62.0587
 20
36.3216
 40
1.8576
 50
122.2837304
 51
145.4230157
  0
ARC
  8
LAYER_3
 10
62.1571
 20
36.2442
 40
1.976
 50
91.1615743
 51
123.496782
  0
ENDBLK
  0
BLOCK
  8
LAYER_3
  2
AIGNBL0302003C
 70
64
 10
0
 20
0
 30
0
  3
AIGNBL0302003C
  0
ARC
  8
LAYER_3
 10
62.1749
 20
36.3209
 40
1.8584
 50
34.58435739
 51
57.71422112
  0
ARC
  8
LAYER_3
 10
62.077
 20
36.2442
 40
1.976
 50
56.50335211
 51
88.83984311
  0
ENDBLK
  0
BLOCK
  8
LAYER_3
  2
AIGNBL0302003D
 70
64
 10
0
 20
0
 30
0
  3
AIGNBL0302003D
  0
ARC
  8
LAYER_3
 10
65.2344
 20
36.3216
 40
1.8576
 50
122.2858687
 51
145.4245385
  0
ARC
  8
LAYER_3
 10
65.3327
 20
36.2443
 40
1.9759
 50
91.15968336
 51
123.4976072
  0
ENDBLK
  0
BLOCK
  8
LAYER_3
  2
AIGNBL0302003E
 70
64
 10
0
 20
0
 30
0
  3
AIGNBL0302003E
  0
ARC
  8
LAYER_3
 10
65.351
 20
36.3216
 40
1.8576
 50
34.57546144
 51
57.7141313
  0
ARC
  8
LAYER_3
 10
65.2527
 20
36.2443
 40
1.9759
 50
56.50239277
 51
88.84031661
  0
ENDBLK
  0
BLOCK
  8
LAYER_3
  2
AIGNBL0302003F
 70
64
 10
0
 20
0
 30
0
  3
AIGNBL0302003F
  0
ARC
  8
LAYER_3
 10
62.0587
 20
36.1175
 40
1.8576
 50
214.5769843
 51
237.7162696
  0
ARC
  8
LAYER_3
 10
62.1571
 20
36.1949
 40
1.976
 50
236.503218
 51
268.8384257
  0
ENDBLK
  0
BLOCK
  8
LAYER_3
  2
AIGNBL03020040
 70
64
 10
0
 20
0
 30
0
  3
AIGNBL03020040
  0
ARC
  8
LAYER_3
 10
62.1749
 20
36.1182
 40
1.8584
 50
302.2857789
 51
325.4156426
  0
ARC
  8
LAYER_3
 10
62.077
 20
36.1949
 40
1.976
 50
271.1601569
 51
303.4966479
  0
ENDBLK
  0
BLOCK
  8
LAYER_3
  2
AIGNBL03020041
 70
64
 10
0
 20
0
 30
0
  3
AIGNBL03020041
  0
ARC
  8
LAYER_3
 10
65.2344
 20
36.1175
 40
1.8576
 50
214.5754615
 51
237.7141313
  0
ARC
  8
LAYER_3
 10
65.3327
 20
36.1948
 40
1.9759
 50
236.5023928
 51
268.8403166
  0
ENDBLK
  0
BLOCK
  8
LAYER_3
  2
AIGNBL03020042
 70
64
 10
0
 20
0
 30
0
  3
AIGNBL03020042
  0
ARC
  8
LAYER_3
 10
65.351
 20
36.1175
 40
1.8576
 50
302.2858687
 51
325.4245386
  0
ARC
  8
LAYER_3
 10
65.2527
 20
36.1948
 40
1.9759
 50
271.1596834
 51
303.4976072
  0
ENDBLK
  0
BLOCK
  8
LAYER_2
  2
AIGNBL02010002
 70
64
 10
0
 20
0
 30
0
  3
AIGNBL02010002
  0
ARC
  8
LAYER_2
 10
-22.622
 20
85.9084
 40
1.3714
 50
269.4277014
 51
296.6853584
  0
ARC
  8
LAYER_2
 10
-22.3817
 20
85.4735
 40
0.8752
 50
295.4148008
 51
328.4594489
  0
ARC
  8
LAYER_2
 10
-22.6496
 20
85.9085
 40
1.3715
 50
243.3156487
 51
270.5797289
  0
ARC
  8
LAYER_2
 10
-22.8896
 20
85.4736
 40
0.8754
 50
211.5382308
 51
244.5704853
  0
ARC
  8
LAYER_2
 10
-24.6215
 20
85.9074
 40
1.3704
 50
269.4246474
 51
296.6950959
  0
ARC
  8
LAYER_2
 10
-24.382
 20
85.4738
 40
0.8756
 50
295.436311
 51
328.4584317
  0
ARC
  8
LAYER_2
 10
-24.6489
 20
85.9092
 40
1.3723
 50
243.3229463
 51
270.56989
  0
ARC
  8
LAYER_2
 10
-24.8905
 20
85.4723
 40
0.8736
 50
211.5072421
 51
244.6112417
  0
ARC
  8
LAYER_2
 10
-24.6489
 20
84.122
 40
1.3724
 50
89.43055636
 51
116.6749161
  0
ARC
  8
LAYER_2
 10
-24.8904
 20
84.5589
 40
0.8738
 50
115.3863296
 51
148.4797379
  0
ARC
  8
LAYER_2
 10
-24.6215
 20
84.1238
 40
1.3706
 50
63.3070428
 51
90.5749058
  0
ARC
  8
LAYER_2
 10
-24.382
 20
84.5574
 40
0.8758
 50
31.55458929
 51
64.56611697
  0
ENDBLK
  0
BLOCK
  8
LAYER_2
  2
AIGNBL02010003
 70
64
 10
0
 20
0
 30
0
  3
AIGNBL02010003
  0
INSERT
  8
LAYER_2
  2
AIGNBL02020004
 10
0
 20
0
 30
0
  0
ENDBLK
  0
BLOCK
  8
LAYER_3
  2
AIGNBL03010002
 70
64
 10
0
 20
0
 30
0
  3
AIGNBL03010002
  0
INSERT
  8
LAYER_3
  2
AIGNBL03020003
 10
0
 20
0
 30
0
  0
ENDBLK
  0
BLOCK
  8
LAYER_3
  2
AIGNBL03010004
 70
64
 10
0
 20
0
 30
0
  3
AIGNBL03010004
  0
INSERT
  8
LAYER_3
  2
AIGNBL03020005
 10
0
 20
0
 30
0
  0
ENDBLK
  0
BLOCK
  8
LAYER_3
  2
AIGNBL03010006
 70
64
 10
0
 20
0
 30
0
  3
AIGNBL03010006
  0
INSERT
  8
LAYER_3
  2
AIGNBL03020007
 10
0
 20
0
 30
0
  0
ENDBLK
  0
BLOCK
  8
LAYER_3
  2
AIGNBL03010008
 70
64
 10
0
 20
0
 30
0
  3
AIGNBL03010008
  0
INSERT
  8
LAYER_3
  2
AIGNBL03020009
 10
0
 20
0
 30
0
  0
ENDBLK
  0
BLOCK
  8
LAYER_3
  2
AIGNBL0301000A
 70
64
 10
0
 20
0
 30
0
  3
AIGNBL0301000A
  0
INSERT
  8
LAYER_3
  2
AIGNBL0302000B
 10
0
 20
0
 30
0
  0
ENDBLK
  0
BLOCK
  8
LAYER_3
  2
AIGNBL0301000C
 70
64
 10
0
 20
0
 30
0
  3
AIGNBL0301000C
  0
INSERT
  8
LAYER_3
  2
AIGNBL0302000D
 10
0
 20
0
 30
0
  0
ENDBLK
  0
BLOCK
  8
LAYER_3
  2
AIGNBL0301000E
 70
64
 10
0
 20
0
 30
0
  3
AIGNBL0301000E
  0
INSERT
  8
LAYER_3
  2
AIGNBL0302000F
 10
0
 20
0
 30
0
  0
ENDBLK
  0
BLOCK
  8
LAYER_3
  2
AIGNBL03010010
 70
64
 10
0
 20
0
 30
0
  3
AIGNBL03010010
  0
INSERT
  8
LAYER_3
  2
AIGNBL03020011
 10
0
 20
0
 30
0
  0
ENDBLK
  0
BLOCK
  8
LAYER_3
  2
AIGNBL03010012
 70
64
 10
0
 20
0
 30
0
  3
AIGNBL03010012
  0
INSERT
  8
LAYER_3
  2
AIGNBL03020013
 10
0
 20
0
 30
0
  0
ENDBLK
  0
BLOCK
  8
LAYER_3
  2
AIGNBL03010015
 70
64
 10
0
 20
0
 30
0
  3
AIGNBL03010015
  0
INSERT
  8
LAYER_3
  2
AIGNBL03020016
 10
0
 20
0
 30
0
  0
ENDBLK
  0
BLOCK
  8
LAYER_3
  2
AIGNBL03010018
 70
64
 10
0
 20
0
 30
0
  3
AIGNBL03010018
  0
ARC
  8
LAYER_3
 10
-25.6696
 20
256.0395
 40
24.341
 50
296.4722382
 51
314.9827436
  0
ARC
  8
LAYER_3
 10
-25.5561
 20
255.9134
 40
24.1776
 50
269.9592775
 51
296.3647263
  0
ARC
  8
LAYER_3
 10
-25.5788
 20
256.0946
 40
24.3588
 50
257.0512298
 51
270.0128288
  0
ARC
  8
LAYER_3
 10
-25.5821
 20
255.8898
 40
24.1584
 50
231.8347085
 51
256.9501691
  0
ARC
  8
LAYER_3
 10
-25.4727
 20
256.0303
 40
24.3366
 50
225.0001459
 51
231.836597
  0
LINE
  8
LAYER_3
 10
-9.6944
 20
236.8923
 11
-8.4631
 21
238.8226
  0
LINE
  8
LAYER_3
 10
-8.4631
 20
238.8226
 11
-10.4947
 21
237.7667
  0
LINE
  8
LAYER_3
 10
-10.4947
 20
237.7667
 11
-9.6944
 21
236.8923
  0
LINE
  8
LAYER_3
 10
-41.4499
 20
236.8914
 11
-42.6812
 21
238.8217
  0
LINE
  8
LAYER_3
 10
-42.6812
 20
238.8217
 11
-40.6496
 21
237.7658
  0
LINE
  8
LAYER_3
 10
-40.6496
 20
237.7658
 11
-41.4499
 21
236.8914
  0
ENDBLK
  0
BLOCK
  8
LAYER_3
  2
AIGNBL03010019
 70
64
 10
0
 20
0
 30
0
  3
AIGNBL03010019
  0
INSERT
  8
LAYER_3
  2
AIGNBL0302001A
 10
0
 20
0
 30
0
  0
INSERT
  8
LAYER_3
  2
AIGNBL0302001B
 10
0
 20
0
 30
0
  0
ENDBLK
  0
BLOCK
  8
LAYER_3
  2
AIGNBL0301001C
 70
64
 10
0
 20
0
 30
0
  3
AIGNBL0301001C
  0
ARC
  8
LAYER_3
 10
-26.8067
 20
85.9084
 40
1.3715
 50
269.4280227
 51
296.6846448
  0
ARC
  8
LAYER_3
 10
-26.5667
 20
85.4741
 40
0.8758
 50
295.4170673
 51
328.4433069
  0
ARC
  8
LAYER_3
 10
-26.8343
 20
85.9085
 40
1.3715
 50
243.3156487
 51
270.5797289
  0
ARC
  8
LAYER_3
 10
-27.0743
 20
85.4736
 40
0.8754
 50
211.5382308
 51
244.5704853
  0
ARC
  8
LAYER_3
 10
-28.8061
 20
85.9071
 40
1.3702
 50
269.423803
 51
296.6977098
  0
ARC
  8
LAYER_3
 10
-28.5667
 20
85.4737
 40
0.8756
 50
295.441125
 51
328.4622134
  0
ARC
  8
LAYER_3
 10
-28.8335
 20
85.9094
 40
1.3724
 50
243.3248435
 51
270.5693685
  0
ARC
  8
LAYER_3
 10
-29.0754
 20
85.4718
 40
0.8731
 50
211.494874
 51
244.618323
  0
ARC
  8
LAYER_3
 10
-28.8335
 20
84.1218
 40
1.3726
 50
89.43107789
 51
116.6730191
  0
ARC
  8
LAYER_3
 10
-29.0754
 20
84.5593
 40
0.8733
 50
115.3792475
 51
148.4921067
  0
ARC
  8
LAYER_3
 10
-28.8061
 20
84.1241
 40
1.3703
 50
63.30442903
 51
90.57575013
  0
ARC
  8
LAYER_3
 10
-28.5667
 20
84.5575
 40
0.8758
 50
31.55080716
 51
64.5613036
  0
ENDBLK
  0
BLOCK
  8
LAYER_3
  2
AIGNBL0301001D
 70
64
 10
0
 20
0
 30
0
  3
AIGNBL0301001D
  0
INSERT
  8
LAYER_3
  2
AIGNBL0302001E
 10
0
 20
0
 30
0
  0
ENDBLK
  0
BLOCK
  8
LAYER_3
  2
AIGNBL0301001F
 70
64
 10
0
 20
0
 30
0
  3
AIGNBL0301001F
  0
INSERT
  8
LAYER_3
  2
AIGNBL03020020
 10
0
 20
0
 30
0
  0
ENDBLK
  0
BLOCK
  8
LAYER_3
  2
AIGNBL03010021
 70
64
 10
0
 20
0
 30
0
  3
AIGNBL03010021
  0
INSERT
  8
LAYER_3
  2
AIGNBL03020022
 10
0
 20
0
 30
0
  0
ENDBLK
  0
BLOCK
  8
LAYER_3
  2
AIGNBL03010023
 70
64
 10
0
 20
0
 30
0
  3
AIGNBL03010023
  0
ARC
  8
LAYER_3
 10
64.7186
 20
85.9082
 40
1.3712
 50
269.4271792
 51
296.6872569
  0
ARC
  8
LAYER_3
 10
64.9585
 20
85.474
 40
0.8758
 50
295.4218763
 51
328.4470878
  0
ARC
  8
LAYER_3
 10
64.691
 20
85.9085
 40
1.3715
 50
243.3157077
 51
270.5812784
  0
ARC
  8
LAYER_3
 10
64.451
 20
85.4735
 40
0.8753
 50
211.5345375
 51
244.5679945
  0
ARC
  8
LAYER_3
 10
62.7191
 20
85.9072
 40
1.3703
 50
269.4241247
 51
296.6969956
  0
ARC
  8
LAYER_3
 10
62.9583
 20
85.4742
 40
0.8762
 50
295.4433871
 51
328.446068
  0
ARC
  8
LAYER_3
 10
62.6917
 20
85.9094
 40
1.3724
 50
243.3248435
 51
270.5693685
  0
ARC
  8
LAYER_3
 10
62.4498
 20
85.4718
 40
0.8731
 50
211.494874
 51
244.618323
  0
ARC
  8
LAYER_3
 10
62.6917
 20
84.1218
 40
1.3726
 50
89.43107789
 51
116.6730191
  0
ARC
  8
LAYER_3
 10
62.4498
 20
84.5593
 40
0.8733
 50
115.3792475
 51
148.4921067
  0
ARC
  8
LAYER_3
 10
62.7191
 20
84.124
 40
1.3704
 50
63.30514316
 51
90.5754285
  0
ARC
  8
LAYER_3
 10
62.9582
 20
84.5569
 40
0.8763
 50
31.56695372
 51
64.55904006
  0
LINE
  8
LAYER_3
 10
61.7048
 20
85.0157
 11
61.7048
 21
124.0959
  0
LINE
  8
LAYER_3
 10
65.7048
 20
85.0157
 11
65.7048
 21
124.0959
  0
LINE
  8
LAYER_3
 10
65.7048
 20
121.5337
 11
64.1344
 21
119.9636
  0
LINE
  8
LAYER_3
 10
63.2754
 20
119.9636
 11
61.7048
 21
121.5337
  0
LINE
  8
LAYER_3
 10
65.7048
 20
123.0017
 11
62.6663
 21
119.9636
  0
LINE
  8
LAYER_3
 10
64.7434
 20
119.9636
 11
61.7048
 21
123.0017
  0
LINE
  8
LAYER_3
 10
65.3309
 20
124.0959
 11
61.7048
 21
120.4698
  0
LINE
  8
LAYER_3
 10
65.7048
 20
120.4698
 11
62.0787
 21
124.0959
  0
LINE
  8
LAYER_3
 10
63.8629
 20
124.0959
 11
61.7048
 21
121.9379
  0
LINE
  8
LAYER_3
 10
65.7048
 20
121.9379
 11
63.5468
 21
124.0959
  0
LINE
  8
LAYER_3
 10
62.3948
 20
124.0959
 11
61.7048
 21
123.406
  0
LINE
  8
LAYER_3
 10
65.7048
 20
123.406
 11
65.0149
 21
124.0959
  0
INSERT
  8
LAYER_3
  2
AIGNBL03020024
 10
0
 20
0
 30
0
  0
ENDBLK
  0
BLOCK
  8
LAYER_3
  2
AIGNBL03010026
 70
64
 10
0
 20
0
 30
0
  3
AIGNBL03010026
  0
INSERT
  8
LAYER_3
  2
AIGNBL03020027
 10
0
 20
0
 30
0
  0
ENDBLK
  0
BLOCK
  8
LAYER_3
  2
AIGNBL03010028
 70
64
 10
0
 20
0
 30
0
  3
AIGNBL03010028
  0
INSERT
  8
LAYER_3
  2
AIGNBL03020029
 10
0
 20
0
 30
0
  0
ENDBLK
  0
BLOCK
  8
LAYER_3
  2
AIGNBL0301002A
 70
64
 10
0
 20
0
 30
0
  3
AIGNBL0301002A
  0
INSERT
  8
LAYER_3
  2
AIGNBL0302002B
 10
0
 20
0
 30
0
  0
ENDBLK
  0
BLOCK
  8
LAYER_3
  2
AIGNBL0301002C
 70
64
 10
0
 20
0
 30
0
  3
AIGNBL0301002C
  0
LINE
  8
LAYER_3
 10
13.4254
 20
139.4594
 11
15.4308
 21
138.3564
  0
LINE
  8
LAYER_3
 10
15.4308
 20
138.3564
 11
14.2455
 21
140.3144
  0
LINE
  8
LAYER_3
 10
14.2455
 20
140.3144
 11
13.4254
 21
139.4594
  0
LINE
  8
LAYER_3
 10
29.0955
 20
134.2825
 11
26.8817
 21
133.7012
  0
LINE
  8
LAYER_3
 10
26.8817
 20
133.7012
 11
29.0889
 21
133.0976
  0
LINE
  8
LAYER_3
 10
29.0889
 20
133.0976
 11
29.0955
 21
134.2825
  0
ENDBLK
  0
BLOCK
  8
LAYER_3
  2
AIGNBL0301002D
 70
64
 10
0
 20
0
 30
0
  3
AIGNBL0301002D
  0
INSERT
  8
LAYER_3
  2
AIGNBL0302002E
 10
0
 20
0
 30
0
  0
ENDBLK
  0
BLOCK
  8
LAYER_3
  2
AIGNBL0301002F
 70
64
 10
0
 20
0
 30
0
  3
AIGNBL0301002F
  0
LINE
  8
LAYER_3
 10
-40.7301
 20
24.8729
 11
-20.5674
 21
24.8729
  0
ENDBLK
  0
BLOCK
  8
LAYER_3
  2
AIGNBL03010030
 70
64
 10
0
 20
0
 30
0
  3
AIGNBL03010030
  0
ARC
  8
LAYER_3
 10
-28.8339
 20
81.6548
 40
1.3702
 50
89.42380302
 51
116.6977098
  0
ARC
  8
LAYER_3
 10
-29.0733
 20
82.0882
 40
0.8756
 50
115.441125
 51
148.4622134
  0
ARC
  8
LAYER_3
 10
-28.8065
 20
81.6522
 40
1.3728
 50
63.32840856
 51
90.56776348
  0
ARC
  8
LAYER_3
 10
-28.566
 20
82.0875
 40
0.8761
 50
31.57559482
 51
64.60695956
  0
ARC
  8
LAYER_3
 10
-26.8339
 20
81.6546
 40
1.3704
 50
89.42277429
 51
116.6957511
  0
ARC
  8
LAYER_3
 10
-27.0738
 20
82.0888
 40
0.875
 50
115.4365384
 51
148.4782754
  0
ARC
  8
LAYER_3
 10
-26.8063
 20
81.6548
 40
1.3702
 50
63.3022902
 51
90.57619695
  0
ARC
  8
LAYER_3
 10
-26.5669
 20
82.0882
 40
0.8756
 50
31.53778656
 51
64.55887496
  0
ARC
  8
LAYER_3
 10
-26.8063
 20
83.4378
 40
1.3703
 50
269.4242499
 51
296.695571
  0
ARC
  8
LAYER_3
 10
-26.5669
 20
83.0044
 40
0.8758
 50
295.4386964
 51
328.4491928
  0
ARC
  8
LAYER_3
 10
-26.8339
 20
83.438
 40
1.3705
 50
243.3063875
 51
270.5767789
  0
ARC
  8
LAYER_3
 10
-27.0737
 20
83.0039
 40
0.8751
 50
211.5347441
 51
244.5658916
  0
LINE
  8
LAYER_3
 10
-29.8196
 20
45.008
 11
-29.8196
 21
82.5462
  0
LINE
  8
LAYER_3
 10
-25.8206
 20
45.008
 11
-25.8206
 21
82.5462
  0
LINE
  8
LAYER_3
 10
-27.8201
 20
38.2198
 11
-25.7241
 21
38.2198
  0
LINE
  8
LAYER_3
 10
-27.8201
 20
39.4221
 11
-27.1642
 21
39.4221
  0
LINE
  8
LAYER_3
 10
-26.6446
 20
39.4221
 11
-25.7241
 21
39.4221
  0
ARC
  8
LAYER_3
 10
-25.7468
 20
38.7987
 40
0.6238
 50
2.015181344
 51
87.91810145
  0
ARC
  8
LAYER_3
 10
-25.7241
 20
38.8206
 40
0.6008
 50
269.9994661
 51
0.0005339023032
  0
LINE
  8
LAYER_3
 10
-27.8201
 20
42.3911
 11
-27.1642
 21
42.3911
  0
LINE
  8
LAYER_3
 10
-26.6446
 20
42.3911
 11
-25.7241
 21
42.3911
  0
LINE
  8
LAYER_3
 10
-26.6446
 20
42.3911
 11
-26.6446
 21
39.4221
  0
LINE
  8
LAYER_3
 10
-27.1642
 20
42.3911
 11
-27.1642
 21
39.4221
  0
LINE
  8
LAYER_3
 10
-25.7241
 20
42.3911
 11
-25.3603
 21
42.7549
  0
LINE
  8
LAYER_3
 10
-25.7241
 20
42.3911
 11
-25.7241
 21
39.4221
  0
LINE
  8
LAYER_3
 10
-25.3603
 20
45.0073
 11
-27.8201
 21
45.0073
  0
LINE
  8
LAYER_3
 10
-25.3603
 20
45.0073
 11
-25.3603
 21
42.7549
  0
LINE
  8
LAYER_3
 10
-27.8201
 20
38.2198
 11
-29.9161
 21
38.2198
  0
LINE
  8
LAYER_3
 10
-27.8201
 20
39.4221
 11
-28.4747
 21
39.4221
  0
LINE
  8
LAYER_3
 10
-28.9956
 20
39.4221
 11
-29.9161
 21
39.4221
  0
ARC
  8
LAYER_3
 10
-29.9161
 20
38.8206
 40
0.6008
 50
180.0028685
 51
269.9971316
  0
ARC
  8
LAYER_3
 10
-29.893
 20
38.7982
 40
0.6243
 50
92.11908101
 51
177.9476362
  0
LINE
  8
LAYER_3
 10
-27.8201
 20
42.3911
 11
-28.4747
 21
42.3911
  0
LINE
  8
LAYER_3
 10
-28.9956
 20
42.3911
 11
-29.9161
 21
42.3911
  0
LINE
  8
LAYER_3
 10
-28.9956
 20
42.3911
 11
-28.9956
 21
39.4221
  0
LINE
  8
LAYER_3
 10
-28.4747
 20
42.3911
 11
-28.4747
 21
39.4221
  0
LINE
  8
LAYER_3
 10
-29.9161
 20
42.3911
 11
-30.2799
 21
42.7549
  0
LINE
  8
LAYER_3
 10
-29.9161
 20
42.3911
 11
-29.9161
 21
39.4221
  0
LINE
  8
LAYER_3
 10
-30.2799
 20
45.0073
 11
-27.8201
 21
45.0073
  0
LINE
  8
LAYER_3
 10
-30.2799
 20
45.0073
 11
-30.2799
 21
42.7549
  0
LINE
  8
LAYER_3
 10
-30.57
 20
38.2198
 11
-25.0695
 21
38.2198
  0
LINE
  8
LAYER_3
 10
-31.487
 20
35.0634
 11
-31.487
 21
37.3758
  0
LINE
  8
LAYER_3
 10
-24.1532
 20
35.0634
 11
-24.1532
 21
37.3758
  0
LINE
  8
LAYER_3
 10
-25.9859
 20
35.0634
 11
-25.9859
 21
37.3758
  0
LINE
  8
LAYER_3
 10
-29.6529
 20
35.0634
 11
-29.6529
 21
37.3758
  0
ARC
  8
LAYER_3
 10
-28.4829
 20
36.8094
 40
1.2999
 50
126.9495098
 51
154.1686823
  0
ARC
  8
LAYER_3
 10
-28.2429
 20
36.4347
 40
1.7439
 50
101.7658397
 51
125.8487147
  0
ARC
  8
LAYER_3
 10
-27.8523
 20
34.6103
 40
3.6096
 50
89.48926038
 51
101.931805
  0
ARC
  8
LAYER_3
 10
-27.1557
 20
36.8095
 40
1.2996
 50
25.83056818
 51
53.05613123
  0
ARC
  8
LAYER_3
 10
-27.3959
 20
36.4342
 40
1.7443
 50
54.15940742
 51
78.24727842
  0
ARC
  8
LAYER_3
 10
-27.7877
 20
34.6022
 40
3.6177
 50
78.08153089
 51
90.51242377
  0
ARC
  8
LAYER_3
 10
-30.1892
 20
37.1122
 40
1.3243
 50
140.5733388
 51
168.5171053
  0
ARC
  8
LAYER_3
 10
-30.6098
 20
37.409
 40
0.8118
 50
87.23700227
 51
137.8979834
  0
ARC
  8
LAYER_3
 10
-30.9501
 20
37.1123
 40
1.3237
 50
11.48130908
 51
39.43989754
  0
ARC
  8
LAYER_3
 10
-30.5305
 20
37.4082
 40
0.8126
 50
42.12605619
 51
92.7850021
  0
ARC
  8
LAYER_3
 10
-24.6864
 20
37.112
 40
1.326
 50
140.6227408
 51
168.5238802
  0
ARC
  8
LAYER_3
 10
-25.1094
 20
37.4098
 40
0.811
 50
87.17913988
 51
137.927555
  0
ARC
  8
LAYER_3
 10
-25.451
 20
37.1122
 40
1.3243
 50
11.48289466
 51
39.42666114
  0
ARC
  8
LAYER_3
 10
-25.0304
 20
37.409
 40
0.8118
 50
42.10201661
 51
92.76299771
  0
LINE
  8
LAYER_3
 10
-30.57
 20
34.2193
 11
-25.0695
 21
34.2193
  0
ARC
  8
LAYER_3
 10
-28.4828
 20
35.6298
 40
1.3
 50
205.8275535
 51
233.046631
  0
ARC
  8
LAYER_3
 10
-28.2429
 20
36.0043
 40
1.7438
 50
234.1477873
 51
258.2331496
  0
ARC
  8
LAYER_3
 10
-27.8523
 20
37.8285
 40
3.6093
 50
258.0673963
 51
270.5108618
  0
ARC
  8
LAYER_3
 10
-27.1558
 20
35.6296
 40
1.2998
 50
306.947728
 51
334.1731961
  0
ARC
  8
LAYER_3
 10
-27.3959
 20
36.0047
 40
1.7442
 50
281.7537311
 51
305.8440901
  0
ARC
  8
LAYER_3
 10
-27.7877
 20
37.8366
 40
3.6174
 50
269.487454
 51
281.9192669
  0
ARC
  8
LAYER_3
 10
-30.189
 20
35.327
 40
1.3245
 50
191.480691
 51
219.4229745
  0
ARC
  8
LAYER_3
 10
-30.6098
 20
35.0301
 40
0.8117
 50
222.0983149
 51
272.7631181
  0
ARC
  8
LAYER_3
 10
-30.9503
 20
35.3269
 40
1.3239
 50
320.5637898
 51
348.5208948
  0
ARC
  8
LAYER_3
 10
-30.5305
 20
35.0309
 40
0.8126
 50
267.2148754
 51
317.8776448
  0
ARC
  8
LAYER_3
 10
-24.6862
 20
35.3272
 40
1.3262
 50
191.4739186
 51
219.3735749
  0
ARC
  8
LAYER_3
 10
-25.1094
 20
35.0292
 40
0.8109
 50
222.0687429
 51
272.8209826
  0
ARC
  8
LAYER_3
 10
-25.4512
 20
35.327
 40
1.3245
 50
320.5770255
 51
348.519309
  0
ARC
  8
LAYER_3
 10
-25.0304
 20
35.0301
 40
0.8117
 50
267.2368819
 51
317.9016851
  0
ENDBLK
  0
BLOCK
  8
LAYER_3
  2
AIGNBL03010031
 70
64
 10
0
 20
0
 30
0
  3
AIGNBL03010031
  0
ARC
  8
LAYER_3
 10
62.691
 20
81.6548
 40
1.3702
 50
89.42380302
 51
116.6977098
  0
ARC
  8
LAYER_3
 10
62.4516
 20
82.0882
 40
0.8756
 50
115.441125
 51
148.4622134
  0
ARC
  8
LAYER_3
 10
62.7184
 20
81.6522
 40
1.3728
 50
63.32840856
 51
90.56776348
  0
ARC
  8
LAYER_3
 10
62.9589
 20
82.0875
 40
0.8761
 50
31.57559482
 51
64.60695956
  0
ARC
  8
LAYER_3
 10
64.691
 20
81.6548
 40
1.3702
 50
89.42380302
 51
116.6977098
  0
ARC
  8
LAYER_3
 10
64.4516
 20
82.0882
 40
0.8756
 50
115.441125
 51
148.4622134
  0
ARC
  8
LAYER_3
 10
64.7186
 20
81.6545
 40
1.3705
 50
63.30496289
 51
90.57690406
  0
ARC
  8
LAYER_3
 10
64.9582
 20
82.0882
 40
0.8755
 50
31.53787529
 51
64.56119737
  0
ARC
  8
LAYER_3
 10
64.7186
 20
83.4381
 40
1.3706
 50
269.4235428
 51
296.6928985
  0
ARC
  8
LAYER_3
 10
64.9581
 20
83.0044
 40
0.8757
 50
295.4363741
 51
328.449104
  0
ARC
  8
LAYER_3
 10
64.691
 20
83.4378
 40
1.3703
 50
243.3044291
 51
270.5757502
  0
ARC
  8
LAYER_3
 10
64.4516
 20
83.0044
 40
0.8758
 50
211.5508072
 51
244.5613036
  0
LINE
  8
LAYER_3
 10
61.7053
 20
45.008
 11
61.7053
 21
82.5462
  0
LINE
  8
LAYER_3
 10
65.7043
 20
45.008
 11
65.7043
 21
82.5462
  0
LINE
  8
LAYER_3
 10
63.7049
 20
38.2198
 11
65.8008
 21
38.2198
  0
LINE
  8
LAYER_3
 10
63.7049
 20
39.4221
 11
64.3607
 21
39.4221
  0
LINE
  8
LAYER_3
 10
64.8803
 20
39.4221
 11
65.8008
 21
39.4221
  0
ARC
  8
LAYER_3
 10
65.7782
 20
38.7987
 40
0.6238
 50
2.011075758
 51
87.92220704
  0
ARC
  8
LAYER_3
 10
65.8008
 20
38.8206
 40
0.6008
 50
269.998512
 51
0.001488001801
  0
LINE
  8
LAYER_3
 10
63.7049
 20
42.3911
 11
64.3607
 21
42.3911
  0
LINE
  8
LAYER_3
 10
64.8803
 20
42.3911
 11
65.8008
 21
42.3911
  0
LINE
  8
LAYER_3
 10
64.8803
 20
42.3911
 11
64.8803
 21
39.4221
  0
LINE
  8
LAYER_3
 10
64.3607
 20
42.3911
 11
64.3607
 21
39.4221
  0
LINE
  8
LAYER_3
 10
65.8008
 20
42.3911
 11
66.1646
 21
42.7549
  0
LINE
  8
LAYER_3
 10
65.8008
 20
42.3911
 11
65.8008
 21
39.4221
  0
LINE
  8
LAYER_3
 10
66.1646
 20
45.0073
 11
63.7049
 21
45.0073
  0
LINE
  8
LAYER_3
 10
66.1646
 20
45.0073
 11
66.1646
 21
42.7549
  0
LINE
  8
LAYER_3
 10
63.7049
 20
38.2198
 11
61.6089
 21
38.2198
  0
LINE
  8
LAYER_3
 10
63.7049
 20
39.4221
 11
63.0502
 21
39.4221
  0
LINE
  8
LAYER_3
 10
62.5293
 20
39.4221
 11
61.6089
 21
39.4221
  0
ARC
  8
LAYER_3
 10
61.6088
 20
38.8206
 40
0.6008
 50
180.0038223
 51
270.0057135
  0
ARC
  8
LAYER_3
 10
61.6319
 20
38.7982
 40
0.6243
 50
92.11366209
 51
177.9435193
  0
LINE
  8
LAYER_3
 10
63.7049
 20
42.3911
 11
63.0502
 21
42.3911
  0
LINE
  8
LAYER_3
 10
62.5293
 20
42.3911
 11
61.6089
 21
42.3911
  0
LINE
  8
LAYER_3
 10
62.5293
 20
42.3911
 11
62.5293
 21
39.4221
  0
LINE
  8
LAYER_3
 10
63.0502
 20
42.3911
 11
63.0502
 21
39.4221
  0
LINE
  8
LAYER_3
 10
61.6089
 20
42.3911
 11
61.245
 21
42.7549
  0
LINE
  8
LAYER_3
 10
61.6089
 20
42.3911
 11
61.6089
 21
39.4221
  0
LINE
  8
LAYER_3
 10
61.245
 20
45.0073
 11
63.7049
 21
45.0073
  0
LINE
  8
LAYER_3
 10
61.245
 20
45.0073
 11
61.245
 21
42.7549
  0
ENDBLK
  0
BLOCK
  8
LAYER_3
  2
AIGNBL03010032
 70
64
 10
0
 20
0
 30
0
  3
AIGNBL03010032
  0
INSERT
  8
LAYER_3
  2
AIGNBL03020033
 10
0
 20
0
 30
0
  0
ENDBLK
  0
BLOCK
  8
LAYER_3
  2
AIGNBL03010034
 70
64
 10
0
 20
0
 30
0
  3
AIGNBL03010034
  0
INSERT
  8
LAYER_3
  2
AIGNBL03020035
 10
0
 20
0
 30
0
  0
ENDBLK
  0
BLOCK
  8
LAYER_3
  2
AIGNBL03010036
 70
64
 10
0
 20
0
 30
0
  3
AIGNBL03010036
  0
INSERT
  8
LAYER_3
  2
AIGNBL03020037
 10
0
 20
0
 30
0
  0
ENDBLK
  0
BLOCK
  8
LAYER_3
  2
AIGNBL03010038
 70
64
 10
0
 20
0
 30
0
  3
AIGNBL03010038
  0
INSERT
  8
LAYER_3
  2
AIGNBL03020039
 10
0
 20
0
 30
0
  0
INSERT
  8
LAYER_3
  2
AIGNBL0302003A
 10
0
 20
0
 30
0
  0
INSERT
  8
LAYER_3
  2
AIGNBL0302003B
 10
0
 20
0
 30
0
  0
INSERT
  8
LAYER_3
  2
AIGNBL0302003C
 10
0
 20
0
 30
0
  0
INSERT
  8
LAYER_3
  2
AIGNBL0302003D
 10
0
 20
0
 30
0
  0
INSERT
  8
LAYER_3
  2
AIGNBL0302003E
 10
0
 20
0
 30
0
  0
INSERT
  8
LAYER_3
  2
AIGNBL0302003F
 10
0
 20
0
 30
0
  0
INSERT
  8
LAYER_3
  2
AIGNBL03020040
 10
0
 20
0
 30
0
  0
INSERT
  8
LAYER_3
  2
AIGNBL03020041
 10
0
 20
0
 30
0
  0
INSERT
  8
LAYER_3
  2
AIGNBL03020042
 10
0
 20
0
 30
0
  0
ENDBLK
  0
BLOCK
  8
LAYER_4
  2
AIGNBL04010002
 70
64
 10
0
 20
0
 30
0
  3
AIGNBL04010002
  0
ARC
  8
LAYER_4
 10
181.2361
 20
51.0518
 40
2.085
 50
359.9990616
 51
90.00093841
  0
ARC
  8
LAYER_4
 10
181.2364
 20
51.0522
 40
2.0846
 50
90.00927268
 51
180.0099666
  0
ARC
  8
LAYER_4
 10
181.2361
 20
51.0519
 40
2.0843
 50
180.0023133
 51
270.0004358
  0
ARC
  8
LAYER_4
 10
181.2365
 20
51.0522
 40
2.0846
 50
269.9893525
 51
359.9886593
  0
ARC
  8
LAYER_4
 10
181.2365
 20
51.0515
 40
1.2199
 50
0.01483428533
 51
90.01804168
  0
ARC
  8
LAYER_4
 10
181.2361
 20
51.0519
 40
1.2195
 50
90.00175626
 51
180.0029419
  0
ARC
  8
LAYER_4
 10
181.2361
 20
51.0518
 40
1.2195
 50
180.0016044
 51
269.9983956
  0
ARC
  8
LAYER_4
 10
181.2365
 20
51.0522
 40
1.2199
 50
269.9818051
 51
359.9806209
  0
LINE
  8
LAYER_4
 10
184.9472
 20
49.8323
 11
184.9472
 21
52.2714
  0
LINE
  8
LAYER_4
 10
190.1252
 20
48.9676
 11
190.1252
 21
53.1368
  0
LINE
  8
LAYER_4
 10
184.9472
 20
52.2714
 11
190.1252
 21
53.1368
  0
LINE
  8
LAYER_4
 10
184.9472
 20
49.8323
 11
190.1252
 21
48.9676
  0
LINE
  8
LAYER_4
 10
181.2361
 20
51.0518
 11
181.2361
 21
50.8004
  0
LINE
  8
LAYER_4
 10
181.2361
 20
50.5599
 11
181.2361
 21
48.3729
  0
LINE
  8
LAYER_4
 10
181.2361
 20
51.0518
 11
181.4883
 21
51.0518
  0
LINE
  8
LAYER_4
 10
181.7288
 20
51.0518
 11
183.9157
 21
51.0518
  0
LINE
  8
LAYER_4
 10
181.2361
 20
51.0518
 11
181.2361
 21
51.304
  0
LINE
  8
LAYER_4
 10
181.2361
 20
51.5445
 11
181.2361
 21
53.7314
  0
LINE
  8
LAYER_4
 10
181.2361
 20
51.0518
 11
180.9846
 21
51.0518
  0
LINE
  8
LAYER_4
 10
180.7442
 20
51.0518
 11
178.5572
 21
51.0518
  0
LINE
  8
LAYER_4
 10
187.1404
 20
51.0518
 11
187.3925
 21
51.0518
  0
LINE
  8
LAYER_4
 10
187.633
 20
51.0518
 11
190.5579
 21
51.0518
  0
LINE
  8
LAYER_4
 10
187.1404
 20
51.0518
 11
186.8882
 21
51.0518
  0
LINE
  8
LAYER_4
 10
186.6477
 20
51.0518
 11
184.4614
 21
51.0518
  0
ENDBLK
  0
ENDSEC
  0
SECTION
  2
ENTITIES
  0
TEXT
  8
LAYER_1
 10
64.1165
 20
151.8514
 11
64.1165
 21
151.8514
 40
3.0923
 41
0.5
 72
1
  1
%%c40
  0
TEXT
  8
LAYER_1
 10
79.8473
 20
163.5324
 11
79.8473
 21
163.5324
 40
3.0923
 41
0.5
 50
89.99999999
 72
1
  1
120
  0
TEXT
  8
LAYER_1
 10
88.7439
 20
166.286
 11
88.7439
 21
166.286
 40
3.0923
 41
0.5
 50
89.99999999
 72
1
  1
134
  0
TEXT
  8
LAYER_1
 10
45.6901
 20
199.5397
 11
45.6901
 21
199.5397
 40
3.0923
 41
0.5
 72
1
  1
114
  0
TEXT
  8
LAYER_1
 10
64.882
 20
240.4507
 11
64.882
 21
240.4507
 40
3.0923
 41
0.5
 72
1
  1
水栓取付穴
  0
TEXT
  8
LAYER_1
 10
49.3561
 20
187.166
 11
49.3561
 21
187.166
 40
3.0923
 41
0.5
 72
2
  1
開
  0
TEXT
  8
LAYER_1
 10
48.78
 20
181.0645
 11
48.78
 21
181.0645
 40
3.0923
 41
0.5
 72
2
  1
閉
  0
TEXT
  8
LAYER_1
 10
81.6989
 20
249.0121
 11
81.6989
 21
249.0121
 40
3.0923
 41
0.5
 72
2
  1
%%c32～35
  0
TEXT
  8
LAYER_1
 10
-45.6033
 20
235.1484
 11
-45.6033
 21
235.1484
 40
3.0923
 41
0.5
 72
2
  1
湯
  0
TEXT
  8
LAYER_1
 10
-5.666
 20
235.1484
 11
-5.666
 21
235.1484
 40
3.0923
 41
0.5
  1
水
  0
TEXT
  8
LAYER_1
 10
-39.9709
 20
139.0668
 11
-39.9709
 21
139.0668
 40
3.0923
 41
0.5
 50
89.99999999
 72
1
  1
max.46
  0
TEXT
  8
LAYER_1
 10
-47.4175
 20
134.0958
 11
-47.4175
 21
134.0958
 40
3.0923
 41
0.5
 50
89.99999999
 72
1
  1
60
  0
TEXT
  8
LAYER_1
 10
-47.4175
 20
162.8417
 11
-47.4175
 21
162.8417
 40
3.0923
 41
0.5
 50
89.99999999
 72
1
  1
120
  0
TEXT
  8
LAYER_1
 10
-9.4177
 20
89.158
 11
-9.4177
 21
89.158
 40
3.0923
 41
0.5
 50
89.99999999
 72
1
  1
480
  0
TEXT
  8
LAYER_1
 10
64.2771
 20
136.3072
 11
64.2771
 21
136.3072
 40
3.0923
 41
0.5
 72
1
  1
%%c30
  0
TEXT
  8
LAYER_1
 10
14.0314
 20
149.6167
 11
14.0314
 21
149.6167
 40
3.0923
 41
0.5
 50
89.99999999
 72
1
  1
31
  0
TEXT
  8
LAYER_1
 10
45.1723
 20
148.4247
 11
45.1723
 21
148.4247
 40
3.0923
 41
0.5
 50
89.99999999
 72
1
  1
27
  0
TEXT
  8
LAYER_1
 10
19.6009
 20
131.0215
 11
19.6009
 21
131.0215
 40
3.0923
 41
0.5
 72
1
  1
35%%d
  0
TEXT
  8
LAYER_1
 10
-40.7299
 20
25.8058
 11
-40.7299
 21
25.8058
 40
3.0923
 41
0.5
  1
G 3/8
  0
INSERT
  8
LAYER_2
  2
AIGNBL02010002
 10
0
 20
0
 30
0
  0
INSERT
  8
LAYER_2
  2
AIGNBL02010003
 10
0
 20
0
 30
0
  0
LINE
  8
LAYER_2
 10
-25.6358
 20
85.0157
 11
-25.6358
 21
124.0963
  0
LINE
  8
LAYER_2
 10
-21.6358
 20
85.0157
 11
-21.6358
 21
124.0963
  0
LINE
  8
LAYER_3
 10
-31.972
 20
144.4316
 11
-32.1093
 21
144.416
  0
ARC
  8
LAYER_3
 10
-32.0719
 20
144.7377
 40
0.3238
 50
219.1746432
 51
263.3604024
  0
ARC
  8
LAYER_3
 10
-32.0724
 20
144.7321
 40
0.3199
 50
173.7512626
 51
218.4564727
  0
LINE
  8
LAYER_3
 10
-32.3904
 20
144.7669
 11
-32.3904
 21
172.2983
  0
LINE
  8
LAYER_3
 10
-32.3904
 20
172.2983
 11
-18.8347
 21
172.2983
  0
LINE
  8
LAYER_3
 10
-18.8347
 20
172.2983
 11
-18.8347
 21
144.7669
  0
LINE
  8
LAYER_3
 10
-18.8347
 20
144.7669
 11
-18.8347
 21
144.6824
  0
ARC
  8
LAYER_3
 10
-19.1244
 20
144.7225
 40
0.2925
 50
306.7329609
 51
352.1145465
  0
ARC
  8
LAYER_3
 10
-19.1279
 20
144.7266
 40
0.2979
 50
262.0561799
 51
306.8007487
  0
INSERT
  8
LAYER_3
  2
AIGNBL03010002
 10
0
 20
0
 30
0
  0
LINE
  8
LAYER_3
 10
-31.7212
 20
172.9671
 11
-31.7212
 21
172.2983
  0
LINE
  8
LAYER_3
 10
-19.5035
 20
172.9671
 11
-19.5035
 21
172.2983
  0
LINE
  8
LAYER_3
 10
58.2152
 20
168.1777
 11
58.2152
 21
172.2983
  0
LINE
  8
LAYER_3
 10
58.2152
 20
172.2983
 11
71.5482
 21
172.2983
  0
LINE
  8
LAYER_3
 10
71.5482
 20
172.2983
 11
71.5482
 21
144.7665
  0
ARC
  8
LAYER_3
 10
71.1195
 20
144.87
 40
0.441
 50
315.8774247
 51
346.4253584
  0
ARC
  8
LAYER_3
 10
71.125
 20
144.8654
 40
0.4338
 50
270.680854
 51
315.8112363
  0
LINE
  8
LAYER_3
 10
71.1302
 20
144.4316
 11
58.5501
 21
144.4316
  0
LINE
  8
LAYER_3
 10
58.5501
 20
144.4316
 11
58.4669
 21
144.4316
  0
ARC
  8
LAYER_3
 10
58.5121
 20
144.7328
 40
0.3046
 50
217.7355561
 51
261.4716352
  0
ARC
  8
LAYER_3
 10
58.5102
 20
144.7244
 40
0.298
 50
171.8747083
 51
216.6750367
  0
LINE
  8
LAYER_3
 10
58.2152
 20
144.7665
 11
58.2152
 21
161.8444
  0
LINE
  8
LAYER_3
 10
58.7733
 20
172.9676
 11
58.7733
 21
172.2983
  0
LINE
  8
LAYER_3
 10
70.9065
 20
172.9676
 11
70.9065
 21
172.2983
  0
LINE
  8
LAYER_3
 10
-47.6554
 20
184.0971
 11
-33.4841
 21
184.0971
  0
LINE
  8
LAYER_3
 10
72.4003
 20
184.0971
 11
81.5518
 21
184.0971
  0
LINE
  8
LAYER_3
 10
72.5675
 20
144.0967
 11
90.1486
 21
144.0967
  0
LINE
  8
LAYER_3
 10
53.9371
 20
188.7634
 11
90.1486
 21
188.7634
  0
LINE
  8
LAYER_3
 10
26.8817
 20
132.7697
 11
26.8817
 21
199.4543
  0
LINE
  8
LAYER_3
 10
64.8817
 20
188.2334
 11
64.8817
 21
199.4543
  0
INSERT
  8
LAYER_3
  2
AIGNBL03010004
 10
0
 20
0
 30
0
  0
INSERT
  8
LAYER_3
  2
AIGNBL03010006
 10
0
 20
0
 30
0
  0
INSERT
  8
LAYER_3
  2
AIGNBL03010008
 10
0
 20
0
 30
0
  0
INSERT
  8
LAYER_3
  2
AIGNBL0301000A
 10
0
 20
0
 30
0
  0
INSERT
  8
LAYER_3
  2
AIGNBL0301000C
 10
0
 20
0
 30
0
  0
INSERT
  8
LAYER_3
  2
AIGNBL0301000E
 10
0
 20
0
 30
0
  0
INSERT
  8
LAYER_3
  2
AIGNBL03010010
 10
0
 20
0
 30
0
  0
LINE
  8
LAYER_3
 10
61.1109
 20
259.7026
 11
68.6529
 21
252.1593
  0
INSERT
  8
LAYER_3
  2
AIGNBL03010012
 10
0
 20
0
 30
0
  0
INSERT
  8
LAYER_3
  2
AIGNBL03010015
 10
0
 20
0
 30
0
  0
CIRCLE
  8
LAYER_3
 10
64.8817
 20
255.931
 40
5.3332
  0
LINE
  8
LAYER_3
  6
AIGENLINE022
 10
-25.5723
 20
264.8956
 11
-25.5723
 21
213.164
  0
LINE
  8
LAYER_3
  6
AIGENLINE022
 10
-36.1548
 20
255.931
 11
-15.3505
 21
255.931
  0
CIRCLE
  8
LAYER_3
 10
-25.5723
 20
255.931
 40
6.6667
  0
LINE
  8
LAYER_3
 10
-23.52
 20
262.2745
 11
-23.52
 21
249.5878
  0
LINE
  8
LAYER_3
 10
-27.7046
 20
262.2474
 11
-27.7046
 21
249.6149
  0
LINE
  8
LAYER_3
  6
AIGENLINE022
 10
-25.5723
 20
255.931
 11
-6.2238
 21
236.5829
  0
LINE
  8
LAYER_3
  6
AIGENLINE023
 10
-20.0813
 20
252.1519
 11
-6.9036
 21
238.9738
  0
LINE
  8
LAYER_3
  6
AIGENLINE023
 10
-21.7928
 20
250.4404
 11
-8.6151
 21
237.2622
  0
LINE
  8
LAYER_3
  6
AIGENLINE023
 10
-8.3735
 20
237.152
 11
-8.0625
 21
237.1217
  0
LINE
  8
LAYER_3
  6
AIGENLINE023
 10
-6.7924
 20
238.7285
 11
-6.7621
 21
238.4179
  0
ARC
  8
LAYER_3
  6
AIGENLINE023
 10
-7.2104
 20
238.6869
 40
0.42
 50
5.685775873
 51
43.08593296
  0
ARC
  8
LAYER_3
  6
AIGENLINE023
 10
-8.3388
 20
237.5473
 40
0.397
 50
225.8987958
 51
265.5234009
  0
LINE
  8
LAYER_3
 10
84.3022
 20
248.0794
 11
72.7333
 21
248.0794
  0
ARC
  8
LAYER_3
  6
AIGENLINE023
 10
-7.6351
 20
238.3919
 40
0.8727
 50
328.3014323
 51
2.194438546
  0
ARC
  8
LAYER_3
  6
AIGENLINE023
 10
-8.4502
 20
238.8155
 40
1.7902
 50
314.8590422
 51
330.4733996
  0
ARC
  8
LAYER_3
  6
AIGENLINE023
 10
-8.333
 20
238.6549
 40
1.5939
 50
290.8334536
 51
315.9464482
  0
ARC
  8
LAYER_3
  6
AIGENLINE023
 10
-8.0066
 20
237.7687
 40
0.6497
 50
264.8196034
 51
291.7248531
  0
LINE
  8
LAYER_3
  6
AIGENLINE022
 10
-25.5723
 20
255.931
 11
-44.9209
 21
236.5829
  0
LINE
  8
LAYER_3
  6
AIGENLINE023
 10
-31.0634
 20
252.1519
 11
-44.2411
 21
238.9738
  0
LINE
  8
LAYER_3
  6
AIGENLINE023
 10
-29.3519
 20
250.4404
 11
-42.5296
 21
237.2622
  0
LINE
  8
LAYER_3
  6
AIGENLINE023
 10
-42.7712
 20
237.152
 11
-43.0817
 21
237.1217
  0
LINE
  8
LAYER_3
  6
AIGENLINE023
 10
-44.3518
 20
238.7285
 11
-44.3821
 21
238.4179
  0
ARC
  8
LAYER_3
  6
AIGENLINE023
 10
-43.9374
 20
238.6891
 40
0.4163
 50
136.8518849
 51
174.5703117
  0
ARC
  8
LAYER_3
  6
AIGENLINE023
 10
-42.8057
 20
237.5469
 40
0.3966
 50
274.4560803
 51
314.1217231
  0
ARC
  8
LAYER_3
  6
AIGENLINE023
 10
-43.4933
 20
238.3953
 40
0.8889
 50
178.0634071
 51
212.4131835
  0
ARC
  8
LAYER_3
  6
AIGENLINE023
 10
-42.6817
 20
238.8249
 40
1.8058
 50
210.1157683
 51
225.0618407
  0
ARC
  8
LAYER_3
  6
AIGENLINE023
 10
-42.812
 20
238.6545
 40
1.5934
 50
224.0524348
 51
249.1768859
  0
ARC
  8
LAYER_3
  6
AIGENLINE023
 10
-43.1377
 20
237.77
 40
0.6509
 50
248.2963684
 51
275.175447
  0
INSERT
  8
LAYER_3
  2
AIGNBL03010018
 10
0
 20
0
 30
0
  0
ARC
  8
LAYER_3
 10
-25.5723
 20
165.011
 40
3.1667
 50
0.0006948186509
 51
89.99930517
  0
ARC
  8
LAYER_3
 10
-25.5724
 20
165.011
 40
3.1667
 50
89.99891376
 51
179.9992769
  0
ARC
  8
LAYER_3
 10
-23.5665
 20
154.4199
 40
1.161
 50
0.4775624786
 51
29.87362189
  0
ARC
  8
LAYER_3
 10
-24.1117
 20
154.0904
 40
1.7979
 50
30.32651977
 51
53.20843563
  0
ARC
  8
LAYER_3
 10
-24.9413
 20
152.9981
 40
3.1695
 50
53.02353113
 51
70.78209154
  0
ARC
  8
LAYER_3
 10
-25.5234
 20
151.38
 40
4.8891
 50
70.58327168
 51
90.57359066
  0
ARC
  8
LAYER_3
 10
-25.5881
 20
151.0719
 40
5.1969
 50
89.82602583
 51
103.5432951
  0
ARC
  8
LAYER_3
 10
-25.9229
 20
152.3884
 40
3.8386
 50
103.2858936
 51
119.474491
  0
ARC
  8
LAYER_3
 10
-26.7106
 20
153.7583
 40
2.2585
 50
119.1771383
 51
140.1022944
  0
ARC
  8
LAYER_3
 10
-27.4685
 20
154.3911
 40
1.2712
 50
140.0750051
 51
178.264669
  0
ARC
  8
LAYER_3
 10
-27.5791
 20
154.4393
 40
1.16
 50
180.4787609
 51
209.8772279
  0
ARC
  8
LAYER_3
 10
-27.0339
 20
154.7689
 40
1.797
 50
210.329569
 51
233.2119366
  0
ARC
  8
LAYER_3
 10
-26.2043
 20
155.8613
 40
3.1687
 50
233.0271009
 51
250.7868348
  0
ARC
  8
LAYER_3
 10
-25.6215
 20
157.4822
 40
4.8911
 50
250.5887357
 51
270.5764347
  0
ARC
  8
LAYER_3
 10
-25.5567
 20
157.7862
 40
5.1949
 50
269.8279425
 51
283.5452456
  0
ARC
  8
LAYER_3
 10
-25.223
 20
156.4747
 40
3.8418
 50
283.2874819
 51
299.4625214
  0
ARC
  8
LAYER_3
 10
-24.4348
 20
155.1034
 40
2.2602
 50
299.1634496
 51
320.0729854
  0
ARC
  8
LAYER_3
 10
-23.6748
 20
154.4683
 40
1.2698
 50
320.0403337
 51
358.2514086
  0
ARC
  8
LAYER_3
 10
-23.5665
 20
159.4489
 40
1.161
 50
0.4775624786
 51
29.87362189
  0
ARC
  8
LAYER_3
 10
-24.1117
 20
159.1194
 40
1.7979
 50
30.32651977
 51
53.20843563
  0
ARC
  8
LAYER_3
 10
-24.9413
 20
158.0271
 40
3.1695
 50
53.02353113
 51
70.78209154
  0
ARC
  8
LAYER_3
 10
-25.5234
 20
156.409
 40
4.8891
 50
70.58327168
 51
90.57359066
  0
ARC
  8
LAYER_3
 10
-25.5881
 20
156.1009
 40
5.1969
 50
89.82602583
 51
103.5432951
  0
ARC
  8
LAYER_3
 10
-25.9229
 20
157.4174
 40
3.8386
 50
103.2858936
 51
119.474491
  0
ARC
  8
LAYER_3
 10
-26.7106
 20
158.7873
 40
2.2585
 50
119.1771383
 51
140.1022944
  0
ARC
  8
LAYER_3
 10
-27.4685
 20
159.4201
 40
1.2712
 50
140.0750051
 51
178.264669
  0
LINE
  8
LAYER_3
 10
-28.7391
 20
154.4296
 11
-28.7391
 21
165.011
  0
LINE
  8
LAYER_3
 10
-22.4056
 20
154.4296
 11
-22.4056
 21
165.011
  0
LINE
  8
LAYER_3
 10
-28.7391
 20
217.8967
 11
-28.7391
 21
250.0628
  0
LINE
  8
LAYER_3
 10
-22.4056
 20
217.8967
 11
-22.4056
 21
250.0628
  0
ARC
  8
LAYER_3
 10
-24.5313
 20
221.3886
 40
2.1258
 50
316.4712636
 51
359.4666759
  0
ARC
  8
LAYER_3
 10
-25.1683
 20
221.9193
 40
2.9536
 50
298.9310852
 51
317.5173992
  0
ARC
  8
LAYER_3
 10
-25.5318
 20
222.5929
 40
3.719
 50
269.3758101
 51
298.8118966
  0
ARC
  8
LAYER_3
 10
-25.5846
 20
222.6781
 40
3.8041
 50
238.2409313
 51
270.1845361
  0
ARC
  8
LAYER_3
 10
-26.0678
 20
221.8111
 40
2.8128
 50
218.7763976
 51
237.3146555
  0
ARC
  8
LAYER_3
 10
-26.5688
 20
221.4094
 40
2.1706
 50
181.0706174
 51
218.7923308
  0
ARC
  8
LAYER_3
 10
-24.4213
 20
217.8994
 40
2.0157
 50
338.3321744
 51
359.9231044
  0
ARC
  8
LAYER_3
 10
-24.7119
 20
218.0271
 40
2.333
 50
317.566775
 51
338.0524372
  0
ARC
  8
LAYER_3
 10
-25.1691
 20
218.4486
 40
2.9548
 50
298.93581
 51
317.5152276
  0
ARC
  8
LAYER_3
 10
-25.532
 20
219.121
 40
3.7188
 50
269.378707
 51
298.8174409
  0
ARC
  8
LAYER_3
 10
-25.5845
 20
219.2058
 40
3.8035
 50
238.2337394
 51
270.1832847
  0
ARC
  8
LAYER_3
 10
-26.0671
 20
218.3404
 40
2.8139
 50
218.7802122
 51
237.3111496
  0
ARC
  8
LAYER_3
 10
-26.5695
 20
217.9376
 40
2.17
 50
181.079714
 51
218.7987446
  0
LINE
  8
LAYER_3
 10
-47.6554
 20
144.0963
 11
-34.0043
 21
144.0963
  0
INSERT
  8
LAYER_3
  2
AIGNBL03010019
 10
0
 20
0
 30
0
  0
LINE
  8
LAYER_3
 10
-39.8454
 20
134.0963
 11
-34.4173
 21
134.0963
  0
LINE
  8
LAYER_3
 10
-47.5484
 20
124.0963
 11
-31.6562
 21
124.0963
  0
LINE
  8
LAYER_3
 10
-20.3702
 20
34.2193
 11
-7.5972
 21
34.2193
  0
LINE
  8
LAYER_3
 10
-17.1852
 20
144.0967
 11
-7.9059
 21
144.0967
  0
LINE
  8
LAYER_3
 10
-8.6009
 20
34.2193
 11
-8.6009
 21
144.0788
  0
LINE
  8
LAYER_3
 10
-8.0087
 20
141.8673
 11
-8.6009
 21
144.0777
  0
LINE
  8
LAYER_3
 10
-8.6009
 20
144.0777
 11
-9.1933
 21
141.8673
  0
LINE
  8
LAYER_3
 10
-9.1933
 20
141.8673
 11
-8.0087
 21
141.8673
  0
LINE
  8
LAYER_3
 10
-9.1738
 20
36.4313
 11
-8.5816
 21
34.2202
  0
LINE
  8
LAYER_3
 10
-8.5816
 20
34.2202
 11
-7.9892
 21
36.4313
  0
LINE
  8
LAYER_3
 10
-7.9892
 20
36.4313
 11
-9.1738
 21
36.4313
  0
INSERT
  8
LAYER_3
  2
AIGNBL0301001C
 10
0
 20
0
 30
0
  0
LINE
  8
LAYER_3
 10
-31.8608
 20
144.4323
 11
-19.2839
 21
144.4323
  0
LINE
  8
LAYER_3
 10
-19.2839
 20
144.4323
 11
-18.695
 21
144.4323
  0
LINE
  8
LAYER_3
 10
-18.695
 20
144.4323
 11
-18.695
 21
144.0963
  0
LINE
  8
LAYER_3
 10
-18.695
 20
144.0963
 11
-32.5333
 21
144.0963
  0
LINE
  8
LAYER_3
 10
-32.5333
 20
144.0963
 11
-32.5333
 21
144.4323
  0
LINE
  8
LAYER_3
 10
-32.5333
 20
144.4323
 11
-31.8608
 21
144.4323
  0
LINE
  8
LAYER_3
 10
-31.0344
 20
144.0963
 11
-31.0344
 21
141.407
  0
LINE
  8
LAYER_3
 10
-31.0344
 20
141.407
 11
-31.4548
 21
144.0963
  0
LINE
  8
LAYER_3
 10
-31.0344
 20
141.407
 11
-20.1934
 21
141.407
  0
LINE
  8
LAYER_3
 10
-20.1934
 20
141.407
 11
-19.7736
 21
144.0963
  0
LINE
  8
LAYER_3
 10
-20.1934
 20
141.407
 11
-20.1934
 21
144.0963
  0
LINE
  8
LAYER_3
 10
-25.2361
 20
144.0963
 11
-25.2361
 21
142.1636
  0
ARC
  8
LAYER_3
 10
-25.5727
 20
142.1638
 40
0.3366
 50
314.9516851
 51
359.9590933
  0
ARC
  8
LAYER_3
 10
-25.5735
 20
142.166
 40
0.3387
 50
270.1997863
 51
314.7860813
  0
ARC
  8
LAYER_3
 10
-25.5716
 20
142.1652
 40
0.3379
 50
225.1575315
 51
269.8736564
  0
ARC
  8
LAYER_3
 10
-25.572
 20
142.1638
 40
0.3366
 50
180.0407124
 51
225.0485093
  0
LINE
  8
LAYER_3
 10
-25.9086
 20
142.1636
 11
-25.9086
 21
144.0963
  0
LINE
  8
LAYER_3
 10
-32.9058
 20
133.7628
 11
-32.9058
 21
134.0963
  0
LINE
  8
LAYER_3
 10
-32.9058
 20
134.0963
 11
-18.2389
 21
134.0963
  0
LINE
  8
LAYER_3
 10
-18.2389
 20
134.0963
 11
-18.2389
 21
133.7628
  0
LINE
  8
LAYER_3
 10
-18.2389
 20
133.7628
 11
-32.9058
 21
133.7628
  0
LINE
  8
LAYER_3
 10
-33.9058
 20
133.2628
 11
-33.9058
 21
133.7628
  0
LINE
  8
LAYER_3
 10
-33.9058
 20
133.7628
 11
-17.2389
 21
133.7628
  0
LINE
  8
LAYER_3
 10
-17.2389
 20
133.7628
 11
-17.2389
 21
133.2628
  0
LINE
  8
LAYER_3
 10
-17.2389
 20
133.2628
 11
-33.9058
 21
133.2628
  0
LINE
  8
LAYER_3
 10
-33.9058
 20
129.9296
 11
-33.9058
 21
131.5961
  0
LINE
  8
LAYER_3
 10
-33.9058
 20
131.5961
 11
-17.2389
 21
131.5961
  0
LINE
  8
LAYER_3
 10
-17.2389
 20
131.5961
 11
-17.2389
 21
129.9296
  0
LINE
  8
LAYER_3
 10
-17.2389
 20
129.9296
 11
-33.9058
 21
129.9296
  0
LINE
  8
LAYER_3
 10
-19.9724
 20
126.5961
 11
-19.9724
 21
128.2628
  0
LINE
  8
LAYER_3
 10
-19.9724
 20
128.2628
 11
-17.1723
 21
128.2628
  0
LINE
  8
LAYER_3
 10
-17.1723
 20
128.2628
 11
-17.1723
 21
126.5961
  0
LINE
  8
LAYER_3
 10
-17.1723
 20
126.5961
 11
-19.9724
 21
126.5961
  0
INSERT
  8
LAYER_3
  2
AIGNBL0301001D
 10
0
 20
0
 30
0
  0
LINE
  8
LAYER_3
 10
-17.7391
 20
131.5961
 11
-17.7391
 21
133.2628
  0
LINE
  8
LAYER_3
 10
-19.4057
 20
131.5961
 11
-19.4057
 21
133.2628
  0
LINE
  8
LAYER_3
 10
-17.7391
 20
128.2628
 11
-17.7391
 21
129.9296
  0
LINE
  8
LAYER_3
 10
-19.4057
 20
128.2628
 11
-19.4057
 21
129.9296
  0
LINE
  8
LAYER_3
 10
-33.9724
 20
126.5961
 11
-33.9724
 21
128.2628
  0
LINE
  8
LAYER_3
 10
-33.9724
 20
128.2628
 11
-31.1725
 21
128.2628
  0
LINE
  8
LAYER_3
 10
-31.1725
 20
128.2628
 11
-31.1725
 21
126.5961
  0
LINE
  8
LAYER_3
 10
-31.1725
 20
126.5961
 11
-33.9724
 21
126.5961
  0
INSERT
  8
LAYER_3
  2
AIGNBL0301001F
 10
0
 20
0
 30
0
  0
LINE
  8
LAYER_3
 10
-31.7391
 20
131.5961
 11
-31.7391
 21
133.2628
  0
LINE
  8
LAYER_3
 10
-33.4058
 20
131.5961
 11
-33.4058
 21
133.2628
  0
LINE
  8
LAYER_3
 10
-31.7391
 20
128.2628
 11
-31.7391
 21
129.9296
  0
LINE
  8
LAYER_3
 10
-33.4058
 20
128.2628
 11
-33.4058
 21
129.9296
  0
INSERT
  8
LAYER_3
  2
AIGNBL03010021
 10
0
 20
0
 30
0
  0
LINE
  8
LAYER_3
 10
-29.8204
 20
85.0157
 11
-29.8204
 21
124.0963
  0
LINE
  8
LAYER_3
 10
-25.8204
 20
85.0157
 11
-25.8204
 21
124.0963
  0
LINE
  8
LAYER_3
 10
-21.6358
 20
121.5341
 11
-23.2067
 21
119.9636
  0
LINE
  8
LAYER_3
 10
-24.0657
 20
119.9636
 11
-25.6358
 21
121.5341
  0
LINE
  8
LAYER_3
 10
-21.6358
 20
123.0022
 11
-24.6748
 21
119.9636
  0
LINE
  8
LAYER_3
 10
-22.5976
 20
119.9636
 11
-25.6358
 21
123.0022
  0
LINE
  8
LAYER_3
 10
-22.0097
 20
124.0963
 11
-25.6358
 21
120.4703
  0
LINE
  8
LAYER_3
 10
-21.6358
 20
120.4703
 11
-25.2618
 21
124.0963
  0
LINE
  8
LAYER_3
 10
-23.4777
 20
124.0963
 11
-25.6358
 21
121.9383
  0
LINE
  8
LAYER_3
 10
-21.6358
 20
121.9383
 11
-23.7938
 21
124.0963
  0
LINE
  8
LAYER_3
 10
-24.9458
 20
124.0963
 11
-25.6358
 21
123.4064
  0
LINE
  8
LAYER_3
 10
-21.6358
 20
123.4064
 11
-22.3257
 21
124.0963
  0
LINE
  8
LAYER_3
 10
-25.8204
 20
121.5341
 11
-27.3914
 21
119.9636
  0
LINE
  8
LAYER_3
 10
-28.2504
 20
119.9636
 11
-29.8204
 21
121.5341
  0
LINE
  8
LAYER_3
 10
-25.8204
 20
123.0022
 11
-28.8594
 21
119.9636
  0
LINE
  8
LAYER_3
 10
-26.7823
 20
119.9636
 11
-29.8204
 21
123.0022
  0
LINE
  8
LAYER_3
 10
-26.1943
 20
124.0963
 11
-29.8204
 21
120.4703
  0
LINE
  8
LAYER_3
 10
-25.8204
 20
120.4703
 11
-29.4465
 21
124.0963
  0
LINE
  8
LAYER_3
 10
-27.6624
 20
124.0963
 11
-29.8204
 21
121.9383
  0
LINE
  8
LAYER_3
 10
-25.8204
 20
121.9383
 11
-27.9784
 21
124.0963
  0
LINE
  8
LAYER_3
 10
-29.1305
 20
124.0963
 11
-29.8204
 21
123.4064
  0
LINE
  8
LAYER_3
 10
-25.8204
 20
123.4064
 11
-26.5103
 21
124.0963
  0
LINE
  8
LAYER_3
  6
AIGENLINE024
 10
64.8817
 20
118.2057
 11
64.8817
 21
134.5047
  0
INSERT
  8
LAYER_3
  2
AIGNBL03010023
 10
0
 20
0
 30
0
  0
LINE
  8
LAYER_3
  6
AIGENLINE024
 10
64.8817
 20
140.5644
 11
64.8817
 21
149.9307
  0
INSERT
  8
LAYER_3
  2
AIGNBL03010026
 10
0
 20
0
 30
0
  0
LINE
  8
LAYER_3
 10
58.5932
 20
144.4325
 11
71.1701
 21
144.4325
  0
LINE
  8
LAYER_3
 10
71.1701
 20
144.4325
 11
71.759
 21
144.4325
  0
LINE
  8
LAYER_3
 10
71.759
 20
144.4325
 11
71.759
 21
144.0967
  0
LINE
  8
LAYER_3
 10
71.759
 20
144.0967
 11
57.9208
 21
144.0967
  0
LINE
  8
LAYER_3
 10
57.9208
 20
144.0967
 11
57.9208
 21
144.4325
  0
LINE
  8
LAYER_3
 10
57.9208
 20
144.4325
 11
58.5932
 21
144.4325
  0
LINE
  8
LAYER_3
 10
59.4191
 20
144.0967
 11
59.4191
 21
141.4073
  0
LINE
  8
LAYER_3
 10
59.4191
 20
141.4073
 11
58.9993
 21
144.0967
  0
LINE
  8
LAYER_3
 10
59.4191
 20
141.4073
 11
70.2606
 21
141.4073
  0
LINE
  8
LAYER_3
 10
70.2606
 20
141.4073
 11
70.6805
 21
144.0967
  0
LINE
  8
LAYER_3
 10
70.2606
 20
141.4073
 11
70.2606
 21
144.0967
  0
LINE
  8
LAYER_3
 10
65.2179
 20
144.0967
 11
65.2179
 21
142.1638
  0
ARC
  8
LAYER_3
 10
64.8826
 20
142.164
 40
0.3353
 50
314.762639
 51
359.9668526
  0
ARC
  8
LAYER_3
 10
64.8809
 20
142.1644
 40
0.3368
 50
270.1347644
 51
314.919448
  0
ARC
  8
LAYER_3
 10
64.8813
 20
142.1637
 40
0.3361
 50
225.0369896
 51
270.0622977
  0
ARC
  8
LAYER_3
 10
64.8834
 20
142.1642
 40
0.3379
 50
180.0597503
 51
224.8409625
  0
LINE
  8
LAYER_3
 10
64.5455
 20
142.1638
 11
64.5455
 21
144.0967
  0
LINE
  8
LAYER_3
 10
57.5487
 20
133.7633
 11
57.5487
 21
134.0968
  0
LINE
  8
LAYER_3
 10
57.5487
 20
134.0968
 11
72.2147
 21
134.0968
  0
LINE
  8
LAYER_3
 10
72.2147
 20
134.0968
 11
72.2147
 21
133.7633
  0
LINE
  8
LAYER_3
 10
72.2147
 20
133.7633
 11
57.5487
 21
133.7633
  0
LINE
  8
LAYER_3
 10
56.5482
 20
133.2631
 11
56.5482
 21
133.7633
  0
LINE
  8
LAYER_3
 10
56.5482
 20
133.7633
 11
73.2151
 21
133.7633
  0
LINE
  8
LAYER_3
 10
73.2151
 20
133.7633
 11
73.2151
 21
133.2631
  0
LINE
  8
LAYER_3
 10
73.2151
 20
133.2631
 11
56.5482
 21
133.2631
  0
LINE
  8
LAYER_3
 10
56.5482
 20
129.9296
 11
56.5482
 21
131.5961
  0
LINE
  8
LAYER_3
 10
56.5482
 20
131.5961
 11
73.2151
 21
131.5961
  0
LINE
  8
LAYER_3
 10
73.2151
 20
131.5961
 11
73.2151
 21
129.9296
  0
LINE
  8
LAYER_3
 10
73.2151
 20
129.9296
 11
56.5482
 21
129.9296
  0
LINE
  8
LAYER_3
 10
63.4816
 20
126.5966
 11
63.4816
 21
128.2631
  0
LINE
  8
LAYER_3
 10
63.4816
 20
128.2631
 11
66.2818
 21
128.2631
  0
LINE
  8
LAYER_3
 10
66.2818
 20
128.2631
 11
66.2818
 21
126.5966
  0
LINE
  8
LAYER_3
 10
66.2818
 20
126.5966
 11
63.4816
 21
126.5966
  0
LINE
  8
LAYER_3
 10
65.7149
 20
131.5961
 11
65.7149
 21
133.2631
  0
LINE
  8
LAYER_3
 10
64.0484
 20
131.5961
 11
64.0484
 21
133.2631
  0
LINE
  8
LAYER_3
 10
65.7149
 20
128.2631
 11
65.7149
 21
129.9296
  0
LINE
  8
LAYER_3
 10
64.0484
 20
128.2631
 11
64.0484
 21
129.9296
  0
LINE
  8
LAYER_3
 10
-20.6146
 20
129.9301
 11
-20.6146
 21
124.4298
  0
LINE
  8
LAYER_3
 10
-20.6146
 20
124.4298
 11
-20.9504
 21
124.0963
  0
LINE
  8
LAYER_3
 10
-20.9504
 20
124.0963
 11
-30.2811
 21
124.0963
  0
LINE
  8
LAYER_3
 10
-30.2811
 20
124.0963
 11
-30.6142
 21
124.4298
  0
LINE
  8
LAYER_3
 10
-30.6142
 20
124.4298
 11
-20.6146
 21
124.4298
  0
LINE
  8
LAYER_3
 10
-30.6142
 20
124.4298
 11
-30.6142
 21
129.9301
  0
LINE
  8
LAYER_3
 10
-30.2811
 20
129.9301
 11
-30.2811
 21
124.0963
  0
LINE
  8
LAYER_3
 10
-30.6142
 20
131.5968
 11
-30.6142
 21
133.2633
  0
LINE
  8
LAYER_3
 10
-30.2811
 20
133.2633
 11
-30.2811
 21
131.5968
  0
LINE
  8
LAYER_3
 10
-20.6146
 20
131.5968
 11
-20.6146
 21
133.2633
  0
LINE
  8
LAYER_3
 10
-20.9481
 20
133.2633
 11
-20.9481
 21
131.5968
  0
LINE
  8
LAYER_3
 10
-30.6142
 20
134.0965
 11
-30.6142
 21
141.4075
  0
LINE
  8
LAYER_3
 10
-30.2811
 20
141.4075
 11
-30.2811
 21
134.0965
  0
LINE
  8
LAYER_3
 10
-20.6146
 20
134.0965
 11
-20.6146
 21
141.4075
  0
LINE
  8
LAYER_3
 10
-20.9481
 20
141.4075
 11
-20.9481
 21
134.0965
  0
LINE
  8
LAYER_3
 10
-20.9481
 20
129.9301
 11
-20.9481
 21
124.0963
  0
LINE
  8
LAYER_3
 10
69.839
 20
129.9305
 11
69.839
 21
124.4303
  0
LINE
  8
LAYER_3
 10
69.839
 20
124.4303
 11
69.5036
 21
124.0968
  0
LINE
  8
LAYER_3
 10
69.5036
 20
124.0968
 11
60.1725
 21
124.0968
  0
LINE
  8
LAYER_3
 10
60.1725
 20
124.0968
 11
59.8399
 21
124.4303
  0
LINE
  8
LAYER_3
 10
59.8399
 20
124.4303
 11
69.839
 21
124.4303
  0
LINE
  8
LAYER_3
 10
59.8399
 20
124.4303
 11
59.8399
 21
129.9305
  0
LINE
  8
LAYER_3
 10
60.1725
 20
129.9305
 11
60.1725
 21
124.0968
  0
LINE
  8
LAYER_3
 10
59.8399
 20
131.5972
 11
59.8399
 21
133.2638
  0
LINE
  8
LAYER_3
 10
60.1725
 20
133.2638
 11
60.1725
 21
131.5972
  0
LINE
  8
LAYER_3
 10
69.839
 20
131.5972
 11
69.839
 21
133.2638
  0
LINE
  8
LAYER_3
 10
69.5055
 20
133.2638
 11
69.5055
 21
131.5972
  0
LINE
  8
LAYER_3
 10
59.8399
 20
134.097
 11
59.8399
 21
141.4079
  0
LINE
  8
LAYER_3
 10
60.1725
 20
141.4079
 11
60.1725
 21
134.097
  0
LINE
  8
LAYER_3
 10
69.839
 20
134.097
 11
69.839
 21
141.4079
  0
LINE
  8
LAYER_3
 10
69.5055
 20
141.4079
 11
69.5055
 21
134.097
  0
LINE
  8
LAYER_3
 10
69.5055
 20
129.9305
 11
69.5055
 21
124.0968
  0
LINE
  8
LAYER_3
 10
13.954
 20
144.0967
 11
56.8946
 21
144.0967
  0
LINE
  8
LAYER_3
 10
25.0218
 20
154.43
 11
13.977
 21
154.43
  0
INSERT
  8
LAYER_3
  2
AIGNBL03010028
 10
0
 20
0
 30
0
  0
LINE
  8
LAYER_3
 10
46.9718
 20
152.6925
 11
30.8986
 21
152.6925
  0
INSERT
  8
LAYER_3
  2
AIGNBL0301002A
 10
0
 20
0
 30
0
  0
LINE
  8
LAYER_3
 10
25.4441
 20
152.393
 11
14.6708
 21
137.2911
  0
INSERT
  8
LAYER_3
  2
AIGNBL0301002C
 10
0
 20
0
 30
0
  0
ARC
  8
LAYER_3
 10
29.2066
 20
155.6717
 40
22.1215
 50
218.5172474
 51
249.9860064
  0
ARC
  8
LAYER_3
 10
29.0445
 20
155.4608
 40
21.8679
 50
250.1959869
 51
270.0608931
  0
ARC
  8
LAYER_3
 10
29.0724
 20
155.6972
 40
22.1043
 50
269.9877662
 51
279.5681301
  0
INSERT
  8
LAYER_3
  2
AIGNBL0301002D
 10
0
 20
0
 30
0
  0
INSERT
  8
LAYER_3
  2
AIGNBL0301002F
 10
0
 20
0
 30
0
  0
LINE
  8
LAYER_3
 10
-30.3198
 20
23.6285
 11
-30.3198
 21
33.1927
  0
LINE
  8
LAYER_3
 10
-25.3204
 20
23.6285
 11
-25.3204
 21
33.1927
  0
INSERT
  8
LAYER_3
  2
AIGNBL03010030
 10
0
 20
0
 30
0
  0
INSERT
  8
LAYER_3
  2
AIGNBL03010031
 10
0
 20
0
 30
0
  0
ARC
  8
LAYER_3
 10
-24.6499
 20
81.6548
 40
1.3702
 50
89.42380302
 51
116.6977098
  0
ARC
  8
LAYER_3
 10
-24.8893
 20
82.0882
 40
0.8756
 50
115.441125
 51
148.4622134
  0
ARC
  8
LAYER_3
 10
-24.6225
 20
81.6522
 40
1.3728
 50
63.32840856
 51
90.56776348
  0
ARC
  8
LAYER_3
 10
-24.382
 20
82.0875
 40
0.8761
 50
31.57559482
 51
64.60695956
  0
ARC
  8
LAYER_3
 10
-22.6499
 20
81.6546
 40
1.3704
 50
89.42277429
 51
116.6957511
  0
ARC
  8
LAYER_3
 10
-22.8898
 20
82.0888
 40
0.875
 50
115.4365384
 51
148.4782754
  0
ARC
  8
LAYER_3
 10
-22.6223
 20
81.6548
 40
1.3702
 50
63.3022902
 51
90.57619695
  0
ARC
  8
LAYER_3
 10
-22.3829
 20
82.0882
 40
0.8756
 50
31.53778656
 51
64.55887496
  0
ARC
  8
LAYER_3
 10
-22.6223
 20
83.4378
 40
1.3703
 50
269.4242499
 51
296.695571
  0
ARC
  8
LAYER_3
 10
-22.3829
 20
83.0044
 40
0.8758
 50
295.4386964
 51
328.4491928
  0
ARC
  8
LAYER_3
 10
-22.6499
 20
83.438
 40
1.3705
 50
243.3063875
 51
270.5767789
  0
ARC
  8
LAYER_3
 10
-22.8897
 20
83.0039
 40
0.8751
 50
211.5347441
 51
244.5658916
  0
LINE
  8
LAYER_3
 10
-25.6356
 20
45.008
 11
-25.6356
 21
82.5462
  0
LINE
  8
LAYER_3
 10
-21.6366
 20
45.008
 11
-21.6366
 21
82.5462
  0
LINE
  8
LAYER_3
 10
-23.6361
 20
38.2198
 11
-21.5401
 21
38.2198
  0
LINE
  8
LAYER_3
 10
-23.6361
 20
39.4221
 11
-22.9802
 21
39.4221
  0
LINE
  8
LAYER_3
 10
-22.4606
 20
39.4221
 11
-21.5401
 21
39.4221
  0
ARC
  8
LAYER_3
 10
-21.5628
 20
38.7987
 40
0.6238
 50
2.015181344
 51
87.91810145
  0
ARC
  8
LAYER_3
 10
-21.5401
 20
38.8206
 40
0.6008
 50
269.9994861
 51
0.0005139528891
  0
LINE
  8
LAYER_3
 10
-23.6361
 20
42.3911
 11
-22.9802
 21
42.3911
  0
LINE
  8
LAYER_3
 10
-22.4606
 20
42.3911
 11
-21.5401
 21
42.3911
  0
LINE
  8
LAYER_3
 10
-22.4606
 20
42.3911
 11
-22.4606
 21
39.4221
  0
LINE
  8
LAYER_3
 10
-22.9802
 20
42.3911
 11
-22.9802
 21
39.4221
  0
LINE
  8
LAYER_3
 10
-21.5401
 20
42.3911
 11
-21.1763
 21
42.7549
  0
LINE
  8
LAYER_3
 10
-21.5401
 20
42.3911
 11
-21.5401
 21
39.4221
  0
LINE
  8
LAYER_3
 10
-21.1763
 20
45.0073
 11
-23.6361
 21
45.0073
  0
LINE
  8
LAYER_3
 10
-21.1763
 20
45.0073
 11
-21.1763
 21
42.7549
  0
LINE
  8
LAYER_3
 10
-23.6361
 20
38.2198
 11
-25.0695
 21
38.2198
  0
LINE
  8
LAYER_3
 10
-23.6361
 20
39.4221
 11
-24.2907
 21
39.4221
  0
LINE
  8
LAYER_3
 10
-24.8116
 20
39.4221
 11
-25.7321
 21
39.4221
  0
LINE
  8
LAYER_3
 10
-23.6361
 20
42.3911
 11
-24.2907
 21
42.3911
  0
LINE
  8
LAYER_3
 10
-24.8116
 20
42.3911
 11
-25.7321
 21
42.3911
  0
LINE
  8
LAYER_3
 10
-24.8116
 20
42.3911
 11
-24.8116
 21
39.4221
  0
LINE
  8
LAYER_3
 10
-24.2907
 20
42.3911
 11
-24.2907
 21
39.4221
  0
LINE
  8
LAYER_3
 10
-25.7321
 20
42.3911
 11
-25.7321
 21
39.4221
  0
LINE
  8
LAYER_3
 10
-25.3603
 20
45.0073
 11
-23.6361
 21
45.0073
  0
LINE
  8
LAYER_3
 10
-21.5862
 20
38.2198
 11
-20.8855
 21
38.2198
  0
LINE
  8
LAYER_3
 10
-19.9692
 20
35.0634
 11
-19.9692
 21
37.3758
  0
LINE
  8
LAYER_3
 10
-21.8019
 20
35.0634
 11
-21.8019
 21
37.3758
  0
ARC
  8
LAYER_3
 10
-23.705
 20
35.0606
 40
3.1599
 50
88.75063729
 51
106.3154412
  0
ARC
  8
LAYER_3
 10
-22.9717
 20
36.8095
 40
1.2996
 50
25.83056818
 51
53.05613123
  0
ARC
  8
LAYER_3
 10
-23.2119
 20
36.4342
 40
1.7443
 50
54.15940742
 51
78.24727842
  0
ARC
  8
LAYER_3
 10
-23.6037
 20
34.6022
 40
3.6177
 50
78.08153089
 51
90.51242377
  0
ARC
  8
LAYER_3
 10
-20.5024
 20
37.112
 40
1.326
 50
140.6227408
 51
168.5238802
  0
ARC
  8
LAYER_3
 10
-20.9254
 20
37.4098
 40
0.811
 50
87.17913988
 51
137.927555
  0
ARC
  8
LAYER_3
 10
-21.267
 20
37.1122
 40
1.3243
 50
11.48289466
 51
39.42666114
  0
ARC
  8
LAYER_3
 10
-20.8464
 20
37.409
 40
0.8118
 50
42.10201661
 51
92.76299771
  0
LINE
  8
LAYER_3
 10
-25.0695
 20
34.2193
 11
-20.8855
 21
34.2193
  0
ARC
  8
LAYER_3
 10
-23.705
 20
37.3785
 40
3.1599
 50
253.6845588
 51
271.2493627
  0
ARC
  8
LAYER_3
 10
-22.9718
 20
35.6296
 40
1.2998
 50
306.947728
 51
334.1731961
  0
ARC
  8
LAYER_3
 10
-23.2119
 20
36.0047
 40
1.7442
 50
281.7537311
 51
305.8440901
  0
ARC
  8
LAYER_3
 10
-23.6037
 20
37.8366
 40
3.6174
 50
269.487454
 51
281.9192669
  0
ARC
  8
LAYER_3
 10
-20.5022
 20
35.3272
 40
1.3262
 50
191.4739186
 51
219.3735749
  0
ARC
  8
LAYER_3
 10
-20.9254
 20
35.0292
 40
0.8109
 50
222.0687429
 51
272.8209826
  0
ARC
  8
LAYER_3
 10
-21.2672
 20
35.327
 40
1.3245
 50
320.5770255
 51
348.519309
  0
ARC
  8
LAYER_3
 10
-20.8464
 20
35.0301
 40
0.8117
 50
267.2368819
 51
317.9016851
  0
LINE
  8
LAYER_3
 10
58.257
 20
183.8547
 11
58.313
 21
183.9912
  0
ARC
  8
LAYER_3
 10
58.5541
 20
183.8081
 40
0.3027
 50
98.62079826
 51
142.7799997
  0
LINE
  8
LAYER_3
 10
58.5087
 20
184.1074
 11
71.3378
 21
184.1074
  0
LINE
  8
LAYER_3
 10
71.3378
 20
184.1074
 11
71.4742
 21
184.0511
  0
ARC
  8
LAYER_3
 10
71.2908
 20
183.8107
 40
0.3024
 50
8.376057306
 51
52.67225388
  0
LINE
  8
LAYER_3
 10
71.59
 20
183.8547
 11
71.59
 21
172.9308
  0
LINE
  8
LAYER_3
 10
71.59
 20
172.9308
 11
58.257
 21
172.9308
  0
LINE
  8
LAYER_3
 10
58.257
 20
172.9308
 11
58.257
 21
181.1662
  0
ARC
  8
LAYER_3
 10
56.3125
 20
182.5108
 40
2.3641
 50
325.3362034
 51
10.27676211
  0
ARC
  8
LAYER_3
 10
56.3118
 20
182.5094
 40
2.3651
 50
10.3069502
 51
34.66691877
  0
LINE
  8
LAYER_3
 10
58.257
 20
183.8547
 11
49.8399
 21
183.8547
  0
ARC
  8
LAYER_3
 10
49.8845
 20
183.5532
 40
0.3048
 50
98.41638919
 51
142.4358649
  0
LINE
  8
LAYER_3
 10
49.6429
 20
183.739
 11
49.5873
 21
183.6033
  0
LINE
  8
LAYER_3
 10
49.5873
 20
183.6033
 11
49.5873
 21
181.4177
  0
ARC
  8
LAYER_3
 10
49.8798
 20
181.4593
 40
0.2954
 50
188.0890307
 51
233.2670014
  0
LINE
  8
LAYER_3
 10
49.7031
 20
181.2225
 11
49.8399
 21
181.1662
  0
LINE
  8
LAYER_3
 10
49.8399
 20
181.1662
 11
58.257
 21
181.1662
  0
LINE
  8
LAYER_3
  6
AIGENLINE023
 10
59.0834
 20
185.9804
 11
51.1454
 21
188.7792
  0
ARC
  8
LAYER_3
  6
AIGENLINE023
 10
51.0867
 20
188.4834
 40
0.3016
 50
78.77837242
 51
123.28069
  0
LINE
  8
LAYER_3
  6
AIGENLINE023
 10
50.9212
 20
188.7355
 11
50.8239
 21
188.626
  0
LINE
  8
LAYER_3
  6
AIGENLINE023
 10
50.8239
 20
188.626
 11
50.0967
 21
186.5647
  0
ARC
  8
LAYER_3
  6
AIGENLINE023
 10
50.3901
 20
186.5075
 40
0.2989
 50
168.9723449
 51
213.4887236
  0
LINE
  8
LAYER_3
  6
AIGENLINE023
 10
50.1408
 20
186.3426
 11
50.251
 21
186.2436
  0
LINE
  8
LAYER_3
  6
AIGENLINE023
 10
50.251
 20
186.2436
 11
58.189
 21
183.4448
  0
LINE
  8
LAYER_3
 10
-26.9166
 20
249.4002
 11
-26.9166
 21
240.889
  0
ARC
  8
LAYER_3
 10
-26.6167
 20
240.9334
 40
0.3032
 50
188.423048
 51
232.5819588
  0
LINE
  8
LAYER_3
 10
-26.8009
 20
240.6926
 11
-26.6649
 21
240.6368
  0
LINE
  8
LAYER_3
 10
-26.6649
 20
240.6368
 11
-24.4796
 21
240.6368
  0
ARC
  8
LAYER_3
 10
-24.5232
 20
240.9334
 40
0.2998
 50
278.3678455
 51
322.9109941
  0
LINE
  8
LAYER_3
 10
-24.2841
 20
240.7526
 11
-24.2278
 21
240.889
  0
LINE
  8
LAYER_3
 10
-24.2278
 20
240.889
 11
-24.2278
 21
249.4
  0
LINE
  8
LAYER_3
 10
-19.1994
 20
184.0971
 11
-19.1751
 21
184.1076
  0
ARC
  8
LAYER_3
 10
-19.1165
 20
183.924
 40
0.1927
 50
63.91921274
 51
107.699315
  0
ARC
  8
LAYER_3
 10
-19.12
 20
183.9238
 40
0.1945
 50
19.40479852
 51
63.01927451
  0
ARC
  8
LAYER_3
 10
-19.1246
 20
183.9308
 40
0.1966
 50
334.1089204
 51
17.04481814
  0
LINE
  8
LAYER_3
 10
-18.9477
 20
183.8449
 11
-18.9477
 21
172.9308
  0
LINE
  8
LAYER_3
 10
-18.9477
 20
172.9308
 11
-32.2811
 21
172.9308
  0
LINE
  8
LAYER_3
 10
-32.2811
 20
172.9308
 11
-32.2811
 21
183.8449
  0
LINE
  8
LAYER_3
 10
-32.2811
 20
183.8449
 11
-32.2912
 21
183.8697
  0
ARC
  8
LAYER_3
 10
-32.1122
 20
183.9292
 40
0.1887
 50
153.5617193
 51
198.3862301
  0
ARC
  8
LAYER_3
 10
-32.1102
 20
183.9261
 40
0.1918
 50
108.8896503
 51
153.0032412
  0
ARC
  8
LAYER_3
 10
-32.1138
 20
183.9256
 40
0.1912
 50
63.78582294
 51
107.8093277
  0
LINE
  8
LAYER_3
 10
-32.0294
 20
184.0971
 11
-19.1994
 21
184.0971
  0
ARC
  8
LAYER_3
 10
-25.5743
 20
182.4163
 40
1.1783
 50
0.02213816092
 51
44.95821789
  0
ARC
  8
LAYER_3
 10
-25.5723
 20
182.417
 40
1.1764
 50
45.00439415
 51
90.00064355
  0
ARC
  8
LAYER_3
 10
-25.5728
 20
182.4189
 40
1.1745
 50
89.97612225
 51
135.0334552
  0
ARC
  8
LAYER_3
 10
-25.5716
 20
182.4164
 40
1.1771
 50
134.9911446
 51
179.9814822
  0
ARC
  8
LAYER_3
 10
-25.573
 20
182.4163
 40
1.1757
 50
179.974603
 51
225.0381609
  0
ARC
  8
LAYER_3
 10
-25.5735
 20
182.4145
 40
1.1741
 50
224.9930536
 51
270.0561927
  0
ARC
  8
LAYER_3
 10
-25.5719
 20
182.4172
 40
1.1768
 50
269.9823064
 51
314.953847
  0
ARC
  8
LAYER_3
 10
-25.572
 20
182.416
 40
1.176
 50
314.9964439
 51
0.003723056737
  0
LINE
  8
LAYER_3
 10
-24.396
 20
182.4161
 11
-24.396
 21
182.4168
  0
LINE
  8
LAYER_3
 10
-27.6734
 20
184.0971
 11
-27.6734
 21
180.8201
  0
LINE
  8
LAYER_3
 10
-27.6734
 20
180.8201
 11
-23.5558
 21
180.8201
  0
LINE
  8
LAYER_3
 10
-23.5558
 20
180.8201
 11
-23.5558
 21
184.0971
  0
LINE
  8
LAYER_3
 10
33.0127
 20
157.6652
 11
29.5713
 21
152.7502
  0
INSERT
  8
LAYER_3
  2
AIGNBL03010032
 10
0
 20
0
 30
0
  0
ARC
  8
LAYER_3
 10
41.041
 20
152.0437
 40
16.134
 50
89.99993943
 51
144.999936
  0
LINE
  8
LAYER_3
 10
27.8248
 20
161.2978
 11
33.0127
 21
157.6652
  0
LINE
  8
LAYER_3
 10
58.2152
 20
161.8444
 11
41.041
 21
161.8444
  0
LINE
  8
LAYER_3
 10
58.2152
 20
168.1777
 11
41.041
 21
168.1777
  0
INSERT
  8
LAYER_3
  2
AIGNBL03010034
 10
0
 20
0
 30
0
  0
ARC
  8
LAYER_3
 10
52.3486
 20
165.011
 40
6.6666
 50
331.6407295
 51
28.35927053
  0
ARC
  8
LAYER_3
 10
41.0409
 20
152.0437
 40
9.8007
 50
89.99963443
 51
144.9995968
  0
LINE
  8
LAYER_3
 10
27.8248
 20
161.2978
 11
24.3833
 21
156.3829
  0
LINE
  8
LAYER_3
 10
24.4242
 20
156.1508
 11
26.8817
 21
154.43
  0
LINE
  8
LAYER_3
 10
26.8817
 20
154.43
 11
29.3391
 21
152.7093
  0
ARC
  8
LAYER_3
 10
29.4348
 20
152.8458
 40
0.1667
 50
234.9892846
 51
324.9900742
  0
ARC
  8
LAYER_3
 10
24.5198
 20
156.2873
 40
0.1667
 50
144.9986182
 51
234.9891752
  0
INSERT
  8
LAYER_3
  2
AIGNBL03010036
 10
0
 20
0
 30
0
  0
INSERT
  8
LAYER_3
  2
AIGNBL03010038
 10
0
 20
0
 30
0
  0
LINE
  8
LAYER_4
 10
126.9566
 20
57.1559
 11
293.4567
 21
57.1559
  0
LINE
  8
LAYER_4
 10
213.4567
 20
37.1557
 11
293.4567
 21
37.1557
  0
LINE
  8
LAYER_4
 10
126.9566
 20
44.6564
 11
213.4567
 21
44.6564
  0
LINE
  8
LAYER_4
 10
126.9566
 20
30.6562
 11
213.4567
 21
30.6562
  0
LINE
  8
LAYER_4
 10
138.4563
 20
30.6562
 11
138.4563
 21
44.6564
  0
LINE
  8
LAYER_4
 10
213.4567
 20
17.1562
 11
213.4567
 21
57.1559
  0
LINE
  8
LAYER_4
 10
126.9566
 20
17.1562
 11
126.9566
 21
57.1559
  0
LINE
  8
LAYER_4
 10
194.4563
 20
30.6562
 11
194.4563
 21
57.1559
  0
LINE
  8
LAYER_4
 10
175.4566
 20
30.6562
 11
175.4566
 21
57.1559
  0
LINE
  8
LAYER_4
 10
293.4567
 20
17.1562
 11
-83.0433
 21
17.1562
  0
LINE
  8
LAYER_4
 10
-83.0433
 20
17.1562
 11
-83.0433
 21
280.1562
  0
LINE
  8
LAYER_4
 10
-83.0433
 20
280.1562
 11
293.4567
 21
280.1562
  0
LINE
  8
LAYER_4
 10
293.4567
 20
280.1562
 11
293.4567
 21
17.1562
  0
TEXT
  8
LAYER_4
 10
153.4949
 20
49.1839
 11
153.4949
 21
49.1839
 40
4.4979
 41
0.5
 72
1
  1
セラトレーディング株式会社
  0
TEXT
  8
LAYER_4
 10
127.9281
 20
40.658
 11
127.9281
 21
40.658
 40
3.0923
 41
0.5
  1
製図
  0
TEXT
  8
LAYER_4
 10
127.9281
 20
26.4587
 11
127.9281
 21
26.4587
 40
3.0923
 41
0.5
  1
備考
  0
TEXT
  8
LAYER_4
 10
139.5463
 20
40.658
 11
139.5463
 21
40.658
 40
3.0923
 41
0.5
  1
検図
  0
TEXT
  8
LAYER_4
 10
176.4998
 20
40.658
 11
176.4998
 21
40.658
 40
3.0923
 41
0.5
  1
日付
  0
TEXT
  8
LAYER_4
 10
253.4564
 20
20.3547
 11
253.4564
 21
20.3547
 40
3.9357
 41
0.5
 72
1
  1
VLHV1CDY
  0
TEXT
  8
LAYER_4
 10
195.5498
 20
40.658
 11
195.5498
 21
40.658
 40
3.0923
 41
0.5
  1
尺度
  0
TEXT
  8
LAYER_4
 10
195.5498
 20
53.0652
 11
195.5498
 21
53.0652
 40
3.0923
 41
0.5
  1
単位
  0
TEXT
  8
LAYER_4
 10
203.2744
 20
48.0691
 11
203.2744
 21
48.0691
 40
3.6546
 41
0.5
 72
1
  1
mm
  0
TEXT
  8
LAYER_4
 10
214.5116
 20
53.0652
 11
214.5116
 21
53.0652
 40
3.0923
 41
0.5
  1
名称
  0
TEXT
  8
LAYER_4
 10
214.5116
 20
32.9265
 11
214.5116
 21
32.9265
 40
3.0923
 41
0.5
  1
品番
  0
LINE
  8
LAYER_4
 10
213.4567
 20
27.156
 11
293.4567
 21
27.156
  0
TEXT
  8
LAYER_4
 10
214.5116
 20
22.9268
 11
214.5116
 21
22.9268
 40
3.0923
 41
0.5
  1
図番
  0
INSERT
  8
LAYER_4
  2
AIGNBL04010002
 10
0
 20
0
 30
0
  0
LINE
  8
LAYER_4
 10
-83.0433
 20
148.6576
 11
-104.7936
 21
148.6576
  0
LINE
  8
LAYER_4
 10
105.2067
 20
297.1763
 11
105.2067
 21
280.1562
  0
LINE
  8
LAYER_4
 10
105.2067
 20
17.1562
 11
105.2067
 21
0.176
  0
LINE
  8
LAYER_4
 10
315.2069
 20
148.6576
 11
293.4567
 21
148.6576
  0
TEXT
  8
LAYER_4
 10
134.4938
 20
21.9546
 11
134.4938
 21
21.9546
 40
3.9357
 41
0.5
  1
（社）日本水道協会認証品
  0
TEXT
  8
LAYER_4
 10
293.4567
 20
12.8082
 11
293.4567
 21
12.8082
 40
3.3734
 41
0.5
 72
2
  1
A3
  0
TEXT
  8
LAYER_4
 10
177.6925
 20
34.4651
 11
177.6925
 21
34.4651
 40
3.6546
 41
0.5
  1
23.10.23
  0
TEXT
  8
LAYER_4
 10
132.6465
 20
34.8502
 11
132.6465
 21
34.8502
 40
3.6546
 41
0.5
 72
1
  1
木場
  0
TEXT
  8
LAYER_4
 10
151.2204
 20
34.8502
 11
151.2204
 21
34.8502
 40
3.6546
 41
0.5
 72
1
  1
井田
  0
TEXT
  8
LAYER_4
 10
253.4564
 20
30.3551
 11
253.4564
 21
30.3551
 40
3.9357
 41
0.5
 72
1
  1
VLHV1CDY
  0
TEXT
  8
LAYER_4
 10
203.8663
 20
34.4651
 11
203.8663
 21
34.4651
 40
3.6546
 41
0.5
 72
1
  1
1 ： 3
  0
TEXT
  8
LAYER_4
 10
219.0853
 20
45.4728
 11
219.0853
 21
45.4728
 40
3.9357
 41
0.5
  1
ボラ　湯水混合栓
  0
TEXT
  8
LAYER_4
 10
295.9592
 20
270.0405
 11
295.9592
 21
270.0405
 40
4.2168
 41
0.5
 72
2
  1
（注）：色番号はカタログを参照ください。
  0
LINE
  8
LAYER_4
 10
126.9566
 20
75.6829
 11
290.1597
 21
75.6829
  0
LINE
  8
LAYER_4
 10
126.9566
 20
89.2569
 11
290.1597
 21
89.2569
  0
TEXT
  8
LAYER_4
 10
169.5094
 20
70.0405
 11
169.5094
 21
70.0405
 40
3.9357
 41
0.5
  1
（1）水圧は湯水ほぼ同圧、且つ湯圧が水圧より高くならないように設定してください。
  0
TEXT
  8
LAYER_4
 10
169.5094
 20
64.0433
 11
169.5094
 21
64.0433
 40
3.9357
 41
0.5
  1
（2）湯水を逆に配管しないでください。
  0
TEXT
  8
LAYER_4
 10
169.5094
 20
83.743
 11
169.5094
 21
83.743
 40
3.9357
 41
0.5
  1
65℃
  0
TEXT
  8
LAYER_4
 10
169.5094
 20
77.7458
 11
169.5094
 21
77.7458
 40
3.9357
 41
0.5
  1
※安全のため給湯温度は60℃以下でのご使用をおすすめします。
  0
LINE
  8
LAYER_4
 10
126.9566
 20
102.8309
 11
290.1597
 21
102.8309
  0
TEXT
  8
LAYER_4
 10
169.5094
 20
97.3171
 11
169.5094
 21
97.3171
 40
3.9357
 41
0.5
  1
1～40℃
  0
TEXT
  8
LAYER_4
 10
169.5094
 20
91.3198
 11
169.5094
 21
91.3198
 40
3.9357
 41
0.5
  1
※寒冷地仕様ではありません、凍結が予想される場合は凍結予防をしてください。
  0
TEXT
  8
LAYER_4
 10
129.4953
 20
70.0405
 11
129.4953
 21
70.0405
 40
3.9357
 41
0.5
  1
特記事項
  0
TEXT
  8
LAYER_4
 10
129.4953
 20
83.743
 11
129.4953
 21
83.743
 40
3.9357
 41
0.5
  1
最高給湯温度
  0
TEXT
  8
LAYER_4
 10
129.4953
 20
97.3171
 11
129.4953
 21
97.3171
 40
3.9357
 41
0.5
  1
使用環境温度
  0
LINE
  8
LAYER_4
 10
145.6397
 20
118.3559
 11
290.1597
 21
118.3559
  0
LINE
  8
LAYER_4
 10
126.9566
 20
110.5934
 11
290.1597
 21
110.5934
  0
TEXT
  8
LAYER_4
 10
169.5094
 20
104.939
 11
169.5094
 21
104.939
 40
3.9357
 41
0.5
  1
水道水
  0
TEXT
  8
LAYER_4
 10
129.4953
 20
104.939
 11
129.4953
 21
104.939
 40
3.9357
 41
0.5
  1
使用可能水質
  0
LINE
  8
LAYER_4
 10
126.9566
 20
126.1184
 11
290.1597
 21
126.1184
  0
TEXT
  8
LAYER_4
 10
169.5094
 20
120.464
 11
169.5094
 21
120.464
 40
3.9357
 41
0.5
  1
0.1MPa（流動圧）
  0
TEXT
  8
LAYER_4
 10
147.4139
 20
120.464
 11
147.4139
 21
120.464
 40
3.9357
 41
0.5
  1
最低必要水圧
  0
TEXT
  8
LAYER_4
 10
169.5094
 20
112.7015
 11
169.5094
 21
112.7015
 40
3.9357
 41
0.5
  1
0.5MPa（静水圧）
  0
TEXT
  8
LAYER_4
 10
147.4139
 20
112.7015
 11
147.4139
 21
112.7015
 40
3.9357
 41
0.5
  1
最高水圧
  0
LINE
  8
LAYER_4
 10
290.1597
 20
133.8809
 11
126.9566
 21
133.8809
  0
LINE
  8
LAYER_4
 10
126.9566
 20
133.8809
 11
126.9566
 21
61.9804
  0
LINE
  8
LAYER_4
 10
126.9566
 20
61.9804
 11
290.1597
 21
61.9804
  0
LINE
  8
LAYER_4
 10
290.1597
 20
61.9804
 11
290.1597
 21
133.8809
  0
LINE
  8
LAYER_4
 10
166.9707
 20
133.8809
 11
166.9707
 21
61.9804
  0
LINE
  8
LAYER_4
 10
145.6397
 20
126.1184
 11
145.6397
 21
110.5934
  0
TEXT
  8
LAYER_4
 10
169.5094
 20
128.2265
 11
169.5094
 21
128.2265
 40
3.9357
 41
0.5
  1
一般住宅用（屋内用）
  0
TEXT
  8
LAYER_4
 10
129.4953
 20
128.2265
 11
129.4953
 21
128.2265
 40
3.9357
 41
0.5
  1
用途
  0
TEXT
  8
LAYER_4
 10
129.4953
 20
120.464
 11
129.4953
 21
120.464
 40
3.9357
 41
0.5
  1
給水圧力
  0
ENDSEC
  0
EOF
