  0
SECTION
  2
HEADER
  9
$ACADVER
  1
AC1009
  9
$INSBASE
 10
0.0
 20
0.0
 30
0.0
  9
$EXTMIN
 10
0.238058
 20
0.4482100000000001
 30
0.0
  9
$EXTMAX
 10
210.24000000000001
 20
297.44999999999999
 30
0.0
  9
$LIMMIN
 10
0.0
 20
0.0
  9
$LIMMAX
 10
12.0
 20
9.0
  9
$ORTHOMODE
 70
     0
  9
$REGENMODE
 70
     1
  9
$FILLMODE
 70
     1
  9
$QTEXTMODE
 70
     0
  9
$MIRRTEXT
 70
     1
  9
$DRAGMODE
 70
     2
  9
$LTSCALE
 40
1.0
  9
$OSMODE
 70
    37
  9
$ATTMODE
 70
     1
  9
$TEXTSIZE
 40
0.0
  9
$TRACEWID
 40
0.05
  9
$TEXTSTYLE
  7
STANDARD
  9
$CLAYER
  8
0
  9
$CELTYPE
  6
CONTINUOUS
  9
$CECOLOR
 62
   256
  9
$DIMSCALE
 40
1.0
  9
$DIMASZ
 40
0.18
  9
$DIMEXO
 40
0.0625
  9
$DIMDLI
 40
0.38
  9
$DIMRND
 40
0.0
  9
$DIMDLE
 40
0.0
  9
$DIMEXE
 40
0.18
  9
$DIMTP
 40
0.0
  9
$DIMTM
 40
0.0
  9
$DIMTXT
 40
0.18
  9
$DIMCEN
 40
0.09
  9
$DIMTSZ
 40
0.0
  9
$DIMTOL
 70
     0
  9
$DIMLIM
 70
     0
  9
$DIMTIH
 70
     1
  9
$DIMTOH
 70
     1
  9
$DIMSE1
 70
     0
  9
$DIMSE2
 70
     0
  9
$DIMTAD
 70
     0
  9
$DIMZIN
 70
     0
  9
$DIMBLK
  1

  9
$DIMASO
 70
     1
  9
$DIMSHO
 70
     1
  9
$DIMPOST
  1

  9
$DIMAPOST
  1

  9
$DIMALT
 70
     0
  9
$DIMALTD
 70
     2
  9
$DIMALTF
 40
25.399999999999999
  9
$DIMLFAC
 40
1.0
  9
$DIMTOFL
 70
     0
  9
$DIMTVP
 40
0.0
  9
$DIMTIX
 70
     0
  9
$DIMSOXD
 70
     0
  9
$DIMSAH
 70
     0
  9
$DIMBLK1
  1

  9
$DIMBLK2
  1

  9
$DIMSTYLE
  2
STANDARD
  9
$DIMCLRD
 70
     0
  9
$DIMCLRE
 70
     0
  9
$DIMCLRT
 70
     0
  9
$DIMTFAC
 40
1.0
  9
$DIMGAP
 40
0.09
  9
$LUNITS
 70
     2
  9
$LUPREC
 70
     4
  9
$SKETCHINC
 40
0.1
  9
$FILLETRAD
 40
0.0
  9
$AUNITS
 70
     0
  9
$AUPREC
 70
     0
  9
$MENU
  1
.
  9
$ELEVATION
 40
0.0
  9
$PELEVATION
 40
0.0
  9
$THICKNESS
 40
0.0
  9
$LIMCHECK
 70
     0
  9
$BLIPMODE
 70
     0
  9
$CHAMFERA
 40
0.0
  9
$CHAMFERB
 40
0.0
  9
$SKPOLY
 70
     0
  9
$TDCREATE
 40
2444972.375
  9
$TDUPDATE
 40
2457479.274564398
  9
$TDINDWG
 40
0.0000334954
  9
$TDUSRTIMER
 40
0.0000334954
  9
$USRTIMER
 70
     1
  9
$ANGBASE
 50
0.0
  9
$ANGDIR
 70
     0
  9
$PDMODE
 70
     0
  9
$PDSIZE
 40
0.0
  9
$PLINEWID
 40
0.0
  9
$COORDS
 70
     1
  9
$SPLFRAME
 70
     0
  9
$SPLINETYPE
 70
     6
  9
$SPLINESEGS
 70
     8
  9
$ATTDIA
 70
     1
  9
$ATTREQ
 70
     1
  9
$HANDLING
 70
     1
  9
$HANDSEED
  5
89D
  9
$SURFTAB1
 70
     6
  9
$SURFTAB2
 70
     6
  9
$SURFTYPE
 70
     6
  9
$SURFU
 70
     6
  9
$SURFV
 70
     6
  9
$UCSNAME
  2

  9
$UCSORG
 10
0.0
 20
0.0
 30
0.0
  9
$UCSXDIR
 10
1.0
 20
0.0
 30
0.0
  9
$UCSYDIR
 10
0.0
 20
1.0
 30
0.0
  9
$PUCSNAME
  2

  9
$PUCSORG
 10
0.0
 20
0.0
 30
0.0
  9
$PUCSXDIR
 10
1.0
 20
0.0
 30
0.0
  9
$PUCSYDIR
 10
0.0
 20
1.0
 30
0.0
  9
$USERI1
 70
     0
  9
$USERI2
 70
     0
  9
$USERI3
 70
     0
  9
$USERI4
 70
     0
  9
$USERI5
 70
     0
  9
$USERR1
 40
0.0
  9
$USERR2
 40
0.0
  9
$USERR3
 40
0.0
  9
$USERR4
 40
0.0
  9
$USERR5
 40
0.0
  9
$WORLDVIEW
 70
     1
  9
$SHADEDGE
 70
     3
  9
$SHADEDIF
 70
    70
  9
$TILEMODE
 70
     1
  9
$MAXACTVP
 70
    48
  9
$PLIMCHECK
 70
     0
  9
$PEXTMIN
 10
1.0000000000000000E+020
 20
1.0000000000000000E+020
 30
1.0000000000000000E+020
  9
$PEXTMAX
 10
-1.0000000000000000E+020
 20
-1.0000000000000000E+020
 30
-1.0000000000000000E+020
  9
$PLIMMIN
 10
0.0
 20
0.0
  9
$PLIMMAX
 10
12.0
 20
9.0
  9
$UNITMODE
 70
     0
  9
$VISRETAIN
 70
     1
  9
$PLINEGEN
 70
     0
  9
$PSLTSCALE
 70
     1
  0
ENDSEC
  0
SECTION
  2
TABLES
  0
TABLE
  2
VPORT
 70
     1
  0
VPORT
  2
*ACTIVE
 70
     0
 10
0.0
 20
0.0
 11
1.0
 21
1.0
 12
177.98836336455309
 22
148.72499999999991
 13
0.0
 23
0.0
 14
1.0
 24
1.0
 15
0.0
 25
0.0
 16
0.0
 26
0.0
 36
1.0
 17
0.0
 27
0.0
 37
0.0
 40
290.07819117582369
 41
2.1063583815028899
 42
50.0
 43
0.0
 44
0.0
 50
0.0
 51
0.0
 71
     0
 72
   100
 73
     1
 74
     1
 75
     0
 76
     0
 77
     0
 78
     0
  0
ENDTAB
  0
TABLE
  2
LTYPE
 70
     2
  0
LTYPE
  2
CONTINUOUS
 70
     0
  3
Solid line
 72
    65
 73
     0
 40
0.0
  0
LTYPE
  2
AIGENLINE001
 70
     0
  3
generate AI->DXF Converter
 72
    65
 73
     4
 40
5.8561449999999988
 49
3.5278
 49
-0.776115
 49
0.776115
 49
-0.776115
  0
ENDTAB
  0
TABLE
  2
LAYER
 70
     2
  0
LAYER
  2
0
 70
     0
 62
     7
  6
CONTINUOUS
  0
LAYER
  2
_________2
 70
     0
 62
     7
  6
CONTINUOUS
  0
ENDTAB
  0
TABLE
  2
STYLE
 70
     1
  0
STYLE
  2
STANDARD
 70
     0
 40
0.0
 41
0.0
 50
0.0
 71
     0
 42
0.0
  3
TXT
  4
EXTFONT.SHX
  0
ENDTAB
  0
TABLE
  2
VIEW
 70
     0
  0
ENDTAB
  0
TABLE
  2
UCS
 70
     0
  0
ENDTAB
  0
TABLE
  2
APPID
 70
     3
  0
APPID
  2
ACAD
 70
     0
  0
APPID
  2
ACAD_NAV_VCDISPLAY
 70
     0
  0
APPID
  2
ACAD_MLEADERVER
 70
     0
  0
ENDTAB
  0
TABLE
  2
DIMSTYLE
 70
     1
  0
DIMSTYLE
  2
STANDARD
 70
     0
  3

  4

  5

  6

  7

 40
1.0
 41
0.18
 42
0.0625
 43
0.38
 44
0.18
 45
0.0
 46
0.0
 47
0.0
 48
0.0
140
0.18
141
0.09
142
0.0
143
25.399999999999999
144
1.0
145
0.0
146
1.0
147
0.09
 71
     0
 72
     0
 73
     1
 74
     1
 75
     0
 76
     0
 77
     0
 78
     0
170
     0
171
     2
172
     0
173
     0
174
     0
175
     0
176
     0
177
     0
178
     0
  0
ENDTAB
  0
ENDSEC
  0
SECTION
  2
BLOCKS
  0
BLOCK
  8
0
  2
$MODEL_SPACE
 70
     0
 10
0.0
 20
0.0
 30
0.0
  3
$MODEL_SPACE
  1

  0
ENDBLK
  5
1A
  8
0
  0
BLOCK
 67
     1
  8
0
  2
$PAPER_SPACE
 70
     0
 10
0.0
 20
0.0
 30
0.0
  3
$PAPER_SPACE
  1

  0
ENDBLK
  5
17
 67
     1
  8
0
  0
ENDSEC
  0
SECTION
  2
ENTITIES
  0
TEXT
  5
22
  8
0
 62
     7
 10
75.336782499999998
 20
138.10599999999999
 30
0.0
 40
3.0923400000000001
  1
180
 41
0.5
 72
     1
 11
77.011799999999994
 21
138.10599999999999
 31
0.0
  0
TEXT
  5
23
  8
0
 62
     7
 10
58.889654
 20
231.267
 30
0.0
 40
3.0923400000000001
  1
湯
 41
0.5
 72
     1
 11
59.611199999999997
 21
231.267
 31
0.0
  0
TEXT
  5
24
  8
0
 62
     7
 10
85.667153999999996
 20
237.98500000000001
 30
0.0
 40
3.0923400000000001
  1
水
 41
0.5
 72
     1
 11
86.3887
 21
237.98500000000001
 31
0.0
  0
TEXT
  5
25
  8
0
 62
     7
 10
75.433282500000004
 20
273.56700000000001
 30
0.0
 40
3.0923400000000001
  1
160
 41
0.5
 72
     1
 11
77.1083
 21
273.56700000000001
 31
0.0
  0
TEXT
  5
26
  8
0
 62
     7
 10
134.29400000000001
 20
176.11842250000001
 30
0.0
 40
3.0923400000000001
  1
max.50
 50
90.0
 41
0.5
 72
     1
 11
134.29400000000001
 21
179.85499999999999
 31
0.0
  0
TEXT
  5
27
  8
0
 62
     7
 10
154.71243999999999
 20
142.54400000000001
 30
0.0
 40
3.0923400000000001
  1
16
 41
0.5
 72
     2
 11
156.774
 21
142.54400000000001
 31
0.0
  0
TEXT
  5
28
  8
0
 62
     7
 10
153.305575
 20
178.72900000000001
 30
0.0
 40
3.0923400000000001
  1
%%c30
 41
0.5
 72
     2
 11
157.17099999999999
 21
178.72900000000001
 31
0.0
  0
TEXT
  5
29
  8
0
 62
     7
 10
114.459135
 20
187.977
 30
0.0
 40
3.0923400000000001
  1
35%%d
 41
0.5
 72
     1
 11
116.26300000000001
 21
187.977
 31
0.0
  0
TEXT
  5
2A
  8
0
 62
     7
 10
131.0499825
 20
216.066
 30
0.0
 40
3.0923400000000001
  1
106
 41
0.5
 72
     1
 11
132.72499999999999
 21
216.066
 31
0.0
  0
TEXT
  5
2B
  8
0
 62
     7
 10
143.9052874999999
 20
227.54900000000001
 30
0.0
 40
3.0923400000000001
  1
%%c40
 41
0.5
 72
     1
 11
145.83799999999999
 21
227.54900000000001
 31
0.0
  0
TEXT
  5
2C
  8
0
 62
     7
 10
162.77000000000001
 20
133.14852500000001
 30
0.0
 40
3.0923400000000001
  1
45
 50
90.0
 41
0.5
 72
     1
 11
162.77000000000001
 21
134.43700000000001
 31
0.0
  0
TEXT
  5
2D
  8
0
 62
     7
 10
164.119
 20
175.63937250000001
 30
0.0
 40
3.0923400000000001
  1
60
 50
90.0
 41
0.5
 72
     1
 11
164.119
 21
176.79900000000001
 31
0.0
  0
TEXT
  5
2E
  8
0
 62
     7
 10
127.985
 20
190.10252500000001
 30
0.0
 40
3.0923400000000001
  1
57
 50
90.0
 41
0.5
 72
     1
 11
127.985
 21
191.39099999999999
 31
0.0
  0
TEXT
  5
2F
  8
0
 62
     7
 10
107.398
 20
190.433525
 30
0.0
 40
3.0923400000000001
  1
62
 50
90.0
 41
0.5
 72
     1
 11
107.398
 21
191.72200000000001
 31
0.0
  0
TEXT
  5
30
  8
0
 62
     7
 10
164.119
 20
200.62498249999999
 30
0.0
 40
3.0923400000000001
  1
150
 50
90.0
 41
0.5
 72
     1
 11
164.119
 21
202.30000000000001
 31
0.0
  0
TEXT
  5
31
  8
0
 62
     7
 10
77.776600000000002
 20
69.900099999999995
 30
0.0
 40
3.0923400000000001
  1
G1/2
 41
0.5
 72
     2
 11
82.930499999999995
 21
69.900099999999995
 31
0.0
  0
TEXT
  5
32
  8
0
 62
     7
 10
86.759196000000003
 20
92.748099999999994
 30
0.0
 40
3.0923400000000001
  1
L＝500
 41
0.5
 72
     2
 11
93.768500000000003
 21
92.748099999999994
 31
0.0
  0
TEXT
  5
33
  8
0
 62
     7
 10
163.68474000000001
 20
115.565
 30
0.0
 40
3.0923400000000001
  1
（%%c6 樹脂プラグ付）
 41
0.5
 72
     2
 11
181.208
 21
115.565
 31
0.0
  0
TEXT
  5
34
  8
0
 62
     7
 10
157.07252099999999
 20
120.504
 30
0.0
 40
3.0923400000000001
  1
%%c4\U+00D730 SUS木ねじ\U+00D74本
 41
0.5
 72
     2
 11
180.83199999999999
 21
120.504
 31
0.0
  0
TEXT
  5
35
  8
0
 62
     7
 10
82.649023999999997
 20
97.347999999999985
 30
0.0
 40
3.0923400000000001
  1
止水栓連結フレキホース
 41
0.5
 72
     2
 11
102.44
 21
97.347999999999985
 31
0.0
  0
TEXT
  5
36
  8
0
 62
     7
 10
152.87213600000001
 20
241.536
 30
0.0
 40
3.0923400000000001
  1
%%c32～35
 41
0.5
 72
     2
 11
161.94300000000001
 21
241.536
 31
0.0
  0
TEXT
  5
37
  8
0
 62
     7
 10
105.36478200000001
 20
123.22199999999999
 30
0.0
 40
3.0923400000000001
  1
（ダークグレー）
 41
0.5
 72
     2
 11
118.86799999999999
 21
123.22199999999999
 31
0.0
  0
TEXT
  5
38
  8
0
 62
     7
 10
106.881334
 20
128.244
 30
0.0
 40
3.0923400000000001
  1
機能部BOX
 41
0.5
 72
     1
 11
111.726
 21
128.244
 31
0.0
  0
TEXT
  5
39
  8
0
 62
     7
 10
41.101599999999991
 20
161.864
 30
0.0
 40
3.0923400000000001
  1
L＝480
 41
0.5
  0
TEXT
  5
3A
  8
0
 62
     7
 10
33.693199999999997
 20
166.36699999999999
 30
0.0
 40
3.0923400000000001
  1
スパウト連結フレキホース
 41
0.5
  0
TEXT
  5
3B
  8
0
 62
     7
 10
80.135112000000007
 20
159.46899999999999
 30
0.0
 40
3.0923400000000001
  1
（L＝700）
 41
0.5
 72
     2
 11
90.030600000000007
 21
159.46899999999999
 31
0.0
  0
TEXT
  5
3C
  8
0
 62
     7
 10
80.509162000000003
 20
164.05500000000001
 30
0.0
 40
3.0923400000000001
  1
センサーコード
 41
0.5
 72
     2
 11
92.981600000000014
 21
164.05500000000001
 31
0.0
  0
TEXT
  5
3D
  8
0
 62
     7
 10
139.65652499999999
 20
107.682
 30
0.0
 40
3.0923400000000001
  1
54
 41
0.5
 72
     1
 11
140.94499999999999
 21
107.682
 31
0.0
  0
TEXT
  5
3E
  8
0
 62
     7
 10
75.820499999999996
 20
227.67400000000001
 30
0.0
 40
3.0923400000000001
  1
湯水混合は、固定または
 41
0.5
  0
TEXT
  5
3F
  8
0
 62
     7
 10
75.820499999999996
 20
223.80799999999999
 30
0.0
 40
3.0923400000000001
  1
ハンドル回転調節が設定可能
 41
0.5
  0
TEXT
  5
40
  8
0
 62
     7
 10
141.40564599999999
 20
233.95699999999999
 30
0.0
 40
3.0923400000000001
  1
水栓取付穴
 41
0.5
 72
     1
 11
145.83799999999999
 21
233.95699999999999
 31
0.0
  0
TEXT
  5
41
  8
0
 62
     7
 10
66.204124999999991
 20
129.62799999999999
 30
0.0
 40
3.0923400000000001
  1
35
 41
0.5
 72
     1
 11
67.492599999999996
 21
129.62799999999999
 31
0.0
  0
TEXT
  5
42
  8
0
 62
     7
 10
57.646825
 20
129.62799999999999
 30
0.0
 40
3.0923400000000001
  1
33
 41
0.5
 72
     1
 11
58.935299999999998
 21
129.62799999999999
 31
0.0
  0
TEXT
  5
43
  8
0
 62
     7
 10
83.277829999999994
 20
129.62799999999999
 30
0.0
 40
3.0923400000000001
  1
112
 41
0.5
 72
     1
 11
84.823999999999998
 21
129.62799999999999
 31
0.0
  0
TEXT
  5
44
  8
0
 62
     7
 10
47.320099999999989
 20
132.65652499999999
 30
0.0
 40
3.0923400000000001
  1
65
 50
90.0
 41
0.5
 72
     1
 11
47.320099999999989
 21
133.94499999999999
 31
0.0
  0
LINE
  5
45
  8
0
 62
     7
 10
153.76499999999999
 20
126.357
 30
0.0
 11
152.57499999999999
 21
128.31200000000001
 31
0.0
  0
LINE
  5
46
  8
0
 62
     7
 10
152.57499999999999
 20
128.31200000000001
 30
0.0
 11
152.62799999999999
 21
126.024
 31
0.0
  0
LINE
  5
47
  8
0
 62
     7
 10
152.62799999999999
 20
126.024
 30
0.0
 11
153.76499999999999
 21
126.357
 31
0.0
  0
LINE
  5
48
  8
0
 62
     7
 10
152.57499999999999
 20
128.31200000000001
 30
0.0
 11
155.11799999999999
 21
119.628
 31
0.0
  0
LINE
  5
49
  8
0
 62
     7
 10
164.06200000000001
 20
137.852
 30
0.0
 11
163.47
 21
140.06299999999999
 31
0.0
  0
LINE
  5
4A
  8
0
 62
     7
 10
163.47
 20
140.06299999999999
 30
0.0
 11
162.87799999999999
 21
137.852
 31
0.0
  0
LINE
  5
4B
  8
0
 62
     7
 10
162.87799999999999
 20
137.852
 30
0.0
 11
164.06200000000001
 21
137.852
 31
0.0
  0
LINE
  5
4C
  8
0
 62
     7
 10
162.87799999999999
 20
131.023
 30
0.0
 11
163.47
 21
128.81200000000001
 31
0.0
  0
LINE
  5
4D
  8
0
 62
     7
 10
163.47
 20
128.81200000000001
 30
0.0
 11
164.06200000000001
 21
131.023
 31
0.0
  0
LINE
  5
4E
  8
0
 62
     7
 10
164.06200000000001
 20
131.023
 30
0.0
 11
162.87799999999999
 21
131.023
 31
0.0
  0
LINE
  5
4F
  8
0
 62
     7
 10
163.47
 20
140.06299999999999
 30
0.0
 11
163.47
 21
128.81200000000001
 31
0.0
  0
LINE
  5
50
  8
0
 62
     7
 10
77.960800000000006
 20
258.12700000000001
 30
0.0
 11
76.150000000000006
 21
259.93700000000001
 31
0.0
  0
LINE
  5
51
  8
0
 62
     7
 10
78.399500000000003
 20
258.55200000000002
 30
0.0
 11
76.471100000000007
 21
260.48000000000002
 31
0.0
  0
ARC
  5
52
  8
0
 62
     7
 10
75.33279499999999
 20
258.972533
 30
0.0
 40
1.2647440000000001
 50
49.645643
 51
89.779948000000005
  0
ARC
  5
53
  8
0
 62
     7
 10
75.333145000000002
 20
258.97181399999999
 30
0.0
 40
1.8904029999999989
 50
53.478234999999991
 51
89.863372999999996
  0
ARC
  5
54
  8
0
 62
     7
 10
76.924807999999999
 20
257.4063109999999
 30
0.0
 40
1.2617869999999991
 50
0.145503
 51
34.867477000000001
  0
ARC
  5
55
  8
0
 62
     7
 10
76.231279000000001
 20
257.410865
 30
0.0
 40
2.5802580000000002
 50
359.970034
 51
6.8724899999999991
  0
ARC
  5
56
  8
0
 62
     7
 10
77.239083999999991
 20
257.523166
 30
0.0
 40
1.5662819999999991
 50
7.2053820000000011
 51
28.278172999999999
  0
ARC
  5
57
  8
0
 62
     7
 10
77.468893999999992
 20
257.61434200000002
 30
0.0
 40
1.3210120000000001
 50
29.51780200000001
 51
45.21372499999999
  0
LINE
  5
58
  8
0
 62
     7
 10
78.998999999999995
 20
254.02199999999999
 30
0.0
 11
78.998999999999995
 21
256.02199999999999
 31
0.0
  0
ARC
  5
59
  8
0
 62
     7
 10
78.492261999999997
 20
256.01888100000002
 30
0.0
 40
0.5066990000000001
 50
0.371542
 51
50.816511000000013
  0
ARC
  5
5A
  8
0
 62
     7
 10
78.487329000000003
 20
255.93504100000001
 30
0.0
 40
0.324433
 50
272.07295499999998
 51
357.86384900000002
  0
ARC
  5
5B
  8
0
 62
     7
 10
78.51072099999999
 20
255.93496300000001
 30
0.0
 40
0.324352
 50
182.122907
 51
267.94032800000002
  0
LINE
  5
5C
  8
0
 62
     7
 10
78.811499999999995
 20
257.41000000000003
 30
0.0
 11
78.811499999999995
 21
255.923
 31
0.0
  0
LINE
  5
5D
  8
0
 62
     7
 10
78.186599999999999
 20
257.37200000000001
 30
0.0
 11
78.186599999999999
 21
255.923
 31
0.0
  0
LINE
  5
5E
  8
0
 62
     7
 10
73.1708
 20
260.86200000000002
 30
0.0
 11
75.337699999999998
 21
260.86200000000002
 31
0.0
  0
LINE
  5
5F
  8
0
 62
     7
 10
73.384799999999998
 20
260.23700000000002
 30
0.0
 11
75.337699999999998
 21
260.23700000000002
 31
0.0
  0
LINE
  5
60
  8
0
 62
     7
 10
143.434
 20
152.71199999999999
 30
0.0
 11
147.374
 21
155.45500000000001
 31
0.0
  0
ARC
  5
61
  8
0
 62
     7
 10
144.170466
 20
151.67561699999999
 30
0.0
 40
1.271525999999999
 50
125.374437
 51
179.51201599999999
  0
LINE
  5
62
  8
0
 62
     7
 10
143.077
 20
153.226
 30
0.0
 11
147.285
 21
156.154
 31
0.0
  0
ARC
  5
63
  8
0
 62
     7
 10
144.18281099999999
 20
151.6694949999999
 30
0.0
 40
1.9088459999999989
 50
125.38565
 51
179.491164
  0
LINE
  5
64
  8
0
 62
     7
 10
147.553
 20
169.21600000000001
 30
0.0
 11
147.553
 21
156.66800000000001
 31
0.0
  0
ARC
  5
65
  8
0
 62
     7
 10
146.915357
 20
156.67386500000001
 30
0.0
 40
0.637323
 50
305.40817900000002
 51
359.44941399999999
  0
LINE
  5
66
  8
0
 62
     7
 10
148.178
 20
169.21600000000001
 30
0.0
 11
148.178
 21
156.994
 31
0.0
  0
ARC
  5
67
  8
0
 62
     7
 10
146.26946699999999
 20
157.01095699999999
 30
0.0
 40
1.9082019999999991
 50
305.37569000000002
 51
359.49064199999998
  0
LINE
  5
68
  8
0
 62
     7
 10
56.960500000000003
 20
137.64400000000001
 30
0.0
 11
54.748800000000003
 21
137.05199999999999
 31
0.0
  0
LINE
  5
69
  8
0
 62
     7
 10
54.748800000000003
 20
137.05199999999999
 30
0.0
 11
56.960500000000003
 21
136.459
 31
0.0
  0
LINE
  5
6A
  8
0
 62
     7
 10
56.960500000000003
 20
136.459
 30
0.0
 11
56.960500000000003
 21
137.64400000000001
 31
0.0
  0
LINE
  5
6B
  8
0
 62
     7
 10
97.538799999999995
 20
136.4729999999999
 30
0.0
 11
99.750600000000006
 21
137.066
 31
0.0
  0
LINE
  5
6C
  8
0
 62
     7
 10
99.750600000000006
 20
137.066
 30
0.0
 11
97.538799999999995
 21
137.65899999999999
 31
0.0
  0
LINE
  5
6D
  8
0
 62
     7
 10
97.538799999999995
 20
137.65899999999999
 30
0.0
 11
97.538799999999995
 21
136.4729999999999
 31
0.0
  0
LINE
  5
6E
  8
0
 62
     7
 10
54.748800000000003
 20
137.05799999999999
 30
0.0
 11
99.749200000000002
 21
137.05799999999999
 31
0.0
  0
LINE
  5
6F
  8
0
 62
     7
 10
142.27500000000001
 20
151.68600000000001
 30
0.0
 11
142.27500000000001
 21
142.56200000000001
 31
0.0
  0
LINE
  5
70
  8
0
 62
     7
 10
142.90000000000001
 20
151.68600000000001
 30
0.0
 11
142.90000000000001
 21
142.56200000000001
 31
0.0
  0
LINE
  5
71
  8
0
 62
     7
 10
78.198999999999998
 20
154.54400000000001
 30
0.0
 11
78.198999999999998
 21
142.56200000000001
 31
0.0
  0
LINE
  5
72
  8
0
 62
     7
 10
78.823899999999995
 20
154.54400000000001
 30
0.0
 11
78.823899999999995
 21
142.56200000000001
 31
0.0
  0
LINE
  5
73
  8
0
 62
     7
 10
77.663600000000002
 20
155.56999999999999
 30
0.0
 11
72.998599999999996
 21
158.81800000000001
 31
0.0
  0
LINE
  5
74
  8
0
 62
     7
 10
70.498500000000007
 20
160.55799999999999
 30
0.0
 11
69.759500000000003
 21
161.072
 31
0.0
  0
ARC
  5
75
  8
0
 62
     7
 10
76.925854999999984
 20
154.53230600000001
 30
0.0
 40
1.2731909999999991
 50
0.5184400000000001
 51
54.587177000000011
  0
LINE
  5
76
  8
0
 62
     7
 10
78.020499999999998
 20
156.083
 30
0.0
 11
73.001000000000005
 21
159.578
 31
0.0
  0
LINE
  5
77
  8
0
 62
     7
 10
70.500200000000007
 20
161.31899999999999
 30
0.0
 11
69.849100000000007
 21
161.77199999999999
 31
0.0
  0
ARC
  5
78
  8
0
 62
     7
 10
76.914833999999999
 20
154.52687499999999
 30
0.0
 40
1.909179
 50
0.5087270000000002
 51
54.609158999999991
  0
LINE
  5
79
  8
0
 62
     7
 10
69.581000000000003
 20
164.215
 30
0.0
 11
69.581000000000003
 21
162.285
 31
0.0
  0
ARC
  5
7A
  8
0
 62
     7
 10
70.216999000000001
 20
162.29060799999999
 30
0.0
 40
0.6359880000000001
 50
180.489284
 51
234.65316300000001
  0
LINE
  5
7B
  8
0
 62
     7
 10
68.956100000000006
 20
165.11799999999999
 30
0.0
 11
68.956100000000006
 21
162.61099999999999
 31
0.0
  0
ARC
  5
7C
  8
0
 62
     7
 10
70.864215000000002
 20
162.62839299999999
 30
0.0
 40
1.9082009999999989
 50
180.50935899999999
 51
234.624348
  0
ARC
  5
7D
  8
0
 62
     7
 10
68.203665000000001
 20
231.996252
 30
0.0
 40
1.545839999999999
 50
323.66114900000002
 51
359.840802
  0
ARC
  5
7E
  8
0
 62
     7
 10
67.822108
 20
232.24057099999999
 30
0.0
 40
1.998183
 50
302.87961200000001
 51
324.50106399999999
  0
ARC
  5
7F
  8
0
 62
     7
 10
67.455190000000002
 20
232.75803500000001
 30
0.0
 40
2.6320879999999991
 50
274.18057099999999
 51
303.47223500000001
  0
ARC
  5
80
  8
0
 62
     7
 10
67.375773999999993
 20
233.141053
 30
0.0
 40
3.0203109999999991
 50
269.97461900000002
 51
275.15344700000003
  0
ARC
  5
81
  8
0
 62
     7
 10
67.376103000000001
 20
233.059213
 30
0.0
 40
2.9384709999999989
 50
244.658625
 51
269.96750700000001
  0
ARC
  5
82
  8
0
 62
     7
 10
67.130442999999985
 20
232.46777599999999
 30
0.0
 40
2.2990119999999989
 50
218.97616400000001
 51
243.883016
  0
ARC
  5
83
  8
0
 62
     7
 10
66.654879000000008
 20
232.032535
 30
0.0
 40
1.656004
 50
181.40409500000001
 51
217.61867799999999
  0
ARC
  5
84
  8
0
 62
     7
 10
68.203397999999993
 20
234.86345299999999
 30
0.0
 40
1.546108
 50
323.66440599999999
 51
359.84076499999998
  0
ARC
  5
85
  8
0
 62
     7
 10
67.817318
 20
235.11136300000001
 30
0.0
 40
2.0042189999999991
 50
302.1889220000001
 51
324.49493999999999
  0
ARC
  5
86
  8
0
 62
     7
 10
67.453231000000002
 20
235.63191399999999
 30
0.0
 40
2.638892999999999
 50
274.21241900000001
 51
302.858138
  0
ARC
  5
87
  8
0
 62
     7
 10
67.375773999999993
 20
236.008252
 30
0.0
 40
3.0203109999999991
 50
269.97461900000002
 51
275.15344700000003
  0
ARC
  5
88
  8
0
 62
     7
 10
67.376260000000002
 20
235.92327800000001
 30
0.0
 40
2.9353370000000001
 50
244.10262299999999
 51
269.964406
  0
ARC
  5
89
  8
0
 62
     7
 10
67.124840000000006
 20
235.328171
 30
0.0
 40
2.2904309999999999
 50
218.93370300000001
 51
243.258398
  0
ARC
  5
8A
  8
0
 62
     7
 10
66.654872999999995
 20
234.899642
 30
0.0
 40
1.655996
 50
181.400925
 51
217.61864600000001
  0
LINE
  5
8B
  8
0
 62
     7
 10
69.749499999999983
 20
231.99199999999999
 30
0.0
 11
69.749499999999983
 21
254.12200000000001
 31
0.0
  0
LINE
  5
8C
  8
0
 62
     7
 10
64.999399999999994
 20
231.99199999999999
 30
0.0
 11
64.999399999999994
 21
254.12299999999999
 31
0.0
  0
ARC
  5
8D
  8
0
 62
     7
 10
67.219817000000006
 20
258.62608299999999
 30
0.0
 40
6.4055910000000003
 50
293.25414999999998
 51
359.07155399999999
  0
ARC
  5
8E
  8
0
 62
     7
 10
67.374434999999991
 20
258.52228700000001
 30
0.0
 40
6.2501329999999991
 50
0.00001
 51
89.999980000000008
  0
ARC
  5
8F
  8
0
 62
     7
 10
67.374437
 20
258.52228700000001
 30
0.0
 40
6.2501329999999991
 50
90.0
 51
179.99996999999999
  0
ARC
  5
90
  8
0
 62
     7
 10
67.529747
 20
258.626597
 30
0.0
 40
6.4062919999999988
 50
180.93295900000001
 51
246.73511199999999
  0
ARC
  5
91
  8
0
 62
     7
 10
67.261332999999993
 20
258.59084200000001
 30
0.0
 40
5.2385070000000002
 50
298.349242
 51
359.25018299999999
  0
ARC
  5
92
  8
0
 62
     7
 10
67.374434999999991
 20
258.522288
 30
0.0
 40
5.1249570000000002
 50
0.00001
 51
89.999980000000008
  0
ARC
  5
93
  8
0
 62
     7
 10
67.374437
 20
258.522288
 30
0.0
 40
5.1249570000000002
 50
90.0
 51
179.99996999999999
  0
ARC
  5
94
  8
0
 62
     7
 10
67.486170000000001
 20
258.589608
 30
0.0
 40
5.2371239999999988
 50
180.73653999999999
 51
241.642482
  0
LINE
  5
95
  8
0
  6
AIGENLINE001
 62
     7
 10
57.471800000000002
 20
258.52199999999999
 30
0.0
 11
77.472099999999983
 21
258.52199999999999
 31
0.0
  0
ARC
  5
96
  8
0
 62
     7
 10
67.374521000000001
 20
258.52220199999999
 30
0.0
 40
5.000157999999999
 50
0.000997
 51
90.000967000000017
  0
ARC
  5
97
  8
0
 62
     7
 10
67.374351000000004
 20
258.52220199999999
 30
0.0
 40
5.000157999999999
 50
89.999013000000005
 51
179.99898300000001
  0
ARC
  5
98
  8
0
 62
     7
 10
67.374348999999995
 20
258.52237400000001
 30
0.0
 40
5.0001559999999987
 50
180.0009969999999
 51
270.00100700000002
  0
ARC
  5
99
  8
0
 62
     7
 10
67.374521000000001
 20
258.52237599999989
 30
0.0
 40
5.000157999999999
 50
269.999033
 51
359.99900300000002
  0
LINE
  5
9A
  8
0
 62
     7
 10
84.709599999999995
 20
241.18700000000001
 30
0.0
 11
83.259200000000007
 21
242.63800000000001
 31
0.0
  0
LINE
  5
9B
  8
0
  6
AIGENLINE001
 62
     7
 10
82.733099999999993
 20
243.16399999999999
 30
0.0
 11
67.374399999999994
 21
258.52199999999999
 31
0.0
  0
LINE
  5
9C
  8
0
 62
     7
 10
59.1248
 20
235.85599999999999
 30
0.0
 11
59.974699999999991
 21
238.19200000000001
 31
0.0
  0
LINE
  5
9D
  8
0
  6
AIGENLINE001
 62
     7
 10
60.230600000000003
 20
238.89400000000001
 30
0.0
 11
67.374399999999994
 21
258.52199999999999
 31
0.0
  0
LINE
  5
9E
  8
0
  6
AIGENLINE001
 62
     7
 10
67.374399999999994
 20
228.75
 30
0.0
 11
67.374399999999994
 21
267.11200000000002
 31
0.0
  0
LINE
  5
9F
  8
0
 62
     7
 10
61.49219999999999
 20
235.803
 30
0.0
 11
59.540599999999998
 21
237.001
 31
0.0
  0
LINE
  5
A0
  8
0
 62
     7
 10
59.540599999999998
 20
237.001
 30
0.0
 11
61.8292
 21
236.93899999999999
 31
0.0
  0
LINE
  5
A1
  8
0
 62
     7
 10
61.8292
 20
236.93899999999999
 30
0.0
 11
61.49219999999999
 21
235.803
 31
0.0
  0
LINE
  5
A2
  8
0
 62
     7
 10
82.353099999999998
 20
240.38800000000001
 30
0.0
 11
83.565799999999996
 21
242.33099999999999
 31
0.0
  0
LINE
  5
A3
  8
0
 62
     7
 10
83.565799999999996
 20
242.33099999999999
 30
0.0
 11
81.544200000000004
 21
241.256
 31
0.0
  0
LINE
  5
A4
  8
0
 62
     7
 10
81.544200000000004
 20
241.256
 30
0.0
 11
82.353099999999998
 21
240.38800000000001
 31
0.0
  0
ARC
  5
A5
  8
0
 62
     7
 10
67.352168000000006
 20
258.51952299999999
 30
0.0
 40
22.894528000000001
 50
255.05128999999999
 51
270.05573800000002
  0
ARC
  5
A6
  8
0
 62
     7
 10
67.260921999999994
 20
258.79811899999999
 30
0.0
 40
23.173390999999999
 50
270.28067199999998
 51
314.71682700000002
  0
LINE
  5
A7
  8
0
 62
     7
 10
77.498900000000006
 20
235.494
 30
0.0
 11
76.232500000000002
 21
237.40100000000001
 31
0.0
  0
LINE
  5
A8
  8
0
 62
     7
 10
76.232500000000002
 20
237.40100000000001
 30
0.0
 11
76.375100000000003
 21
235.11600000000001
 31
0.0
  0
LINE
  5
A9
  8
0
 62
     7
 10
76.375100000000003
 20
235.11600000000001
 30
0.0
 11
77.498900000000006
 21
235.494
 31
0.0
  0
LINE
  5
AA
  8
0
 62
     7
 10
76.232500000000002
 20
237.40100000000001
 30
0.0
 11
78.115600000000001
 21
231.79900000000001
 31
0.0
  0
LINE
  5
AB
  8
0
 62
     7
 10
95.037999999999997
 20
272.10599999999999
 30
0.0
 11
97.249499999999983
 21
272.69799999999998
 31
0.0
  0
LINE
  5
AC
  8
0
 62
     7
 10
97.249499999999983
 20
272.69799999999998
 30
0.0
 11
95.037999999999997
 21
273.29199999999997
 31
0.0
  0
LINE
  5
AD
  8
0
 62
     7
 10
95.037999999999997
 20
273.29199999999997
 30
0.0
 11
95.037999999999997
 21
272.10599999999999
 31
0.0
  0
LINE
  5
AE
  8
0
 62
     7
 10
59.459299999999999
 20
273.27600000000001
 30
0.0
 11
57.247500000000002
 21
272.68400000000003
 31
0.0
  0
LINE
  5
AF
  8
0
 62
     7
 10
57.247500000000002
 20
272.68400000000003
 30
0.0
 11
59.459299999999999
 21
272.09100000000001
 31
0.0
  0
LINE
  5
B0
  8
0
 62
     7
 10
59.459299999999999
 20
272.09100000000001
 30
0.0
 11
59.459299999999999
 21
273.27600000000001
 31
0.0
  0
LINE
  5
B1
  8
0
 62
     7
 10
97.248400000000004
 20
272.69099999999997
 30
0.0
 11
57.248899999999999
 21
272.69099999999997
 31
0.0
  0
LINE
  5
B2
  8
0
 62
     7
 10
57.248899999999999
 20
270.10599999999999
 30
0.0
 11
57.248899999999999
 21
273.39100000000002
 31
0.0
  0
LINE
  5
B3
  8
0
 62
     7
 10
97.248400000000004
 20
270.10599999999999
 30
0.0
 11
97.248400000000004
 21
273.39100000000002
 31
0.0
  0
LINE
  5
B4
  8
0
 62
     7
 10
142.90000000000001
 20
142.56200000000001
 30
0.0
 11
149.08699999999999
 21
142.56200000000001
 31
0.0
  0
LINE
  5
B5
  8
0
 62
     7
 10
149.08699999999999
 20
142.56200000000001
 30
0.0
 11
149.08699999999999
 21
143.06299999999999
 31
0.0
  0
LINE
  5
B6
  8
0
 62
     7
 10
149.08699999999999
 20
143.06299999999999
 30
0.0
 11
142.90000000000001
 21
143.06299999999999
 31
0.0
  0
LINE
  5
B7
  8
0
 62
     7
 10
79.249099999999999
 20
254.02199999999999
 30
0.0
 11
79.249099999999999
 21
253.77199999999999
 31
0.0
  0
LINE
  5
B8
  8
0
 62
     7
 10
77.748699999999985
 20
254.02199999999999
 30
0.0
 11
77.748699999999985
 21
253.77199999999999
 31
0.0
  0
LINE
  5
B9
  8
0
 62
     7
 10
99.499099999999999
 20
254.02199999999999
 30
0.0
 11
99.499099999999999
 21
253.77199999999999
 31
0.0
  0
LINE
  5
BA
  8
0
 62
     7
 10
54.998899999999999
 20
254.02199999999999
 30
0.0
 11
54.998899999999999
 21
253.77199999999999
 31
0.0
  0
ARC
  5
BB
  8
0
 62
     7
 10
78.506117000000003
 20
256.018596
 30
0.0
 40
0.507297
 50
129.21523999999999
 51
179.59666799999999
  0
LINE
  5
BC
  8
0
 62
     7
 10
77.998800000000003
 20
256.02199999999999
 30
0.0
 11
77.998800000000003
 21
254.02199999999999
 31
0.0
  0
LINE
  5
BD
  8
0
 62
     7
 10
59.248800000000003
 20
262.52199999999999
 30
0.0
 11
59.248800000000003
 21
262.02199999999999
 31
0.0
  0
LINE
  5
BE
  8
0
 62
     7
 10
59.748999999999988
 20
262.52199999999999
 30
0.0
 11
59.748999999999988
 21
262.02199999999999
 31
0.0
  0
LINE
  5
BF
  8
0
 62
     7
 10
95.249199999999988
 20
262.52199999999999
 30
0.0
 11
95.249199999999988
 21
262.02199999999999
 31
0.0
  0
LINE
  5
C0
  8
0
 62
     7
 10
94.748999999999995
 20
262.52199999999999
 30
0.0
 11
94.748999999999995
 21
262.02199999999999
 31
0.0
  0
LINE
  5
C1
  8
0
 62
     7
 10
141.08799999999999
 20
126.563
 30
0.0
 11
141.33799999999999
 21
126.563
 31
0.0
  0
LINE
  5
C2
  8
0
 62
     7
 10
141.08799999999999
 20
142.31200000000001
 30
0.0
 11
141.33799999999999
 21
142.31200000000001
 31
0.0
  0
LINE
  5
C3
  8
0
 62
     7
 10
149.83699999999999
 20
139.81299999999999
 30
0.0
 11
149.33799999999999
 21
139.81299999999999
 31
0.0
  0
LINE
  5
C4
  8
0
 62
     7
 10
149.33799999999999
 20
139.81299999999999
 30
0.0
 11
149.33799999999999
 21
129.06200000000001
 31
0.0
  0
LINE
  5
C5
  8
0
 62
     7
 10
149.33799999999999
 20
129.06200000000001
 30
0.0
 11
149.83699999999999
 21
129.06200000000001
 31
0.0
  0
LINE
  5
C6
  8
0
 62
     7
 10
149.33799999999999
 20
139.06200000000001
 30
0.0
 11
149.83699999999999
 21
139.06200000000001
 31
0.0
  0
LINE
  5
C7
  8
0
 62
     7
 10
149.83699999999999
 20
139.06200000000001
 30
0.0
 11
149.83699999999999
 21
142.56200000000001
 31
0.0
  0
LINE
  5
C8
  8
0
 62
     7
 10
149.83699999999999
 20
142.56200000000001
 30
0.0
 11
141.33799999999999
 21
142.56200000000001
 31
0.0
  0
LINE
  5
C9
  8
0
 62
     7
 10
141.33799999999999
 20
142.56200000000001
 30
0.0
 11
141.33799999999999
 21
126.312
 31
0.0
  0
LINE
  5
CA
  8
0
 62
     7
 10
141.33799999999999
 20
126.312
 30
0.0
 11
149.83699999999999
 21
126.312
 31
0.0
  0
LINE
  5
CB
  8
0
 62
     7
 10
149.83699999999999
 20
126.312
 30
0.0
 11
149.83699999999999
 21
129.81200000000001
 31
0.0
  0
LINE
  5
CC
  8
0
 62
     7
 10
149.83699999999999
 20
129.81200000000001
 30
0.0
 11
149.33799999999999
 21
129.81200000000001
 31
0.0
  0
LINE
  5
CD
  8
0
 62
     7
 10
141.08799999999999
 20
126.312
 30
0.0
 11
136.33699999999999
 21
126.312
 31
0.0
  0
LINE
  5
CE
  8
0
 62
     7
 10
136.33699999999999
 20
126.312
 30
0.0
 11
136.33699999999999
 21
142.56200000000001
 31
0.0
  0
LINE
  5
CF
  8
0
 62
     7
 10
136.33699999999999
 20
142.56200000000001
 30
0.0
 11
141.08799999999999
 21
142.56200000000001
 31
0.0
  0
LINE
  5
D0
  8
0
 62
     7
 10
141.08799999999999
 20
142.56200000000001
 30
0.0
 11
141.08799999999999
 21
126.312
 31
0.0
  0
LINE
  5
D1
  8
0
 62
     7
 10
78.998999999999995
 20
254.02199999999999
 30
0.0
 11
99.749200000000002
 21
254.02199999999999
 31
0.0
  0
LINE
  5
D2
  8
0
 62
     7
 10
99.749200000000002
 20
254.02199999999999
 30
0.0
 11
99.749200000000002
 21
262.52199999999999
 31
0.0
  0
LINE
  5
D3
  8
0
 62
     7
 10
99.749200000000002
 20
262.52199999999999
 30
0.0
 11
94.748999999999995
 21
262.52199999999999
 31
0.0
  0
LINE
  5
D4
  8
0
 62
     7
 10
59.748999999999988
 20
262.52199999999999
 30
0.0
 11
54.748800000000003
 21
262.52199999999999
 31
0.0
  0
LINE
  5
D5
  8
0
 62
     7
 10
54.748800000000003
 20
262.52199999999999
 30
0.0
 11
54.748800000000003
 21
254.02199999999999
 31
0.0
  0
LINE
  5
D6
  8
0
 62
     7
 10
54.748800000000003
 20
254.02199999999999
 30
0.0
 11
63.036999999999999
 21
254.02199999999999
 31
0.0
  0
LINE
  5
D7
  8
0
 62
     7
 10
71.711799999999997
 20
254.02199999999999
 30
0.0
 11
77.998800000000003
 21
254.02199999999999
 31
0.0
  0
LINE
  5
D8
  8
0
 62
     7
 10
59.248800000000003
 20
262.02199999999999
 30
0.0
 11
62.195700000000002
 21
262.02199999999999
 31
0.0
  0
LINE
  5
D9
  8
0
 62
     7
 10
72.553100000000001
 20
262.02199999999999
 30
0.0
 11
95.249199999999988
 21
262.02199999999999
 31
0.0
  0
LINE
  5
DA
  8
0
 62
     7
 10
64.999399999999994
 20
249.02199999999999
 30
0.0
 11
54.748800000000003
 21
249.02199999999999
 31
0.0
  0
LINE
  5
DB
  8
0
 62
     7
 10
54.748800000000003
 20
249.02199999999999
 30
0.0
 11
54.748800000000003
 21
253.77199999999999
 31
0.0
  0
LINE
  5
DC
  8
0
 62
     7
 10
54.748800000000003
 20
253.77199999999999
 30
0.0
 11
63.312600000000003
 21
253.77199999999999
 31
0.0
  0
LINE
  5
DD
  8
0
 62
     7
 10
71.436199999999999
 20
253.77199999999999
 30
0.0
 11
99.749200000000002
 21
253.77199999999999
 31
0.0
  0
LINE
  5
DE
  8
0
 62
     7
 10
99.749200000000002
 20
253.77199999999999
 30
0.0
 11
99.749200000000002
 21
249.02199999999999
 31
0.0
  0
LINE
  5
DF
  8
0
 62
     7
 10
99.749200000000002
 20
249.02199999999999
 30
0.0
 11
69.749499999999983
 21
249.02199999999999
 31
0.0
  0
LINE
  5
E0
  8
0
 62
     7
 10
141.08799999999999
 20
126.312
 30
0.0
 11
141.08799999999999
 21
142.56200000000001
 31
0.0
  0
LINE
  5
E1
  8
0
 62
     7
 10
99.749200000000002
 20
126.312
 30
0.0
 11
54.748800000000003
 21
126.312
 31
0.0
  0
LINE
  5
E2
  8
0
 62
     7
 10
54.748800000000003
 20
126.312
 30
0.0
 11
54.748800000000003
 21
142.56200000000001
 31
0.0
  0
LINE
  5
E3
  8
0
 62
     7
 10
54.748800000000003
 20
142.56200000000001
 30
0.0
 11
99.749200000000002
 21
142.56200000000001
 31
0.0
  0
LINE
  5
E4
  8
0
 62
     7
 10
99.749200000000002
 20
142.56200000000001
 30
0.0
 11
99.749200000000002
 21
126.312
 31
0.0
  0
LINE
  5
E5
  8
0
 62
     7
 10
155.42500000000001
 20
139.56200000000001
 30
0.0
 11
155.02199999999999
 21
140.56299999999999
 31
0.0
  0
LINE
  5
E6
  8
0
 62
     7
 10
154.85499999999999
 20
139.56200000000001
 30
0.0
 11
154.452
 21
140.56299999999999
 31
0.0
  0
LINE
  5
E7
  8
0
 62
     7
 10
154.28399999999999
 20
139.56200000000001
 30
0.0
 11
153.88200000000001
 21
140.56299999999999
 31
0.0
  0
LINE
  5
E8
  8
0
 62
     7
 10
153.715
 20
139.56200000000001
 30
0.0
 11
153.31200000000001
 21
140.56299999999999
 31
0.0
  0
LINE
  5
E9
  8
0
 62
     7
 10
153.14500000000001
 20
139.56200000000001
 30
0.0
 11
152.74199999999999
 21
140.56299999999999
 31
0.0
  0
LINE
  5
EA
  8
0
 62
     7
 10
152.57499999999999
 20
139.56200000000001
 30
0.0
 11
152.172
 21
140.56299999999999
 31
0.0
  0
LINE
  5
EB
  8
0
 62
     7
 10
152.00399999999999
 20
139.56200000000001
 30
0.0
 11
151.602
 21
140.56299999999999
 31
0.0
  0
LINE
  5
EC
  8
0
 62
     7
 10
151.435
 20
139.56200000000001
 30
0.0
 11
151.03200000000001
 21
140.56299999999999
 31
0.0
  0
LINE
  5
ED
  8
0
 62
     7
 10
150.86500000000001
 20
139.56200000000001
 30
0.0
 11
150.46199999999999
 21
140.56299999999999
 31
0.0
  0
LINE
  5
EE
  8
0
 62
     7
 10
150.29499999999999
 20
139.56200000000001
 30
0.0
 11
149.892
 21
140.56299999999999
 31
0.0
  0
LINE
  5
EF
  8
0
 62
     7
 10
155.501
 20
139.82400000000001
 30
0.0
 11
156.08799999999999
 21
140.06299999999999
 31
0.0
  0
LINE
  5
F0
  8
0
 62
     7
 10
155.501
 20
140.30199999999999
 30
0.0
 11
156.08799999999999
 21
140.06299999999999
 31
0.0
  0
LINE
  5
F1
  8
0
 62
     7
 10
155.501
 20
140.30199999999999
 30
0.0
 11
149.83699999999999
 21
140.30199999999999
 31
0.0
  0
LINE
  5
F2
  8
0
 62
     7
 10
155.501
 20
139.82400000000001
 30
0.0
 11
149.83699999999999
 21
139.82400000000001
 31
0.0
  0
LINE
  5
F3
  8
0
 62
     7
 10
164.16999999999999
 20
140.06299999999999
 30
0.0
 11
157.15299999999999
 21
140.06299999999999
 31
0.0
  0
LINE
  5
F4
  8
0
 62
     7
 10
180.83199999999999
 20
119.628
 30
0.0
 11
155.11799999999999
 21
119.628
 31
0.0
  0
LINE
  5
F5
  8
0
 62
     7
 10
164.16999999999999
 20
128.81200000000001
 30
0.0
 11
157.15299999999999
 21
128.81200000000001
 31
0.0
  0
LINE
  5
F6
  8
0
  6
AIGENLINE001
 62
     7
 10
156.422
 20
140.06299999999999
 30
0.0
 11
149.405
 21
140.06299999999999
 31
0.0
  0
LINE
  5
F7
  8
0
 62
     7
 10
155.42500000000001
 20
128.31200000000001
 30
0.0
 11
155.02199999999999
 21
129.31200000000001
 31
0.0
  0
LINE
  5
F8
  8
0
 62
     7
 10
154.85499999999999
 20
128.31200000000001
 30
0.0
 11
154.452
 21
129.31200000000001
 31
0.0
  0
LINE
  5
F9
  8
0
 62
     7
 10
154.28399999999999
 20
128.31200000000001
 30
0.0
 11
153.88200000000001
 21
129.31200000000001
 31
0.0
  0
LINE
  5
FA
  8
0
 62
     7
 10
153.715
 20
128.31200000000001
 30
0.0
 11
153.31200000000001
 21
129.31200000000001
 31
0.0
  0
LINE
  5
FB
  8
0
 62
     7
 10
153.14500000000001
 20
128.31200000000001
 30
0.0
 11
152.74199999999999
 21
129.31200000000001
 31
0.0
  0
LINE
  5
FC
  8
0
 62
     7
 10
152.57499999999999
 20
128.31200000000001
 30
0.0
 11
152.172
 21
129.31200000000001
 31
0.0
  0
LINE
  5
FD
  8
0
 62
     7
 10
152.00399999999999
 20
128.31200000000001
 30
0.0
 11
151.602
 21
129.31200000000001
 31
0.0
  0
LINE
  5
FE
  8
0
 62
     7
 10
151.435
 20
128.31200000000001
 30
0.0
 11
151.03200000000001
 21
129.31200000000001
 31
0.0
  0
LINE
  5
FF
  8
0
 62
     7
 10
150.86500000000001
 20
128.31200000000001
 30
0.0
 11
150.46199999999999
 21
129.31200000000001
 31
0.0
  0
LINE
  5
100
  8
0
 62
     7
 10
150.29499999999999
 20
128.31200000000001
 30
0.0
 11
149.892
 21
129.31200000000001
 31
0.0
  0
LINE
  5
101
  8
0
 62
     7
 10
155.501
 20
128.57300000000001
 30
0.0
 11
156.08799999999999
 21
128.81200000000001
 31
0.0
  0
LINE
  5
102
  8
0
 62
     7
 10
155.501
 20
129.05099999999999
 30
0.0
 11
156.08799999999999
 21
128.81200000000001
 31
0.0
  0
LINE
  5
103
  8
0
 62
     7
 10
155.501
 20
129.05099999999999
 30
0.0
 11
149.83699999999999
 21
129.05099999999999
 31
0.0
  0
LINE
  5
104
  8
0
 62
     7
 10
155.501
 20
128.57300000000001
 30
0.0
 11
149.83699999999999
 21
128.57300000000001
 31
0.0
  0
LINE
  5
105
  8
0
  6
AIGENLINE001
 62
     7
 10
156.422
 20
128.81200000000001
 30
0.0
 11
149.405
 21
128.81200000000001
 31
0.0
  0
LINE
  5
106
  8
0
 62
     7
 10
73.508600000000001
 20
260.23700000000002
 30
0.0
 11
74.498900000000006
 21
258.52199999999999
 31
0.0
  0
LINE
  5
107
  8
0
 62
     7
 10
74.498900000000006
 20
258.52199999999999
 30
0.0
 11
73.123999999999995
 21
256.14099999999991
 31
0.0
  0
ARC
  5
108
  8
0
 62
     7
 10
71.745390999999998
 20
258.52016800000001
 30
0.0
 40
3.2534649999999998
 50
59.959645999999999
 51
70.685018999999997
  0
ARC
  5
109
  8
0
 62
     7
 10
71.743909000000002
 20
258.50888900000001
 30
0.0
 40
3.2639740000000002
 50
46.158878999999992
 51
60.036237
  0
ARC
  5
10A
  8
0
 62
     7
 10
71.663225999999995
 20
258.52151500000002
 30
0.0
 40
3.3240189999999998
 50
330.74798199999998
 51
31.089438000000001
  0
ARC
  5
10B
  8
0
 62
     7
 10
71.727755000000002
 20
258.547417
 30
0.0
 40
3.2808220000000001
 50
289.43568599999998
 51
329.80261000000002
  0
LINE
  5
10C
  8
0
 62
     7
 10
61.533900000000003
 20
256.29700000000003
 30
0.0
 11
60.248899999999999
 21
258.52199999999999
 31
0.0
  0
LINE
  5
10D
  8
0
 62
     7
 10
60.248899999999999
 20
258.52199999999999
 30
0.0
 11
61.529400000000003
 21
260.74000000000001
 31
0.0
  0
ARC
  5
10E
  8
0
 62
     7
 10
62.980330000000002
 20
258.47602499999999
 30
0.0
 40
3.2008099999999988
 50
239.87188599999999
 51
250.85905
  0
ARC
  5
10F
  8
0
 62
     7
 10
62.998618999999991
 20
258.5221160000001
 30
0.0
 40
3.2498629999999991
 50
150.00083100000001
 51
240.00088099999999
  0
ARC
  5
110
  8
0
 62
     7
 10
63.020902999999997
 20
258.49614700000001
 30
0.0
 40
3.2821649999999991
 50
109.448959
 51
149.802728
  0
LINE
  5
111
  8
0
 62
     7
 10
57.749099999999999
 20
268.10900000000009
 30
0.0
 11
56.748699999999999
 21
267.7059999999999
 31
0.0
  0
LINE
  5
112
  8
0
 62
     7
 10
57.749099999999999
 20
267.54000000000002
 30
0.0
 11
56.748699999999999
 21
267.13599999999991
 31
0.0
  0
LINE
  5
113
  8
0
 62
     7
 10
57.749099999999999
 20
266.96899999999999
 30
0.0
 11
56.748699999999999
 21
266.56700000000001
 31
0.0
  0
LINE
  5
114
  8
0
 62
     7
 10
57.749099999999999
 20
266.399
 30
0.0
 11
56.748699999999999
 21
265.99599999999998
 31
0.0
  0
LINE
  5
115
  8
0
 62
     7
 10
57.749099999999999
 20
265.82900000000001
 30
0.0
 11
56.748699999999999
 21
265.42599999999999
 31
0.0
  0
LINE
  5
116
  8
0
 62
     7
 10
57.749099999999999
 20
265.25999999999999
 30
0.0
 11
56.748699999999999
 21
264.85599999999999
 31
0.0
  0
LINE
  5
117
  8
0
 62
     7
 10
57.749099999999999
 20
264.68900000000002
 30
0.0
 11
56.748699999999999
 21
264.28699999999998
 31
0.0
  0
LINE
  5
118
  8
0
 62
     7
 10
57.749099999999999
 20
264.11900000000003
 30
0.0
 11
56.748699999999999
 21
263.71600000000001
 31
0.0
  0
LINE
  5
119
  8
0
 62
     7
 10
57.749099999999999
 20
263.54899999999998
 30
0.0
 11
56.748699999999999
 21
263.14600000000002
 31
0.0
  0
LINE
  5
11A
  8
0
 62
     7
 10
57.749099999999999
 20
262.98000000000002
 30
0.0
 11
56.748699999999999
 21
262.577
 31
0.0
  0
LINE
  5
11B
  8
0
 62
     7
 10
57.488
 20
268.18599999999998
 30
0.0
 11
57.248899999999999
 21
268.77199999999999
 31
0.0
  0
LINE
  5
11C
  8
0
 62
     7
 10
57.009799999999998
 20
268.18599999999998
 30
0.0
 11
57.248899999999999
 21
268.77199999999999
 31
0.0
  0
LINE
  5
11D
  8
0
 62
     7
 10
57.009799999999998
 20
268.18599999999998
 30
0.0
 11
57.009799999999998
 21
262.52199999999999
 31
0.0
  0
LINE
  5
11E
  8
0
 62
     7
 10
57.488
 20
268.18599999999998
 30
0.0
 11
57.488
 21
262.52199999999999
 31
0.0
  0
LINE
  5
11F
  8
0
  6
AIGENLINE001
 62
     7
 10
57.248899999999999
 20
269.10599999999999
 30
0.0
 11
57.248899999999999
 21
262.089
 31
0.0
  0
LINE
  5
120
  8
0
 62
     7
 10
97.749300000000005
 20
268.10900000000009
 30
0.0
 11
96.748900000000006
 21
267.7059999999999
 31
0.0
  0
LINE
  5
121
  8
0
 62
     7
 10
97.749300000000005
 20
267.54000000000002
 30
0.0
 11
96.748900000000006
 21
267.13599999999991
 31
0.0
  0
LINE
  5
122
  8
0
 62
     7
 10
97.749300000000005
 20
266.96899999999999
 30
0.0
 11
96.748900000000006
 21
266.56700000000001
 31
0.0
  0
LINE
  5
123
  8
0
 62
     7
 10
97.749300000000005
 20
266.399
 30
0.0
 11
96.748900000000006
 21
265.99599999999998
 31
0.0
  0
LINE
  5
124
  8
0
 62
     7
 10
97.749300000000005
 20
265.82900000000001
 30
0.0
 11
96.748900000000006
 21
265.42599999999999
 31
0.0
  0
LINE
  5
125
  8
0
 62
     7
 10
97.749300000000005
 20
265.25999999999999
 30
0.0
 11
96.748900000000006
 21
264.85599999999999
 31
0.0
  0
LINE
  5
126
  8
0
 62
     7
 10
97.749300000000005
 20
264.68900000000002
 30
0.0
 11
96.748900000000006
 21
264.28699999999998
 31
0.0
  0
LINE
  5
127
  8
0
 62
     7
 10
97.749300000000005
 20
264.11900000000003
 30
0.0
 11
96.748900000000006
 21
263.71600000000001
 31
0.0
  0
LINE
  5
128
  8
0
 62
     7
 10
97.749300000000005
 20
263.54899999999998
 30
0.0
 11
96.748900000000006
 21
263.14600000000002
 31
0.0
  0
LINE
  5
129
  8
0
 62
     7
 10
97.749300000000005
 20
262.98000000000002
 30
0.0
 11
96.748900000000006
 21
262.577
 31
0.0
  0
LINE
  5
12A
  8
0
 62
     7
 10
97.48820000000002
 20
268.18599999999998
 30
0.0
 11
97.249100000000013
 21
268.77199999999999
 31
0.0
  0
LINE
  5
12B
  8
0
 62
     7
 10
97.010000000000005
 20
268.18599999999998
 30
0.0
 11
97.249100000000013
 21
268.77199999999999
 31
0.0
  0
LINE
  5
12C
  8
0
 62
     7
 10
97.010000000000005
 20
268.18599999999998
 30
0.0
 11
97.010000000000005
 21
262.52199999999999
 31
0.0
  0
LINE
  5
12D
  8
0
 62
     7
 10
97.48820000000002
 20
268.18599999999998
 30
0.0
 11
97.48820000000002
 21
262.52199999999999
 31
0.0
  0
LINE
  5
12E
  8
0
  6
AIGENLINE001
 62
     7
 10
97.249100000000013
 20
269.10599999999999
 30
0.0
 11
97.249100000000013
 21
262.089
 31
0.0
  0
LINE
  5
12F
  8
0
 62
     7
 10
97.249100000000013
 20
134.93700000000001
 30
0.0
 11
97.681799999999996
 21
134.68799999999999
 31
0.0
  0
LINE
  5
130
  8
0
 62
     7
 10
97.682199999999995
 20
134.68700000000001
 30
0.0
 11
97.681799999999996
 21
134.18700000000001
 31
0.0
  0
LINE
  5
131
  8
0
 62
     7
 10
97.681799999999996
 20
134.18700000000001
 30
0.0
 11
97.248800000000003
 21
133.93700000000001
 31
0.0
  0
LINE
  5
132
  8
0
 62
     7
 10
97.248800000000003
 20
133.93700000000001
 30
0.0
 11
96.816100000000006
 21
134.18700000000001
 31
0.0
  0
LINE
  5
133
  8
0
 62
     7
 10
96.815700000000007
 20
134.18700000000001
 30
0.0
 11
96.816100000000006
 21
134.68799999999999
 31
0.0
  0
LINE
  5
134
  8
0
 62
     7
 10
96.816100000000006
 20
134.68799999999999
 30
0.0
 11
97.248800000000003
 21
134.93700000000001
 31
0.0
  0
ARC
  5
135
  8
0
 62
     7
 10
97.208452000000008
 20
134.47810899999999
 30
0.0
 40
1.1038870000000001
 50
272.09313800000001
 51
357.88829600000003
  0
ARC
  5
136
  8
0
 62
     7
 10
97.289431000000022
 20
134.478094
 30
0.0
 40
1.1038840000000001
 50
182.110964
 51
267.88906600000001
  0
ARC
  5
137
  8
0
 62
     7
 10
97.289431000000022
 20
134.396772
 30
0.0
 40
1.1038840000000001
 50
92.110934000000015
 51
177.889036
  0
ARC
  5
138
  8
0
 62
     7
 10
97.208128000000002
 20
134.396433
 30
0.0
 40
1.1042229999999991
 50
2.127901
 51
87.890664000000015
  0
LINE
  5
139
  8
0
 62
     7
 10
57.248899999999999
 20
134.93700000000001
 30
0.0
 11
57.681600000000003
 21
134.68799999999999
 31
0.0
  0
LINE
  5
13A
  8
0
 62
     7
 10
57.681600000000003
 20
134.68700000000001
 30
0.0
 11
57.681600000000003
 21
134.18700000000001
 31
0.0
  0
LINE
  5
13B
  8
0
 62
     7
 10
57.681600000000003
 20
134.18700000000001
 30
0.0
 11
57.248899999999999
 21
133.93700000000001
 31
0.0
  0
LINE
  5
13C
  8
0
 62
     7
 10
57.248499999999993
 20
133.93700000000001
 30
0.0
 11
56.8155
 21
134.18700000000001
 31
0.0
  0
LINE
  5
13D
  8
0
 62
     7
 10
56.8155
 20
134.18700000000001
 30
0.0
 11
56.8155
 21
134.68799999999999
 31
0.0
  0
LINE
  5
13E
  8
0
 62
     7
 10
56.8155
 20
134.68799999999999
 30
0.0
 11
57.248899999999999
 21
134.93700000000001
 31
0.0
  0
ARC
  5
13F
  8
0
 62
     7
 10
57.208240000000004
 20
134.478084
 30
0.0
 40
1.103874
 50
272.11047200000002
 51
357.88953800000002
  0
ARC
  5
140
  8
0
 62
     7
 10
57.289543000000002
 20
134.478084
 30
0.0
 40
1.103874
 50
182.110465
 51
267.889565
  0
ARC
  5
141
  8
0
 62
     7
 10
57.289552999999998
 20
134.396772
 30
0.0
 40
1.1038840000000001
 50
92.110934000000015
 51
177.889036
  0
ARC
  5
142
  8
0
 62
     7
 10
57.208234999999988
 20
134.39677599999999
 30
0.0
 40
1.1038799999999991
 50
2.1107109999999998
 51
87.889279000000002
  0
LINE
  5
143
  8
0
 62
     7
 10
147.58699999999999
 20
145.56200000000001
 30
0.0
 11
147.904
 21
145.398
 31
0.0
  0
LINE
  5
144
  8
0
 62
     7
 10
144.08799999999999
 20
145.56200000000001
 30
0.0
 11
143.77099999999999
 21
145.398
 31
0.0
  0
ARC
  5
145
  8
0
 62
     7
 10
147.97542100000001
 20
145.06110699999999
 30
0.0
 40
0.236971
 50
0.258149
 51
39.218566000000003
  0
ARC
  5
146
  8
0
 62
     7
 10
147.78222099999999
 20
144.92607599999999
 30
0.0
 40
0.472354
 50
37.090212999999999
 51
56.854452999999999
  0
ARC
  5
147
  8
0
 62
     7
 10
147.499357
 20
144.528131
 30
0.0
 40
0.960401
 50
55.705689999999997
 51
69.617773
  0
ARC
  5
148
  8
0
 62
     7
 10
147.21531100000001
 20
143.83332200000001
 30
0.0
 40
1.7108080000000001
 50
68.80484100000001
 51
79.068477000000001
  0
ARC
  5
149
  8
0
 62
     7
 10
147.04248999999999
 20
143.03416300000001
 30
0.0
 40
2.528303999999999
 50
78.657459000000003
 51
90.399558999999996
  0
ARC
  5
14A
  8
0
 62
     7
 10
147.025002
 20
142.94794400000001
 30
0.0
 40
2.614460999999999
 50
90.003157999999999
 51
104.977433
  0
ARC
  5
14B
  8
0
 62
     7
 10
146.74705399999999
 20
144.09230299999999
 30
0.0
 40
1.4374049999999989
 50
106.063332
 51
116.763423
  0
ARC
  5
14C
  8
0
 62
     7
 10
146.441677
 20
144.70916800000001
 30
0.0
 40
0.7491260000000001
 50
117.154736
 51
132.38487900000001
  0
ARC
  5
14D
  8
0
 62
     7
 10
146.18638200000001
 20
144.99787599999999
 30
0.0
 40
0.363831
 50
133.337874
 51
155.15664699999999
  0
ARC
  5
14E
  8
0
 62
     7
 10
146.065663
 20
145.060643
 30
0.0
 40
0.227997
 50
156.72480999999999
 51
179.615106
  0
ARC
  5
14F
  8
0
 62
     7
 10
145.60081500000001
 20
145.06110799999999
 30
0.0
 40
0.236858
 50
0.25809
 51
39.240664000000002
  0
ARC
  5
150
  8
0
 62
     7
 10
145.40786600000001
 20
144.9264
 30
0.0
 40
0.471842
 50
37.087819000000003
 51
56.877611000000002
  0
ARC
  5
151
  8
0
 62
     7
 10
145.128241
 20
144.535079
 30
0.0
 40
0.9525889999999998
 50
55.653001000000003
 51
69.682637
  0
ARC
  5
152
  8
0
 62
     7
 10
144.83988500000001
 20
143.831232
 30
0.0
 40
1.7129659999999991
 50
68.812089999999998
 51
79.063458999999995
  0
ARC
  5
153
  8
0
 62
     7
 10
144.6676919999999
 20
143.034864
 30
0.0
 40
2.527603
 50
78.655940999999999
 51
90.397892000000013
  0
ARC
  5
154
  8
0
 62
     7
 10
144.65027799999999
 20
142.9460179999999
 30
0.0
 40
2.616387
 50
90.003039999999984
 51
104.971889
  0
ARC
  5
155
  8
0
 62
     7
 10
144.372017
 20
144.092028
 30
0.0
 40
1.4376530000000001
 50
106.05801200000001
 51
116.758663
  0
ARC
  5
156
  8
0
 62
     7
 10
144.066778
 20
144.70891399999999
 30
0.0
 40
0.749418
 50
117.15560499999999
 51
132.38046700000001
  0
ARC
  5
157
  8
0
 62
     7
 10
143.811016
 20
144.99807000000001
 30
0.0
 40
0.363475
 50
133.32292100000001
 51
155.16432900000001
  0
ARC
  5
158
  8
0
 62
     7
 10
143.69059899999999
 20
145.060643
 30
0.0
 40
0.227997
 50
156.72480999999999
 51
179.615106
  0
LINE
  5
159
  8
0
 62
     7
 10
148.21199999999999
 20
145.06200000000001
 30
0.0
 11
148.21199999999999
 21
143.06299999999999
 31
0.0
  0
LINE
  5
15A
  8
0
 62
     7
 10
143.46299999999999
 20
145.06200000000001
 30
0.0
 11
143.46299999999999
 21
143.06299999999999
 31
0.0
  0
LINE
  5
15B
  8
0
 62
     7
 10
145.83799999999999
 20
145.06200000000001
 30
0.0
 11
145.83799999999999
 21
143.06299999999999
 31
0.0
  0
LINE
  5
15C
  8
0
 62
     7
 10
147.58699999999999
 20
146.31299999999999
 30
0.0
 11
144.08799999999999
 21
146.31299999999999
 31
0.0
  0
LINE
  5
15D
  8
0
 62
     7
 10
144.08799999999999
 20
146.31299999999999
 30
0.0
 11
144.08799999999999
 21
145.56200000000001
 31
0.0
  0
LINE
  5
15E
  8
0
 62
     7
 10
144.08799999999999
 20
145.56200000000001
 30
0.0
 11
147.58699999999999
 21
145.56200000000001
 31
0.0
  0
LINE
  5
15F
  8
0
 62
     7
 10
147.58699999999999
 20
145.56200000000001
 30
0.0
 11
147.58699999999999
 21
146.31299999999999
 31
0.0
  0
LINE
  5
160
  8
0
 62
     7
 10
147.58699999999999
 20
123.312
 30
0.0
 11
147.904
 21
123.476
 31
0.0
  0
LINE
  5
161
  8
0
 62
     7
 10
144.08799999999999
 20
123.312
 30
0.0
 11
143.77099999999999
 21
123.476
 31
0.0
  0
ARC
  5
162
  8
0
 62
     7
 10
147.97560899999999
 20
123.813068
 30
0.0
 40
0.236783
 50
320.76522199999999
 51
359.74223999999998
  0
ARC
  5
163
  8
0
 62
     7
 10
147.78297499999999
 20
123.94778100000001
 30
0.0
 40
0.471521
 50
303.102284
 51
322.89183200000002
  0
ARC
  5
164
  8
0
 62
     7
 10
147.49955800000001
 20
124.347385
 30
0.0
 40
0.9612429999999999
 50
290.35082
 51
304.24560099999991
  0
ARC
  5
165
  8
0
 62
     7
 10
147.216523
 20
125.040857
 30
0.0
 40
1.7100310000000001
 50
280.895217
 51
291.16172799999998
  0
ARC
  5
166
  8
0
 62
     7
 10
147.04271299999999
 20
125.844874
 30
0.0
 40
2.5324770000000001
 50
269.59604200000001
 51
281.31844799999999
  0
ARC
  5
167
  8
0
 62
     7
 10
147.02501799999999
 20
125.93348899999999
 30
0.0
 40
2.6210290000000001
 50
255.060609
 51
269.99650000000003
  0
ARC
  5
168
  8
0
 62
     7
 10
146.74569700000001
 20
124.781418
 30
0.0
 40
1.436145999999999
 50
243.27186399999999
 51
253.97852800000001
  0
ARC
  5
169
  8
0
 62
     7
 10
146.44103699999999
 20
124.165092
 30
0.0
 40
0.748669
 50
227.649505
 51
242.88237000000001
  0
ARC
  5
16A
  8
0
 62
     7
 10
146.185732
 20
123.876068
 30
0.0
 40
0.36313
 50
204.84858600000001
 51
226.698789
  0
ARC
  5
16B
  8
0
 62
     7
 10
146.065372
 20
123.813506
 30
0.0
 40
0.227706
 50
180.37831800000001
 51
203.290154
  0
ARC
  5
16C
  8
0
 62
     7
 10
145.60100299999999
 20
123.813067
 30
0.0
 40
0.23667
 50
320.74311599999999
 51
359.74229800000001
  0
ARC
  5
16D
  8
0
 62
     7
 10
145.40861799999999
 20
123.947458
 30
0.0
 40
0.471011
 50
303.07913000000002
 51
322.89422400000001
  0
ARC
  5
16E
  8
0
 62
     7
 10
145.12861599999999
 20
124.340086
 30
0.0
 40
0.9530420000000001
 50
290.28320600000001
 51
304.30105200000003
  0
ARC
  5
16F
  8
0
 62
     7
 10
144.84109900000001
 20
125.04294400000001
 30
0.0
 40
1.712184999999999
 50
280.90022900000002
 51
291.15449000000001
  0
ARC
  5
170
  8
0
 62
     7
 10
144.66791499999999
 20
125.844172
 30
0.0
 40
2.5317739999999991
 50
269.59770400000002
 51
281.31996299999997
  0
ARC
  5
171
  8
0
 62
     7
 10
144.650294
 20
125.93541999999999
 30
0.0
 40
2.6229589999999989
 50
255.06613900000011
 51
269.99661900000012
  0
ARC
  5
172
  8
0
 62
     7
 10
144.37065999999999
 20
124.781693
 30
0.0
 40
1.4363950000000001
 50
243.27662100000001
 51
253.983836
  0
ARC
  5
173
  8
0
 62
     7
 10
144.066137
 20
124.165347
 30
0.0
 40
0.7489600000000002
 50
227.65391500000001
 51
242.88150200000001
  0
ARC
  5
174
  8
0
 62
     7
 10
143.81036700000001
 20
123.87587499999999
 30
0.0
 40
0.362775
 50
204.84090399999999
 51
226.713742
  0
ARC
  5
175
  8
0
 62
     7
 10
143.69030799999999
 20
123.813506
 30
0.0
 40
0.227706
 50
180.37831800000001
 51
203.290154
  0
LINE
  5
176
  8
0
 62
     7
 10
69.686499999999995
 20
145.56200000000001
 30
0.0
 11
69.998900000000006
 21
145.56200000000001
 31
0.0
  0
ARC
  5
177
  8
0
 62
     7
 10
69.389386999999999
 20
145.06071900000001
 30
0.0
 40
0.390581
 50
139.108858
 51
179.786462
  0
ARC
  5
178
  8
0
 62
     7
 10
69.551918000000001
 20
144.93921499999999
 30
0.0
 40
0.593164
 50
114.18278599999999
 51
140.51397299999999
  0
ARC
  5
179
  8
0
 62
     7
 10
69.674351999999999
 20
144.70881499999999
 30
0.0
 40
0.853677
 50
89.187741000000003
 51
115.34442900000001
  0
ARC
  5
17A
  8
0
 62
     7
 10
69.685582999999994
 20
144.655867
 30
0.0
 40
0.906539
 50
63.422173999999998
 51
89.944925999999995
  0
ARC
  5
17B
  8
0
 62
     7
 10
69.800706999999974
 20
144.914108
 30
0.0
 40
0.6242060000000002
 50
37.63783200000001
 51
62.26722500000001
  0
ARC
  5
17C
  8
0
 62
     7
 10
69.962831000000008
 20
145.05261300000001
 30
0.0
 40
0.4113800000000001
 50
1.331779
 51
36.150643000000002
  0
LINE
  5
17D
  8
0
 62
     7
 10
68.998800000000003
 20
145.06200000000001
 30
0.0
 11
68.998800000000003
 21
143.06299999999999
 31
0.0
  0
LINE
  5
17E
  8
0
 62
     7
 10
73.811300000000003
 20
145.56200000000001
 30
0.0
 11
73.498800000000003
 21
145.56200000000001
 31
0.0
  0
ARC
  5
17F
  8
0
 62
     7
 10
74.108109999999996
 20
145.06071900000001
 30
0.0
 40
0.390831
 50
0.213344
 51
40.859383999999999
  0
ARC
  5
180
  8
0
 62
     7
 10
73.946022999999997
 20
144.93946800000001
 30
0.0
 40
0.592916
 50
39.474156000000001
 51
65.811036999999985
  0
ARC
  5
181
  8
0
 62
     7
 10
73.823534999999993
 20
144.708789
 30
0.0
 40
0.8537049999999998
 50
64.655658000000003
 51
90.821626000000009
  0
ARC
  5
182
  8
0
 62
     7
 10
73.812162000000001
 20
144.65637799999999
 30
0.0
 40
0.9060279999999999
 50
90.054947000000013
 51
116.585431
  0
ARC
  5
183
  8
0
 62
     7
 10
73.69709300000001
 20
144.91462100000001
 30
0.0
 40
0.623721
 50
117.74932800000001
 51
142.38732999999999
  0
ARC
  5
184
  8
0
 62
     7
 10
73.535310999999993
 20
145.05270400000001
 30
0.0
 40
0.411428
 50
143.86981800000001
 51
178.68094400000001
  0
ARC
  5
185
  8
0
 62
     7
 10
72.914986999999996
 20
145.060982
 30
0.0
 40
0.209009
 50
0.326983
 51
41.373313000000003
  0
ARC
  5
186
  8
0
 62
     7
 10
72.707914000000002
 20
144.90689699999999
 30
0.0
 40
0.466728
 50
38.765084999999999
 51
58.754525999999998
  0
ARC
  5
187
  8
0
 62
     7
 10
72.389381
 20
144.43016900000001
 30
0.0
 40
1.039833999999999
 50
57.374172999999999
 51
70.712171999999995
  0
ARC
  5
188
  8
0
 62
     7
 10
72.035569999999993
 20
143.51641699999999
 30
0.0
 40
2.0194229999999989
 50
69.800607999999997
 51
79.055902000000017
  0
ARC
  5
189
  8
0
 62
     7
 10
71.779426000000001
 20
142.30703399999999
 30
0.0
 40
3.2555139999999989
 50
78.67076800000001
 51
90.534678999999997
  0
ARC
  5
18A
  8
0
 62
     7
 10
71.749024000000006
 20
142.071044
 30
0.0
 40
3.491360999999999
 50
89.999628000000001
 51
102.951464
  0
ARC
  5
18B
  8
0
 62
     7
 10
71.408807999999993
 20
143.69202799999999
 30
0.0
 40
1.8356380000000001
 50
103.942318
 51
113.47613
  0
ARC
  5
18C
  8
0
 62
     7
 10
71.040993999999984
 20
144.55353600000001
 30
0.0
 40
0.8989349999999999
 50
113.84762499999999
 51
127.359081
  0
ARC
  5
18D
  8
0
 62
     7
 10
70.737232999999989
 20
144.95979500000001
 30
0.0
 40
0.391729
 50
128.101675
 51
149.79487499999999
  0
ARC
  5
18E
  8
0
 62
     7
 10
70.581823999999983
 20
145.05877699999999
 30
0.0
 40
0.207752
 50
151.824613
 51
179.063042
  0
LINE
  5
18F
  8
0
 62
     7
 10
74.498900000000006
 20
145.06200000000001
 30
0.0
 11
74.498900000000006
 21
143.06299999999999
 31
0.0
  0
LINE
  5
190
  8
0
 62
     7
 10
73.123999999999995
 20
145.06200000000001
 30
0.0
 11
73.123999999999995
 21
143.06299999999999
 31
0.0
  0
LINE
  5
191
  8
0
 62
     7
 10
70.374099999999999
 20
145.06200000000001
 30
0.0
 11
70.374099999999999
 21
143.06299999999999
 31
0.0
  0
LINE
  5
192
  8
0
 62
     7
 10
73.498800000000003
 20
146.31200000000001
 30
0.0
 11
69.998900000000006
 21
146.31200000000001
 31
0.0
  0
LINE
  5
193
  8
0
 62
     7
 10
69.998900000000006
 20
146.31200000000001
 30
0.0
 11
69.998900000000006
 21
145.56200000000001
 31
0.0
  0
LINE
  5
194
  8
0
 62
     7
 10
69.998900000000006
 20
145.56200000000001
 30
0.0
 11
73.498800000000003
 21
145.56200000000001
 31
0.0
  0
LINE
  5
195
  8
0
 62
     7
 10
73.498800000000003
 20
145.56200000000001
 30
0.0
 11
73.498800000000003
 21
146.31200000000001
 31
0.0
  0
LINE
  5
196
  8
0
 62
     7
 10
74.998800000000003
 20
143.06299999999999
 30
0.0
 11
68.498900000000006
 21
143.06299999999999
 31
0.0
  0
LINE
  5
197
  8
0
 62
     7
 10
68.498900000000006
 20
143.06299999999999
 30
0.0
 11
68.498900000000006
 21
142.56200000000001
 31
0.0
  0
LINE
  5
198
  8
0
 62
     7
 10
68.498900000000006
 20
142.56200000000001
 30
0.0
 11
74.998800000000003
 21
142.56200000000001
 31
0.0
  0
LINE
  5
199
  8
0
 62
     7
 10
74.998800000000003
 20
142.56200000000001
 30
0.0
 11
74.998800000000003
 21
143.06299999999999
 31
0.0
  0
LINE
  5
19A
  8
0
 62
     7
 10
60.936500000000002
 20
145.56200000000001
 30
0.0
 11
61.248699999999999
 21
145.56200000000001
 31
0.0
  0
ARC
  5
19B
  8
0
 62
     7
 10
60.639727000000001
 20
145.06071900000001
 30
0.0
 40
0.39083
 50
139.14057700000001
 51
179.78665599999999
  0
ARC
  5
19C
  8
0
 62
     7
 10
60.801815000000012
 20
144.93946800000001
 30
0.0
 40
0.592916
 50
114.18894299999999
 51
140.525825
  0
ARC
  5
19D
  8
0
 62
     7
 10
60.924303000000002
 20
144.708789
 30
0.0
 40
0.8537049999999998
 50
89.178354999999996
 51
115.34432200000001
  0
ARC
  5
19E
  8
0
 62
     7
 10
60.935676000000001
 20
144.65637799999999
 30
0.0
 40
0.9060279999999999
 50
63.414548999999987
 51
89.945032999999995
  0
ARC
  5
19F
  8
0
 62
     7
 10
61.050744999999992
 20
144.91462100000001
 30
0.0
 40
0.623721
 50
37.612650000000002
 51
62.250652000000002
  0
ARC
  5
1A0
  8
0
 62
     7
 10
61.212527000000001
 20
145.05270400000001
 30
0.0
 40
0.411428
 50
1.3190360000000001
 51
36.130161999999999
  0
LINE
  5
1A1
  8
0
 62
     7
 10
60.248899999999999
 20
145.06200000000001
 30
0.0
 11
60.248899999999999
 21
143.06299999999999
 31
0.0
  0
LINE
  5
1A2
  8
0
 62
     7
 10
65.061400000000006
 20
145.56200000000001
 30
0.0
 11
64.748900000000006
 21
145.56200000000001
 31
0.0
  0
ARC
  5
1A3
  8
0
 62
     7
 10
65.357823999999994
 20
145.06071900000001
 30
0.0
 40
0.390864
 50
0.213318
 51
40.855153999999999
  0
ARC
  5
1A4
  8
0
 62
     7
 10
65.195875999999998
 20
144.93970400000001
 30
0.0
 40
0.5926930000000001
 50
39.462372000000002
 51
65.803418999999991
  0
ARC
  5
1A5
  8
0
 62
     7
 10
65.073543000000001
 20
144.70955699999999
 30
0.0
 40
0.852936
 50
64.644221999999999
 51
90.816781999999975
  0
ARC
  5
1A6
  8
0
 62
     7
 10
65.062255000000007
 20
144.655867
 30
0.0
 40
0.906539
 50
90.055054000000027
 51
116.577806
  0
ARC
  5
1A7
  8
0
 62
     7
 10
64.947130999999999
 20
144.914108
 30
0.0
 40
0.6242060000000002
 50
117.732755
 51
142.36214799999999
  0
ARC
  5
1A8
  8
0
 62
     7
 10
64.785006999999993
 20
145.05261300000001
 30
0.0
 40
0.4113800000000001
 50
143.84933699999999
 51
178.66820100000001
  0
ARC
  5
1A9
  8
0
 62
     7
 10
64.164732999999984
 20
145.060982
 30
0.0
 40
0.209009
 50
0.326983
 51
41.373313000000003
  0
ARC
  5
1AA
  8
0
 62
     7
 10
63.957659999999997
 20
144.90689699999999
 30
0.0
 40
0.466728
 50
38.765084999999999
 51
58.754525999999998
  0
ARC
  5
1AB
  8
0
 62
     7
 10
63.639127999999999
 20
144.43016900000001
 30
0.0
 40
1.039833999999999
 50
57.374172999999999
 51
70.712171999999995
  0
ARC
  5
1AC
  8
0
 62
     7
 10
63.285316999999999
 20
143.51641699999999
 30
0.0
 40
2.0194229999999989
 50
69.800607999999997
 51
79.055902000000017
  0
ARC
  5
1AD
  8
0
 62
     7
 10
63.029173
 20
142.30703399999999
 30
0.0
 40
3.2555139999999989
 50
78.67076800000001
 51
90.534678999999997
  0
ARC
  5
1AE
  8
0
 62
     7
 10
62.998778000000001
 20
142.072306
 30
0.0
 40
3.4900999999999991
 50
89.999751000000003
 51
102.95381399999999
  0
ARC
  5
1AF
  8
0
 62
     7
 10
62.658971000000001
 20
143.690922
 30
0.0
 40
1.8367759999999991
 50
103.94204499999999
 51
113.471215
  0
ARC
  5
1B0
  8
0
 62
     7
 10
62.28607499999999
 20
144.56322599999999
 30
0.0
 40
0.888142
 50
113.818684
 51
128.062206
  0
ARC
  5
1B1
  8
0
 62
     7
 10
61.978147
 20
144.96695
 30
0.0
 40
0.380486
 50
129.03475
 51
150.05568
  0
ARC
  5
1B2
  8
0
 62
     7
 10
61.831338000000002
 20
145.058807
 30
0.0
 40
0.207519
 50
151.799284
 51
179.070064
  0
LINE
  5
1B3
  8
0
 62
     7
 10
65.748699999999999
 20
145.06200000000001
 30
0.0
 11
65.748699999999999
 21
143.06299999999999
 31
0.0
  0
LINE
  5
1B4
  8
0
 62
     7
 10
64.373699999999999
 20
145.06200000000001
 30
0.0
 11
64.373699999999999
 21
143.06299999999999
 31
0.0
  0
LINE
  5
1B5
  8
0
 62
     7
 10
61.623800000000003
 20
145.06200000000001
 30
0.0
 11
61.623800000000003
 21
143.06299999999999
 31
0.0
  0
LINE
  5
1B6
  8
0
 62
     7
 10
64.748900000000006
 20
146.31200000000001
 30
0.0
 11
61.248699999999999
 21
146.31200000000001
 31
0.0
  0
LINE
  5
1B7
  8
0
 62
     7
 10
61.248699999999999
 20
146.31200000000001
 30
0.0
 11
61.248699999999999
 21
145.56200000000001
 31
0.0
  0
LINE
  5
1B8
  8
0
 62
     7
 10
61.248699999999999
 20
145.56200000000001
 30
0.0
 11
64.748900000000006
 21
145.56200000000001
 31
0.0
  0
LINE
  5
1B9
  8
0
 62
     7
 10
64.748900000000006
 20
145.56200000000001
 30
0.0
 11
64.748900000000006
 21
146.31200000000001
 31
0.0
  0
LINE
  5
1BA
  8
0
 62
     7
 10
66.248900000000006
 20
143.06299999999999
 30
0.0
 11
59.748699999999999
 21
143.06299999999999
 31
0.0
  0
LINE
  5
1BB
  8
0
 62
     7
 10
59.748699999999999
 20
143.06299999999999
 30
0.0
 11
59.748699999999999
 21
142.56200000000001
 31
0.0
  0
LINE
  5
1BC
  8
0
 62
     7
 10
59.748699999999999
 20
142.56200000000001
 30
0.0
 11
66.248900000000006
 21
142.56200000000001
 31
0.0
  0
LINE
  5
1BD
  8
0
 62
     7
 10
66.248900000000006
 20
142.56200000000001
 30
0.0
 11
66.248900000000006
 21
143.06299999999999
 31
0.0
  0
LINE
  5
1BE
  8
0
 62
     7
 10
69.686499999999995
 20
123.312
 30
0.0
 11
69.998900000000006
 21
123.312
 31
0.0
  0
ARC
  5
1BF
  8
0
 62
     7
 10
69.38809599999999
 20
123.81347100000001
 30
0.0
 40
0.38929
 50
180.21622199999999
 51
220.961962
  0
ARC
  5
1C0
  8
0
 62
     7
 10
69.551681000000002
 20
123.93568
 30
0.0
 40
0.593124
 50
219.51719900000001
 51
245.84050500000001
  0
ARC
  5
1C1
  8
0
 62
     7
 10
69.674208999999991
 20
124.165696
 30
0.0
 40
0.8533239999999999
 50
244.65498700000001
 51
270.822204
  0
ARC
  5
1C2
  8
0
 62
     7
 10
69.685581999999997
 20
124.21936700000001
 30
0.0
 40
0.9069069999999999
 50
270.05511100000001
 51
296.56624299999999
  0
ARC
  5
1C3
  8
0
 62
     7
 10
69.800854999999999
 20
123.96097
 30
0.0
 40
0.624362
 50
297.70982500000002
 51
322.32124399999998
  0
ARC
  5
1C4
  8
0
 62
     7
 10
69.96363199999999
 20
123.82176200000001
 30
0.0
 40
0.410583
 50
323.81192099999998
 51
358.63791099999997
  0
LINE
  5
1C5
  8
0
 62
     7
 10
68.998800000000003
 20
123.812
 30
0.0
 11
68.998800000000003
 21
125.812
 31
0.0
  0
LINE
  5
1C6
  8
0
 62
     7
 10
73.811300000000003
 20
123.312
 30
0.0
 11
73.498800000000003
 21
123.312
 31
0.0
  0
ARC
  5
1C7
  8
0
 62
     7
 10
74.109403
 20
123.81347100000001
 30
0.0
 40
0.389538
 50
319.069841
 51
359.783975
  0
ARC
  5
1C8
  8
0
 62
     7
 10
73.946259999999995
 20
123.935427
 30
0.0
 40
0.5928760000000001
 50
294.16566499999999
 51
320.49467399999997
  0
ARC
  5
1C9
  8
0
 62
     7
 10
73.823678000000001
 20
124.165723
 30
0.0
 40
0.8533519999999999
 50
269.16843299999999
 51
295.34492499999999
  0
ARC
  5
1CA
  8
0
 62
     7
 10
73.812162999999998
 20
124.218856
 30
0.0
 40
0.9063969999999999
 50
243.42615499999999
 51
269.94501600000001
  0
ARC
  5
1CB
  8
0
 62
     7
 10
73.696943999999988
 20
123.96045599999999
 30
0.0
 40
0.623876
 50
217.65359100000001
 51
242.2736330000001
  0
ARC
  5
1CC
  8
0
 62
     7
 10
73.534509
 20
123.82167200000001
 30
0.0
 40
0.41063
 50
181.349323
 51
216.167609
  0
ARC
  5
1CD
  8
0
 62
     7
 10
72.915755000000004
 20
123.81320599999999
 30
0.0
 40
0.20824
 50
318.54686500000003
 51
359.66878300000002
  0
ARC
  5
1CE
  8
0
 62
     7
 10
72.708112999999997
 20
123.96799799999999
 30
0.0
 40
0.4668340000000001
 50
301.20898599999998
 51
321.17972099999997
  0
ARC
  5
1CF
  8
0
 62
     7
 10
72.389565000000005
 20
124.445305
 30
0.0
 40
1.040429
 50
289.26566000000003
 51
302.59286900000001
  0
ARC
  5
1D0
  8
0
 62
     7
 10
72.034939000000008
 20
125.36184799999999
 30
0.0
 40
2.0229119999999989
 50
280.94318399999997
 51
290.18206900000001
  0
ARC
  5
1D1
  8
0
 62
     7
 10
71.779044999999996
 20
126.573493
 30
0.0
 40
3.261171
 50
269.472938
 51
281.31614000000002
  0
ARC
  5
1D2
  8
0
 62
     7
 10
71.749026000000001
 20
126.80508399999999
 30
0.0
 40
3.492623
 50
257.05325099999999
 51
270.00032700000003
  0
ARC
  5
1D3
  8
0
 62
     7
 10
71.408687
 20
125.184117
 30
0.0
 40
1.836881999999999
 50
246.544828
 51
256.07119699999998
  0
ARC
  5
1D4
  8
0
 62
     7
 10
71.036090999999985
 20
124.311966
 30
0.0
 40
0.8885059999999999
 50
231.97118800000001
 51
246.200819
  0
ARC
  5
1D5
  8
0
 62
     7
 10
70.728257999999997
 20
123.907793
 30
0.0
 40
0.380552
 50
209.99944199999999
 51
230.99035599999999
  0
ARC
  5
1D6
  8
0
 62
     7
 10
70.581209000000001
 20
123.81546299999999
 30
0.0
 40
0.207138
 50
180.95720800000001
 51
208.21865500000001
  0
LINE
  5
1D7
  8
0
 62
     7
 10
74.498900000000006
 20
123.812
 30
0.0
 11
74.498900000000006
 21
125.812
 31
0.0
  0
LINE
  5
1D8
  8
0
 62
     7
 10
73.123999999999995
 20
123.812
 30
0.0
 11
73.123999999999995
 21
125.812
 31
0.0
  0
LINE
  5
1D9
  8
0
 62
     7
 10
70.374099999999999
 20
123.812
 30
0.0
 11
70.374099999999999
 21
125.812
 31
0.0
  0
LINE
  5
1DA
  8
0
 62
     7
 10
73.498800000000003
 20
122.562
 30
0.0
 11
69.998900000000006
 21
122.562
 31
0.0
  0
LINE
  5
1DB
  8
0
 62
     7
 10
69.998900000000006
 20
122.562
 30
0.0
 11
69.998900000000006
 21
123.312
 31
0.0
  0
LINE
  5
1DC
  8
0
 62
     7
 10
69.998900000000006
 20
123.312
 30
0.0
 11
73.498800000000003
 21
123.312
 31
0.0
  0
LINE
  5
1DD
  8
0
 62
     7
 10
73.498800000000003
 20
123.312
 30
0.0
 11
73.498800000000003
 21
122.562
 31
0.0
  0
LINE
  5
1DE
  8
0
 62
     7
 10
74.998800000000003
 20
125.812
 30
0.0
 11
68.498900000000006
 21
125.812
 31
0.0
  0
LINE
  5
1DF
  8
0
 62
     7
 10
68.498900000000006
 20
125.812
 30
0.0
 11
68.498900000000006
 21
126.312
 31
0.0
  0
LINE
  5
1E0
  8
0
 62
     7
 10
68.498900000000006
 20
126.312
 30
0.0
 11
74.998800000000003
 21
126.312
 31
0.0
  0
LINE
  5
1E1
  8
0
 62
     7
 10
74.998800000000003
 20
126.312
 30
0.0
 11
74.998800000000003
 21
125.812
 31
0.0
  0
LINE
  5
1E2
  8
0
 62
     7
 10
60.936500000000002
 20
123.312
 30
0.0
 11
61.248699999999999
 21
123.312
 31
0.0
  0
ARC
  5
1E3
  8
0
 62
     7
 10
60.638435000000001
 20
123.81347100000001
 30
0.0
 40
0.389538
 50
180.216025
 51
220.93019799999999
  0
ARC
  5
1E4
  8
0
 62
     7
 10
60.801578000000013
 20
123.935427
 30
0.0
 40
0.5928760000000001
 50
219.505346
 51
245.8343549999999
  0
ARC
  5
1E5
  8
0
 62
     7
 10
60.924160000000001
 20
124.165723
 30
0.0
 40
0.8533519999999999
 50
244.65509499999999
 51
270.83158700000001
  0
ARC
  5
1E6
  8
0
 62
     7
 10
60.935675000000003
 20
124.218856
 30
0.0
 40
0.9063969999999999
 50
270.055004
 51
296.57386500000001
  0
ARC
  5
1E7
  8
0
 62
     7
 10
61.050893999999992
 20
123.96045599999999
 30
0.0
 40
0.623876
 50
297.72638699999999
 51
322.346429
  0
ARC
  5
1E8
  8
0
 62
     7
 10
61.213329000000002
 20
123.82167200000001
 30
0.0
 40
0.41063
 50
323.83241099999998
 51
358.65069599999998
  0
LINE
  5
1E9
  8
0
 62
     7
 10
60.248899999999999
 20
123.812
 30
0.0
 11
60.248899999999999
 21
125.812
 31
0.0
  0
LINE
  5
1EA
  8
0
 62
     7
 10
65.061400000000006
 20
123.312
 30
0.0
 11
64.748900000000006
 21
123.312
 31
0.0
  0
ARC
  5
1EB
  8
0
 62
     7
 10
65.359116
 20
123.81347100000001
 30
0.0
 40
0.389571
 50
319.07407699999999
 51
359.78400099999999
  0
ARC
  5
1EC
  8
0
 62
     7
 10
65.196112999999997
 20
123.935191
 30
0.0
 40
0.5926520000000001
 50
294.17327599999999
 51
320.50645900000001
  0
ARC
  5
1ED
  8
0
 62
     7
 10
65.073685999999995
 20
124.16495500000001
 30
0.0
 40
0.8525829999999999
 50
269.173271
 51
295.35636099999999
  0
ARC
  5
1EE
  8
0
 62
     7
 10
65.062256000000005
 20
124.21936700000001
 30
0.0
 40
0.9069069999999999
 50
243.43377699999999
 51
269.944908
  0
ARC
  5
1EF
  8
0
 62
     7
 10
64.946982999999989
 20
123.96097
 30
0.0
 40
0.624362
 50
217.678775
 51
242.29019500000001
  0
ARC
  5
1F0
  8
0
 62
     7
 10
64.784206000000012
 20
123.82176200000001
 30
0.0
 40
0.410583
 50
181.362109
 51
216.18809899999999
  0
ARC
  5
1F1
  8
0
 62
     7
 10
64.165502000000004
 20
123.81320599999999
 30
0.0
 40
0.20824
 50
318.54686500000003
 51
359.66878300000002
  0
ARC
  5
1F2
  8
0
 62
     7
 10
63.957859999999997
 20
123.96799799999999
 30
0.0
 40
0.4668340000000001
 50
301.20898599999998
 51
321.17972099999997
  0
ARC
  5
1F3
  8
0
 62
     7
 10
63.63931199999999
 20
124.445305
 30
0.0
 40
1.040429
 50
289.26566000000003
 51
302.59286900000001
  0
ARC
  5
1F4
  8
0
 62
     7
 10
63.284686000000001
 20
125.36184799999999
 30
0.0
 40
2.0229119999999989
 50
280.94318399999997
 51
290.18206900000001
  0
ARC
  5
1F5
  8
0
 62
     7
 10
63.028792000000003
 20
126.573493
 30
0.0
 40
3.261171
 50
269.472938
 51
281.31614000000002
  0
ARC
  5
1F6
  8
0
 62
     7
 10
62.998781000000001
 20
126.803822
 30
0.0
 40
3.491360999999999
 50
257.0509009999999
 51
270.000203
  0
ARC
  5
1F7
  8
0
 62
     7
 10
62.658850000000001
 20
125.18522400000001
 30
0.0
 40
1.838020999999999
 50
246.54973899999999
 51
256.07147000000009
  0
ARC
  5
1F8
  8
0
 62
     7
 10
62.286214000000001
 20
124.312676
 30
0.0
 40
0.8892649999999999
 50
231.982992
 51
246.20340999999999
  0
ARC
  5
1F9
  8
0
 62
     7
 10
61.977913000000001
 20
123.907786
 30
0.0
 40
0.380455
 50
210.00669300000001
 51
231.00678600000001
  0
ARC
  5
1FA
  8
0
 62
     7
 10
61.830722999999999
 20
123.815433
 30
0.0
 40
0.206906
 50
180.9501909999999
 51
208.24401499999999
  0
LINE
  5
1FB
  8
0
 62
     7
 10
148.21199999999999
 20
123.812
 30
0.0
 11
148.21199999999999
 21
125.812
 31
0.0
  0
LINE
  5
1FC
  8
0
 62
     7
 10
143.46299999999999
 20
123.812
 30
0.0
 11
143.46299999999999
 21
125.812
 31
0.0
  0
LINE
  5
1FD
  8
0
 62
     7
 10
145.83799999999999
 20
123.812
 30
0.0
 11
145.83799999999999
 21
125.812
 31
0.0
  0
LINE
  5
1FE
  8
0
 62
     7
 10
147.58699999999999
 20
122.562
 30
0.0
 11
144.08799999999999
 21
122.562
 31
0.0
  0
LINE
  5
1FF
  8
0
 62
     7
 10
144.08799999999999
 20
122.562
 30
0.0
 11
144.08799999999999
 21
123.312
 31
0.0
  0
LINE
  5
200
  8
0
 62
     7
 10
144.08799999999999
 20
123.312
 30
0.0
 11
147.58699999999999
 21
123.312
 31
0.0
  0
LINE
  5
201
  8
0
 62
     7
 10
147.58699999999999
 20
123.312
 30
0.0
 11
147.58699999999999
 21
122.562
 31
0.0
  0
LINE
  5
202
  8
0
 62
     7
 10
149.08699999999999
 20
125.812
 30
0.0
 11
142.58799999999999
 21
125.812
 31
0.0
  0
LINE
  5
203
  8
0
 62
     7
 10
142.58799999999999
 20
125.812
 30
0.0
 11
142.58799999999999
 21
126.312
 31
0.0
  0
LINE
  5
204
  8
0
 62
     7
 10
142.58799999999999
 20
126.312
 30
0.0
 11
149.08699999999999
 21
126.312
 31
0.0
  0
LINE
  5
205
  8
0
 62
     7
 10
149.08699999999999
 20
126.312
 30
0.0
 11
149.08699999999999
 21
125.812
 31
0.0
  0
LINE
  5
206
  8
0
 62
     7
 10
65.748699999999999
 20
123.812
 30
0.0
 11
65.748699999999999
 21
125.812
 31
0.0
  0
LINE
  5
207
  8
0
 62
     7
 10
64.373699999999999
 20
123.812
 30
0.0
 11
64.373699999999999
 21
125.812
 31
0.0
  0
LINE
  5
208
  8
0
 62
     7
 10
61.623800000000003
 20
123.812
 30
0.0
 11
61.623800000000003
 21
125.812
 31
0.0
  0
LINE
  5
209
  8
0
 62
     7
 10
64.748900000000006
 20
122.562
 30
0.0
 11
61.248699999999999
 21
122.562
 31
0.0
  0
LINE
  5
20A
  8
0
 62
     7
 10
61.248699999999999
 20
122.562
 30
0.0
 11
61.248699999999999
 21
123.312
 31
0.0
  0
LINE
  5
20B
  8
0
 62
     7
 10
61.248699999999999
 20
123.312
 30
0.0
 11
64.748900000000006
 21
123.312
 31
0.0
  0
LINE
  5
20C
  8
0
 62
     7
 10
64.748900000000006
 20
123.312
 30
0.0
 11
64.748900000000006
 21
122.562
 31
0.0
  0
LINE
  5
20D
  8
0
 62
     7
 10
66.248900000000006
 20
125.812
 30
0.0
 11
59.748699999999999
 21
125.812
 31
0.0
  0
LINE
  5
20E
  8
0
 62
     7
 10
59.748699999999999
 20
125.812
 30
0.0
 11
59.748699999999999
 21
126.312
 31
0.0
  0
LINE
  5
20F
  8
0
 62
     7
 10
59.748699999999999
 20
126.312
 30
0.0
 11
66.248900000000006
 21
126.312
 31
0.0
  0
LINE
  5
210
  8
0
 62
     7
 10
66.248900000000006
 20
126.312
 30
0.0
 11
66.248900000000006
 21
125.812
 31
0.0
  0
LINE
  5
211
  8
0
 62
     7
 10
149.55699999999999
 20
173.59100000000001
 30
0.0
 11
149.55699999999999
 21
169.46600000000001
 31
0.0
  0
LINE
  5
212
  8
0
 62
     7
 10
149.55699999999999
 20
169.46600000000001
 30
0.0
 11
149.30600000000001
 21
169.21600000000001
 31
0.0
  0
LINE
  5
213
  8
0
 62
     7
 10
149.30600000000001
 20
169.21600000000001
 30
0.0
 11
142.30699999999999
 21
169.21600000000001
 31
0.0
  0
LINE
  5
214
  8
0
 62
     7
 10
142.30699999999999
 20
169.21600000000001
 30
0.0
 11
142.05799999999999
 21
169.46600000000001
 31
0.0
  0
LINE
  5
215
  8
0
 62
     7
 10
149.30600000000001
 20
173.59100000000001
 30
0.0
 11
149.30600000000001
 21
169.21600000000001
 31
0.0
  0
LINE
  5
216
  8
0
 62
     7
 10
149.30600000000001
 20
181.947
 30
0.0
 11
149.30600000000001
 21
176.71600000000001
 31
0.0
  0
LINE
  5
217
  8
0
 62
     7
 10
149.55600000000001
 20
176.71600000000001
 30
0.0
 11
149.55600000000001
 21
181.947
 31
0.0
  0
LINE
  5
218
  8
0
 62
     7
 10
142.30600000000001
 20
181.947
 30
0.0
 11
142.30600000000001
 21
176.71600000000001
 31
0.0
  0
LINE
  5
219
  8
0
 62
     7
 10
142.05600000000001
 20
176.71600000000001
 30
0.0
 11
142.05600000000001
 21
181.947
 31
0.0
  0
LINE
  5
21A
  8
0
 62
     7
 10
149.30600000000001
 20
176.09099999999989
 30
0.0
 11
149.30600000000001
 21
174.84099999999989
 31
0.0
  0
LINE
  5
21B
  8
0
 62
     7
 10
149.55600000000001
 20
174.84099999999989
 30
0.0
 11
149.55600000000001
 21
176.09099999999989
 31
0.0
  0
LINE
  5
21C
  8
0
 62
     7
 10
142.30600000000001
 20
176.09099999999989
 30
0.0
 11
142.30600000000001
 21
174.84099999999989
 31
0.0
  0
LINE
  5
21D
  8
0
 62
     7
 10
142.05600000000001
 20
174.84099999999989
 30
0.0
 11
142.05600000000001
 21
176.09099999999989
 31
0.0
  0
LINE
  5
21E
  8
0
 62
     7
 10
142.30600000000001
 20
173.59100000000001
 30
0.0
 11
142.30600000000001
 21
169.21600000000001
 31
0.0
  0
LINE
  5
21F
  8
0
 62
     7
 10
142.05600000000001
 20
169.46600000000001
 30
0.0
 11
142.05600000000001
 21
173.59100000000001
 31
0.0
  0
LINE
  5
220
  8
0
 62
     7
 10
142.05600000000001
 20
169.46600000000001
 30
0.0
 11
149.55600000000001
 21
169.46600000000001
 31
0.0
  0
LINE
  5
221
  8
0
 62
     7
 10
145.21299999999999
 20
172.34
 30
0.0
 11
145.21299999999999
 21
173.59100000000001
 31
0.0
  0
LINE
  5
222
  8
0
 62
     7
 10
146.46299999999999
 20
172.34
 30
0.0
 11
146.46299999999999
 21
173.59100000000001
 31
0.0
  0
LINE
  5
223
  8
0
 62
     7
 10
145.21299999999999
 20
174.84
 30
0.0
 11
145.21299999999999
 21
176.09
 31
0.0
  0
LINE
  5
224
  8
0
 62
     7
 10
146.46299999999999
 20
174.84
 30
0.0
 11
146.46299999999999
 21
176.09
 31
0.0
  0
LINE
  5
225
  8
0
 62
     7
 10
144.78800000000001
 20
171.09
 30
0.0
 11
144.78800000000001
 21
172.34
 31
0.0
  0
LINE
  5
226
  8
0
 62
     7
 10
144.78800000000001
 20
172.34
 30
0.0
 11
146.88800000000001
 21
172.34
 31
0.0
  0
LINE
  5
227
  8
0
 62
     7
 10
146.88800000000001
 20
172.34
 30
0.0
 11
146.88800000000001
 21
171.09
 31
0.0
  0
LINE
  5
228
  8
0
 62
     7
 10
146.88800000000001
 20
171.09
 30
0.0
 11
144.78800000000001
 21
171.09
 31
0.0
  0
LINE
  5
229
  8
0
 62
     7
 10
139.58799999999999
 20
173.59100000000001
 30
0.0
 11
139.58799999999999
 21
174.84
 31
0.0
  0
LINE
  5
22A
  8
0
 62
     7
 10
139.58799999999999
 20
174.84
 30
0.0
 11
152.08799999999999
 21
174.84
 31
0.0
  0
LINE
  5
22B
  8
0
 62
     7
 10
152.08799999999999
 20
174.84
 30
0.0
 11
152.08799999999999
 21
173.59100000000001
 31
0.0
  0
LINE
  5
22C
  8
0
 62
     7
 10
152.08799999999999
 20
173.59100000000001
 30
0.0
 11
139.58799999999999
 21
173.59100000000001
 31
0.0
  0
LINE
  5
22D
  8
0
 62
     7
 10
139.58799999999999
 20
176.09
 30
0.0
 11
139.58799999999999
 21
176.465
 31
0.0
  0
LINE
  5
22E
  8
0
 62
     7
 10
139.58799999999999
 20
176.465
 30
0.0
 11
152.08799999999999
 21
176.465
 31
0.0
  0
LINE
  5
22F
  8
0
 62
     7
 10
152.08799999999999
 20
176.465
 30
0.0
 11
152.08799999999999
 21
176.09
 31
0.0
  0
LINE
  5
230
  8
0
 62
     7
 10
152.08799999999999
 20
176.09
 30
0.0
 11
139.58799999999999
 21
176.09
 31
0.0
  0
LINE
  5
231
  8
0
 62
     7
 10
140.33799999999999
 20
176.465
 30
0.0
 11
140.33799999999999
 21
176.71600000000001
 31
0.0
  0
LINE
  5
232
  8
0
 62
     7
 10
140.33799999999999
 20
176.71600000000001
 30
0.0
 11
151.33699999999999
 21
176.71600000000001
 31
0.0
  0
LINE
  5
233
  8
0
 62
     7
 10
151.33699999999999
 20
176.71600000000001
 30
0.0
 11
151.33699999999999
 21
176.465
 31
0.0
  0
LINE
  5
234
  8
0
 62
     7
 10
151.33699999999999
 20
176.465
 30
0.0
 11
140.33799999999999
 21
176.465
 31
0.0
  0
LINE
  5
235
  8
0
 62
     7
 10
134.70400000000001
 20
176.71600000000001
 30
0.0
 11
139.20099999999999
 21
176.71600000000001
 31
0.0
  0
LINE
  5
236
  8
0
 62
     7
 10
135.91300000000001
 20
182.005
 30
0.0
 11
135.321
 21
184.21599999999989
 31
0.0
  0
LINE
  5
237
  8
0
 62
     7
 10
135.321
 20
184.21599999999989
 30
0.0
 11
134.72900000000001
 21
182.005
 31
0.0
  0
LINE
  5
238
  8
0
 62
     7
 10
134.72900000000001
 20
182.005
 30
0.0
 11
135.91300000000001
 21
182.005
 31
0.0
  0
LINE
  5
239
  8
0
 62
     7
 10
134.74299999999999
 20
178.92599999999999
 30
0.0
 11
135.33600000000001
 21
176.71600000000001
 31
0.0
  0
LINE
  5
23A
  8
0
 62
     7
 10
135.33600000000001
 20
176.71600000000001
 30
0.0
 11
135.928
 21
178.92599999999999
 31
0.0
  0
LINE
  5
23B
  8
0
 62
     7
 10
135.928
 20
178.92599999999999
 30
0.0
 11
134.74299999999999
 21
178.92599999999999
 31
0.0
  0
LINE
  5
23C
  8
0
 62
     7
 10
135.321
 20
184.21599999999989
 30
0.0
 11
135.321
 21
176.715
 31
0.0
  0
LINE
  5
23D
  8
0
 62
     7
 10
143.99199999999999
 20
154.65299999999999
 30
0.0
 11
143.99199999999999
 21
153.86199999999999
 31
0.0
  0
LINE
  5
23E
  8
0
 62
     7
 10
143.99199999999999
 20
153.09999999999999
 30
0.0
 11
143.99199999999999
 21
152.965
 31
0.0
  0
LINE
  5
23F
  8
0
 62
     7
 10
143.99199999999999
 20
154.65299999999999
 30
0.0
 11
145.12899999999999
 21
154.65299999999999
 31
0.0
  0
LINE
  5
240
  8
0
 62
     7
 10
144.26499999999999
 20
152.691
 30
0.0
 11
144.26499999999999
 21
150.465
 31
0.0
  0
LINE
  5
241
  8
0
 62
     7
 10
144.26499999999999
 20
152.691
 30
0.0
 11
143.99199999999999
 21
152.965
 31
0.0
  0
LINE
  5
242
  8
0
 62
     7
 10
145.346
 20
152.691
 30
0.0
 11
145.346
 21
150.465
 31
0.0
  0
LINE
  5
243
  8
0
 62
     7
 10
144.95599999999999
 20
152.691
 30
0.0
 11
144.95599999999999
 21
150.465
 31
0.0
  0
LINE
  5
244
  8
0
 62
     7
 10
144.95599999999999
 20
152.691
 30
0.0
 11
144.26499999999999
 21
152.691
 31
0.0
  0
LINE
  5
245
  8
0
 62
     7
 10
145.83799999999999
 20
152.691
 30
0.0
 11
145.346
 21
152.691
 31
0.0
  0
ARC
  5
246
  8
0
 62
     7
 10
144.28225399999999
 20
150.03043199999999
 30
0.0
 40
0.467863
 50
182.07439500000001
 51
267.925635
  0
ARC
  5
247
  8
0
 62
     7
 10
144.28294099999999
 20
149.99659
 30
0.0
 40
0.468549
 50
92.155436999999992
 51
177.932075
  0
LINE
  5
248
  8
0
 62
     7
 10
144.95599999999999
 20
150.465
 30
0.0
 11
144.26499999999999
 21
150.465
 31
0.0
  0
LINE
  5
249
  8
0
 62
     7
 10
145.83799999999999
 20
150.465
 30
0.0
 11
145.346
 21
150.465
 31
0.0
  0
LINE
  5
24A
  8
0
 62
     7
 10
145.83799999999999
 20
149.56299999999999
 30
0.0
 11
144.26499999999999
 21
149.56299999999999
 31
0.0
  0
LINE
  5
24B
  8
0
 62
     7
 10
147.68299999999999
 20
154.65299999999999
 30
0.0
 11
147.68299999999999
 21
152.965
 31
0.0
  0
LINE
  5
24C
  8
0
 62
     7
 10
147.68299999999999
 20
154.65299999999999
 30
0.0
 11
146.22300000000001
 21
154.65299999999999
 31
0.0
  0
LINE
  5
24D
  8
0
 62
     7
 10
147.40899999999999
 20
152.691
 30
0.0
 11
147.40899999999999
 21
150.465
 31
0.0
  0
LINE
  5
24E
  8
0
 62
     7
 10
147.40899999999999
 20
152.691
 30
0.0
 11
147.68299999999999
 21
152.965
 31
0.0
  0
LINE
  5
24F
  8
0
 62
     7
 10
146.32900000000001
 20
152.691
 30
0.0
 11
146.32900000000001
 21
150.465
 31
0.0
  0
LINE
  5
250
  8
0
 62
     7
 10
146.72
 20
152.691
 30
0.0
 11
146.72
 21
150.465
 31
0.0
  0
LINE
  5
251
  8
0
 62
     7
 10
146.72
 20
152.691
 30
0.0
 11
147.40899999999999
 21
152.691
 31
0.0
  0
LINE
  5
252
  8
0
 62
     7
 10
145.83799999999999
 20
152.691
 30
0.0
 11
146.32900000000001
 21
152.691
 31
0.0
  0
ARC
  5
253
  8
0
 62
     7
 10
147.392368
 20
149.996532
 30
0.0
 40
0.468583
 50
2.0748849999999992
 51
87.925105000000016
  0
ARC
  5
254
  8
0
 62
     7
 10
147.39306300000001
 20
150.03048100000001
 30
0.0
 40
0.4678880000000001
 50
271.992727
 51
357.91974199999999
  0
LINE
  5
255
  8
0
 62
     7
 10
146.72
 20
150.465
 30
0.0
 11
147.40899999999999
 21
150.465
 31
0.0
  0
LINE
  5
256
  8
0
 62
     7
 10
145.83799999999999
 20
150.465
 30
0.0
 11
146.32900000000001
 21
150.465
 31
0.0
  0
LINE
  5
257
  8
0
 62
     7
 10
145.83799999999999
 20
149.56299999999999
 30
0.0
 11
147.40899999999999
 21
149.56299999999999
 31
0.0
  0
LINE
  5
258
  8
0
 62
     7
 10
121.419
 20
192.22799999999989
 30
0.0
 11
119.271
 21
191.43899999999999
 31
0.0
  0
LINE
  5
259
  8
0
 62
     7
 10
119.271
 20
191.43899999999999
 30
0.0
 11
121.52500000000001
 21
191.04900000000001
 31
0.0
  0
LINE
  5
25A
  8
0
 62
     7
 10
121.52500000000001
 20
191.04900000000001
 30
0.0
 11
121.419
 21
192.22799999999989
 31
0.0
  0
LINE
  5
25B
  8
0
 62
     7
 10
112.33
 20
194.0
 30
0.0
 11
114.39100000000001
 21
193.005
 31
0.0
  0
LINE
  5
25C
  8
0
 62
     7
 10
114.39100000000001
 20
193.005
 30
0.0
 11
113.104
 21
194.89699999999999
 31
0.0
  0
LINE
  5
25D
  8
0
 62
     7
 10
113.104
 20
194.89699999999999
 30
0.0
 11
112.33
 21
194.0
 31
0.0
  0
ARC
  5
25E
  8
0
 62
     7
 10
119.369259
 20
200.022268
 30
0.0
 40
8.5835210000000011
 50
211.87791899999999
 51
269.34406000000001
  0
ARC
  5
25F
  8
0
 62
     7
 10
119.26476700000001
 20
199.90631499999989
 30
0.0
 40
8.4670070000000006
 50
270.04214000000002
 51
291.21122200000008
  0
ARC
  5
260
  8
0
 62
     7
 10
140.27920599999999
 20
206.27248599999999
 30
0.0
 40
0.7883060000000001
 50
315.08278799999999
 51
328.23670700000002
  0
ARC
  5
261
  8
0
 62
     7
 10
139.59528999999989
 20
206.723747
 30
0.0
 40
1.607515
 50
327.39355699999999
 51
338.079363
  0
ARC
  5
262
  8
0
 62
     7
 10
138.139014
 20
207.35169099999999
 30
0.0
 40
3.193166999999999
 50
337.381621
 51
345.10641099999998
  0
ARC
  5
263
  8
0
 62
     7
 10
135.72889699999999
 20
208.03497100000001
 30
0.0
 40
5.6980820000000003
 50
344.69550400000003
 51
353.20784700000002
  0
ARC
  5
264
  8
0
 62
     7
 10
135.25551399999989
 20
208.14682099999999
 30
0.0
 40
6.1816159999999991
 50
352.69731999999999
 51
359.48203899999999
  0
ARC
  5
265
  8
0
 62
     7
 10
140.27920599999999
 20
209.90904800000001
 30
0.0
 40
0.7883060000000001
 50
31.763293000000001
 51
44.917211999999992
  0
ARC
  5
266
  8
0
 62
     7
 10
139.59479400000001
 20
209.457483
 30
0.0
 40
1.608096999999999
 50
21.924807999999999
 51
32.606048000000001
  0
ARC
  5
267
  8
0
 62
     7
 10
138.13425100000001
 20
208.828247
 30
0.0
 40
3.1981860000000002
 50
14.899659
 51
22.612309
  0
ARC
  5
268
  8
0
 62
     7
 10
135.727585
 20
208.146242
 30
0.0
 40
5.6994379999999989
 50
6.7950979999999994
 51
15.304346000000001
  0
ARC
  5
269
  8
0
 62
     7
 10
135.25708800000001
 20
208.034933
 30
0.0
 40
6.1800439999999996
 50
0.519245
 51
7.3036960000000004
  0
ARC
  5
26A
  8
0
 62
     7
 10
147.879266
 20
146.89633699999999
 30
0.0
 40
0.583974
 50
272.094336
 51
357.90567399999998
  0
ARC
  5
26B
  8
0
 62
     7
 10
147.74518399999999
 20
147.76369199999999
 30
0.0
 40
0.548609
 50
90.174880999999985
 51
124.87169
  0
ARC
  5
26C
  8
0
 62
     7
 10
147.857428
 20
147.58405300000001
 30
0.0
 40
0.760239
 50
124.07144099999999
 51
146.606821
  0
ARC
  5
26D
  8
0
 62
     7
 10
148.13995199999999
 20
147.37946400000001
 30
0.0
 40
1.1088299999999991
 50
145.81527199999999
 51
171.75644700000001
  0
ARC
  5
26E
  8
0
 62
     7
 10
148.39829700000001
 20
147.31426400000001
 30
0.0
 40
1.3741289999999999
 50
170.61036100000001
 51
180.072529
  0
ARC
  5
26F
  8
0
 62
     7
 10
148.35092299999999
 20
147.31297799999999
 30
0.0
 40
1.3267539999999991
 50
180.019576
 51
206.82964999999999
  0
ARC
  5
270
  8
0
 62
     7
 10
147.95009300000001
 20
147.13211699999999
 30
0.0
 40
0.8876579999999998
 50
208.08962099999999
 51
234.878545
  0
ARC
  5
271
  8
0
 62
     7
 10
147.75371200000001
 20
146.88813099999999
 30
0.0
 40
0.575469
 50
236.89597800000001
 51
268.98413199999999
  0
ARC
  5
272
  8
0
 62
     7
 10
147.74183099999999
 20
146.860411
 30
0.0
 40
0.547661
 50
270.17558400000001
 51
304.90284500000001
  0
ARC
  5
273
  8
0
 62
     7
 10
147.62851499999999
 20
147.04189199999999
 30
0.0
 40
0.7614140000000002
 50
304.08200699999998
 51
326.58448099999998
  0
ARC
  5
274
  8
0
 62
     7
 10
147.347385
 20
147.24589700000001
 30
0.0
 40
1.1085279999999991
 50
325.78527500000001
 51
351.73797000000002
  0
ARC
  5
275
  8
0
 62
     7
 10
147.08940000000001
 20
147.310925
 30
0.0
 40
1.3734509999999991
 50
350.59984700000001
 51
0.066769
  0
ARC
  5
276
  8
0
 62
     7
 10
147.1378
 20
147.31207499999999
 30
0.0
 40
1.3250500000000001
 50
0.019469
 51
26.86677700000001
  0
ARC
  5
277
  8
0
 62
     7
 10
147.53607199999999
 20
147.49221600000001
 30
0.0
 40
0.888568
 50
28.110681
 51
54.875420999999989
  0
ARC
  5
278
  8
0
 62
     7
 10
147.73299900000001
 20
147.736896
 30
0.0
 40
0.575498
 50
56.895800999999999
 51
88.953520999999995
  0
LINE
  5
279
  8
0
 62
     7
 10
147.71299999999999
 20
149.56299999999999
 30
0.0
 11
148.262
 21
148.39099999999999
 31
0.0
  0
LINE
  5
27A
  8
0
 62
     7
 10
148.46299999999999
 20
146.875
 30
0.0
 11
148.46299999999999
 21
147.66499999999999
 31
0.0
  0
ARC
  5
27B
  8
0
 62
     7
 10
146.02543800000001
 20
147.31629100000001
 30
0.0
 40
2.4809950000000001
 50
14.658967000000001
 51
25.665400000000002
  0
ARC
  5
27C
  8
0
 62
     7
 10
147.19073599999999
 20
147.63767200000001
 30
0.0
 40
1.2723990000000001
 50
1.2134009999999991
 51
13.937433
  0
LINE
  5
27D
  8
0
 62
     7
 10
143.96299999999999
 20
149.56299999999999
 30
0.0
 11
143.41399999999999
 21
148.39099999999999
 31
0.0
  0
LINE
  5
27E
  8
0
 62
     7
 10
143.21199999999999
 20
146.875
 30
0.0
 11
143.21199999999999
 21
147.66499999999999
 31
0.0
  0
ARC
  5
27F
  8
0
 62
     7
 10
145.58194800000001
 20
147.34023099999999
 30
0.0
 40
2.409389
 50
154.14779999999999
 51
165.483993
  0
ARC
  5
280
  8
0
 62
     7
 10
144.48676499999999
 20
147.63824199999999
 30
0.0
 40
1.274546999999999
 50
166.112922
 51
178.81427299999999
  0
LINE
  5
281
  8
0
 62
     7
 10
143.77500000000001
 20
146.31299999999999
 30
0.0
 11
147.90100000000001
 21
146.31299999999999
 31
0.0
  0
ARC
  5
282
  8
0
 62
     7
 10
143.796066
 20
146.89632700000001
 30
0.0
 40
0.5839640000000002
 50
182.093411
 51
267.90661899999998
  0
ARC
  5
283
  8
0
 62
     7
 10
143.93351000000001
 20
147.76463899999999
 30
0.0
 40
0.547661
 50
90.175564000000008
 51
124.90282500000001
  0
ARC
  5
284
  8
0
 62
     7
 10
144.04682600000001
 20
147.58315899999999
 30
0.0
 40
0.7614140000000002
 50
124.081987
 51
146.584461
  0
ARC
  5
285
  8
0
 62
     7
 10
144.327956
 20
147.379154
 30
0.0
 40
1.1085279999999991
 50
145.78525500000001
 51
171.73795000000001
  0
ARC
  5
286
  8
0
 62
     7
 10
144.58593500000001
 20
147.31412599999999
 30
0.0
 40
1.373445
 50
170.599808
 51
180.06680900000001
  0
ARC
  5
287
  8
0
 62
     7
 10
144.53753900000001
 20
147.31297499999999
 30
0.0
 40
1.325048
 50
180.01947000000001
 51
206.866816
  0
ARC
  5
288
  8
0
 62
     7
 10
144.1392689999999
 20
147.132835
 30
0.0
 40
0.888568
 50
208.11070100000001
 51
234.87544
  0
ARC
  5
289
  8
0
 62
     7
 10
143.942342
 20
146.88815399999999
 30
0.0
 40
0.575498
 50
236.89582100000001
 51
268.95354099999997
  0
ARC
  5
28A
  8
0
 62
     7
 10
143.93015700000001
 20
146.86135899999999
 30
0.0
 40
0.548609
 50
270.17490099999998
 51
304.87171000000001
  0
ARC
  5
28B
  8
0
 62
     7
 10
143.81791299999989
 20
147.040997
 30
0.0
 40
0.760239
 50
304.071461
 51
326.60684099999997
  0
ARC
  5
28C
  8
0
 62
     7
 10
143.53538900000001
 20
147.245586
 30
0.0
 40
1.1088299999999991
 50
325.815291
 51
351.75646699999999
  0
ARC
  5
28D
  8
0
 62
     7
 10
143.277038
 20
147.310787
 30
0.0
 40
1.3741350000000001
 50
350.61040100000002
 51
0.072489
  0
ARC
  5
28E
  8
0
 62
     7
 10
143.32441700000001
 20
147.312072
 30
0.0
 40
1.326756
 50
0.019576
 51
26.829611
  0
ARC
  5
28F
  8
0
 62
     7
 10
143.72524799999999
 20
147.49293299999999
 30
0.0
 40
0.8876579999999998
 50
28.089600999999998
 51
54.87852500000001
  0
ARC
  5
290
  8
0
 62
     7
 10
143.921629
 20
147.736919
 30
0.0
 40
0.575469
 50
56.895957999999993
 51
88.984111999999996
  0
ARC
  5
291
  8
0
 62
     7
 10
145.8762899999999
 20
147.27390600000001
 30
0.0
 40
1.0391099999999991
 50
92.129931000000013
 51
177.87003899999999
  0
ARC
  5
292
  8
0
 62
     7
 10
145.8762899999999
 20
147.351145
 30
0.0
 40
1.0391099999999991
 50
182.12996100000001
 51
267.870069
  0
ARC
  5
293
  8
0
 62
     7
 10
145.79905099999999
 20
147.351145
 30
0.0
 40
1.0391099999999991
 50
272.12995100000001
 51
357.87005900000003
  0
ARC
  5
294
  8
0
 62
     7
 10
145.79905099999999
 20
147.27390600000001
 30
0.0
 40
1.0391099999999991
 50
2.1299410000000001
 51
87.870048999999995
  0
LINE
  5
295
  8
0
 62
     7
 10
143.96299999999999
 20
149.56299999999999
 30
0.0
 11
147.71299999999999
 21
149.56299999999999
 31
0.0
  0
ARC
  5
296
  8
0
 62
     7
 10
145.21149600000001
 20
157.36811
 30
0.0
 40
0.876806
 50
56.810527999999998
 51
89.919622000000004
  0
ARC
  5
297
  8
0
 62
     7
 10
145.393148
 20
157.675783
 30
0.0
 40
0.5201470000000001
 50
31.283249000000001
 51
55.003104
  0
ARC
  5
298
  8
0
 62
     7
 10
145.213956
 20
157.36811
 30
0.0
 40
0.876806
 50
90.080359000000016
 51
123.189452
  0
ARC
  5
299
  8
0
 62
     7
 10
145.03230500000001
 20
157.675783
 30
0.0
 40
0.5201470000000001
 50
124.996877
 51
148.71673100000001
  0
ARC
  5
29A
  8
0
 62
     7
 10
145.21395699999999
 20
158.52287899999999
 30
0.0
 40
0.876036
 50
236.77754200000001
 51
269.91953000000001
  0
ARC
  5
29B
  8
0
 62
     7
 10
145.03300999999999
 20
158.217049
 30
0.0
 40
0.5213060000000001
 50
211.343841
 51
234.99782200000001
  0
ARC
  5
29C
  8
0
 62
     7
 10
145.21149600000001
 20
158.52287899999999
 30
0.0
 40
0.876036
 50
270.08049
 51
303.22247800000002
  0
ARC
  5
29D
  8
0
 62
     7
 10
145.39244299999999
 20
158.217049
 30
0.0
 40
0.5213060000000001
 50
305.00219800000008
 51
328.6561779999999
  0
ARC
  5
29E
  8
0
 62
     7
 10
146.46384499999999
 20
158.52287899999999
 30
0.0
 40
0.876036
 50
236.77754200000001
 51
269.91953000000001
  0
ARC
  5
29F
  8
0
 62
     7
 10
146.28289799999999
 20
158.217049
 30
0.0
 40
0.5213060000000001
 50
211.343841
 51
234.99782200000001
  0
ARC
  5
2A0
  8
0
 62
     7
 10
146.46138400000001
 20
158.52287899999999
 30
0.0
 40
0.876036
 50
270.08049
 51
303.22247800000002
  0
ARC
  5
2A1
  8
0
 62
     7
 10
146.64233100000001
 20
158.217049
 30
0.0
 40
0.5213060000000001
 50
305.00219800000008
 51
328.6561779999999
  0
LINE
  5
2A2
  8
0
 62
     7
 10
144.58799999999999
 20
169.21600000000001
 30
0.0
 11
144.58799999999999
 21
157.946
 31
0.0
  0
LINE
  5
2A3
  8
0
 62
     7
 10
147.08799999999999
 20
169.21600000000001
 30
0.0
 11
147.08799999999999
 21
157.946
 31
0.0
  0
ARC
  5
2A4
  8
0
 62
     7
 10
146.46315899999999
 20
157.18082799999999
 30
0.0
 40
0.8746529999999999
 50
236.76853
 51
269.919197
  0
ARC
  5
2A5
  8
0
 62
     7
 10
146.28217000000001
 20
156.875204
 30
0.0
 40
0.520072
 50
211.27477400000001
 51
234.994775
  0
ARC
  5
2A6
  8
0
 62
     7
 10
146.46069600000001
 20
157.18298200000001
 30
0.0
 40
0.876806
 50
270.080378
 51
303.18947200000002
  0
ARC
  5
2A7
  8
0
 62
     7
 10
146.642347
 20
156.87530899999999
 30
0.0
 40
0.5201470000000001
 50
304.99689599999999
 51
328.71675099999999
  0
ARC
  5
2A8
  8
0
 62
     7
 10
146.46069600000001
 20
156.02744300000001
 30
0.0
 40
0.876806
 50
56.810527999999998
 51
89.919622000000004
  0
ARC
  5
2A9
  8
0
 62
     7
 10
146.642347
 20
156.335116
 30
0.0
 40
0.5201470000000001
 50
31.283249000000001
 51
55.003104
  0
ARC
  5
2AA
  8
0
 62
     7
 10
146.46315899999999
 20
156.029596
 30
0.0
 40
0.8746529999999999
 50
90.080803000000003
 51
123.23147
  0
ARC
  5
2AB
  8
0
 62
     7
 10
146.28217000000001
 20
156.33522099999999
 30
0.0
 40
0.520072
 50
125.005225
 51
148.72522599999999
  0
ARC
  5
2AC
  8
0
 62
     7
 10
145.211499
 20
156.02846400000001
 30
0.0
 40
0.8757850000000002
 50
56.790624999999999
 51
89.919720999999996
  0
ARC
  5
2AD
  8
0
 62
     7
 10
145.39051000000001
 20
156.33206299999989
 30
0.0
 40
0.523987
 50
31.418790000000008
 51
54.985335999999997
  0
ARC
  5
2AE
  8
0
 62
     7
 10
145.213956
 20
156.02744300000001
 30
0.0
 40
0.876806
 50
90.080359000000016
 51
123.189452
  0
ARC
  5
2AF
  8
0
 62
     7
 10
145.03230500000001
 20
156.335116
 30
0.0
 40
0.5201470000000001
 50
124.996877
 51
148.71673100000001
  0
LINE
  5
2B0
  8
0
 62
     7
 10
147.08799999999999
 20
154.65299999999999
 30
0.0
 11
147.08799999999999
 21
155.256
 31
0.0
  0
LINE
  5
2B1
  8
0
 62
     7
 10
147.08799999999999
 20
156.017
 30
0.0
 11
147.08799999999999
 21
156.60499999999999
 31
0.0
  0
LINE
  5
2B2
  8
0
 62
     7
 10
144.58799999999999
 20
154.65299999999999
 30
0.0
 11
144.58799999999999
 21
156.60499999999999
 31
0.0
  0
LINE
  5
2B3
  8
0
 62
     7
 10
143.96299999999999
 20
146.31299999999999
 30
0.0
 11
147.71299999999999
 21
146.31299999999999
 31
0.0
  0
LINE
  5
2B4
  8
0
 62
     7
 10
143.626
 20
141.03999999999999
 30
0.0
 11
145.83799999999999
 21
141.63200000000001
 31
0.0
  0
LINE
  5
2B5
  8
0
 62
     7
 10
145.83799999999999
 20
141.63200000000001
 30
0.0
 11
143.626
 21
142.22499999999999
 31
0.0
  0
LINE
  5
2B6
  8
0
 62
     7
 10
143.626
 20
142.22499999999999
 30
0.0
 11
143.626
 21
141.03999999999999
 31
0.0
  0
LINE
  5
2B7
  8
0
 62
     7
 10
152.04900000000001
 20
142.21000000000001
 30
0.0
 11
149.83699999999999
 21
141.61799999999999
 31
0.0
  0
LINE
  5
2B8
  8
0
 62
     7
 10
149.83699999999999
 20
141.61799999999999
 30
0.0
 11
152.04900000000001
 21
141.02500000000001
 31
0.0
  0
LINE
  5
2B9
  8
0
 62
     7
 10
152.04900000000001
 20
141.02500000000001
 30
0.0
 11
152.04900000000001
 21
142.21000000000001
 31
0.0
  0
LINE
  5
2BA
  8
0
 62
     7
 10
157.10300000000001
 20
141.625
 30
0.0
 11
142.30199999999999
 21
141.625
 31
0.0
  0
LINE
  5
2BB
  8
0
 62
     7
 10
139.845
 20
177.44399999999999
 30
0.0
 11
142.05600000000001
 21
178.03700000000001
 31
0.0
  0
LINE
  5
2BC
  8
0
 62
     7
 10
142.05600000000001
 20
178.03700000000001
 30
0.0
 11
139.845
 21
178.62899999999999
 31
0.0
  0
LINE
  5
2BD
  8
0
 62
     7
 10
139.845
 20
178.62899999999999
 30
0.0
 11
139.845
 21
177.44399999999999
 31
0.0
  0
LINE
  5
2BE
  8
0
 62
     7
 10
151.768
 20
178.61500000000001
 30
0.0
 11
149.55600000000001
 21
178.02199999999999
 31
0.0
  0
LINE
  5
2BF
  8
0
 62
     7
 10
149.55600000000001
 20
178.02199999999999
 30
0.0
 11
151.768
 21
177.429
 31
0.0
  0
LINE
  5
2C0
  8
0
 62
     7
 10
151.768
 20
177.429
 30
0.0
 11
151.768
 21
178.61500000000001
 31
0.0
  0
LINE
  5
2C1
  8
0
 62
     7
 10
157.17099999999999
 20
178.029
 30
0.0
 11
137.80500000000001
 21
178.029
 31
0.0
  0
LINE
  5
2C2
  8
0
 62
     7
 10
164.452
 20
186.42699999999999
 30
0.0
 11
165.04499999999999
 21
184.21599999999989
 31
0.0
  0
LINE
  5
2C3
  8
0
 62
     7
 10
165.04499999999999
 20
184.21599999999989
 30
0.0
 11
165.637
 21
186.42699999999999
 31
0.0
  0
LINE
  5
2C4
  8
0
 62
     7
 10
165.637
 20
186.42699999999999
 30
0.0
 11
164.452
 21
186.42699999999999
 31
0.0
  0
LINE
  5
2C5
  8
0
 62
     7
 10
164.452
 20
171.42599999999999
 30
0.0
 11
165.04499999999999
 21
169.215
 31
0.0
  0
LINE
  5
2C6
  8
0
 62
     7
 10
165.04499999999999
 20
169.215
 30
0.0
 11
165.637
 21
171.42599999999999
 31
0.0
  0
LINE
  5
2C7
  8
0
 62
     7
 10
165.637
 20
171.42599999999999
 30
0.0
 11
164.452
 21
171.42599999999999
 31
0.0
  0
LINE
  5
2C8
  8
0
 62
     7
 10
165.62299999999999
 20
182.00399999999999
 30
0.0
 11
165.03
 21
184.21599999999989
 31
0.0
  0
LINE
  5
2C9
  8
0
 62
     7
 10
165.03
 20
184.21599999999989
 30
0.0
 11
164.43799999999999
 21
182.00399999999999
 31
0.0
  0
LINE
  5
2CA
  8
0
 62
     7
 10
164.43799999999999
 20
182.00399999999999
 30
0.0
 11
165.62299999999999
 21
182.00399999999999
 31
0.0
  0
LINE
  5
2CB
  8
0
 62
     7
 10
165.62299999999999
 20
219.505
 30
0.0
 11
165.03
 21
221.71700000000001
 31
0.0
  0
LINE
  5
2CC
  8
0
 62
     7
 10
165.03
 20
221.71700000000001
 30
0.0
 11
164.43799999999999
 21
219.505
 31
0.0
  0
LINE
  5
2CD
  8
0
 62
     7
 10
164.43799999999999
 20
219.505
 30
0.0
 11
165.62299999999999
 21
219.505
 31
0.0
  0
LINE
  5
2CE
  8
0
 62
     7
 10
165.03800000000001
 20
169.21600000000001
 30
0.0
 11
165.03800000000001
 21
221.71600000000001
 31
0.0
  0
LINE
  5
2CF
  8
0
 62
     7
 10
165.738
 20
169.21600000000001
 30
0.0
 11
150.637
 21
169.21600000000001
 31
0.0
  0
LINE
  5
2D0
  8
0
 62
     7
 10
165.738
 20
221.71600000000001
 30
0.0
 11
152.01300000000001
 21
221.71600000000001
 31
0.0
  0
LINE
  5
2D1
  8
0
 62
     7
 10
165.738
 20
184.21599999999989
 30
0.0
 11
152.01300000000001
 21
184.21599999999989
 31
0.0
  0
LINE
  5
2D2
  8
0
 62
     7
 10
143.626
 20
214.78
 30
0.0
 11
145.83799999999999
 21
215.37299999999999
 31
0.0
  0
LINE
  5
2D3
  8
0
 62
     7
 10
145.83799999999999
 20
215.37299999999999
 30
0.0
 11
143.626
 21
215.96600000000001
 31
0.0
  0
LINE
  5
2D4
  8
0
 62
     7
 10
143.626
 20
215.96600000000001
 30
0.0
 11
143.626
 21
214.78
 31
0.0
  0
LINE
  5
2D5
  8
0
 62
     7
 10
121.483
 20
215.95099999999999
 30
0.0
 11
119.271
 21
215.35900000000001
 31
0.0
  0
LINE
  5
2D6
  8
0
 62
     7
 10
119.271
 20
215.35900000000001
 30
0.0
 11
121.483
 21
214.76599999999999
 31
0.0
  0
LINE
  5
2D7
  8
0
 62
     7
 10
121.483
 20
214.76599999999999
 30
0.0
 11
121.483
 21
215.95099999999999
 31
0.0
  0
LINE
  5
2D8
  8
0
 62
     7
 10
145.83699999999999
 20
215.36600000000001
 30
0.0
 11
119.27200000000001
 21
215.36600000000001
 31
0.0
  0
LINE
  5
2D9
  8
0
 62
     7
 10
148.62700000000001
 20
225.56
 30
0.0
 11
150.839
 21
226.15299999999999
 31
0.0
  0
LINE
  5
2DA
  8
0
 62
     7
 10
150.839
 20
226.15299999999999
 30
0.0
 11
148.62700000000001
 21
226.74600000000001
 31
0.0
  0
LINE
  5
2DB
  8
0
 62
     7
 10
148.62700000000001
 20
226.74600000000001
 30
0.0
 11
148.62700000000001
 21
225.56
 31
0.0
  0
LINE
  5
2DC
  8
0
 62
     7
 10
143.048
 20
226.73099999999999
 30
0.0
 11
140.83600000000001
 21
226.13900000000001
 31
0.0
  0
LINE
  5
2DD
  8
0
 62
     7
 10
140.83600000000001
 20
226.13900000000001
 30
0.0
 11
143.048
 21
225.54599999999999
 31
0.0
  0
LINE
  5
2DE
  8
0
 62
     7
 10
143.048
 20
225.54599999999999
 30
0.0
 11
143.048
 21
226.73099999999999
 31
0.0
  0
LINE
  5
2DF
  8
0
 62
     7
 10
150.83799999999999
 20
226.14599999999999
 30
0.0
 11
140.83699999999999
 21
226.14599999999999
 31
0.0
  0
LINE
  5
2E0
  8
0
 62
     7
 10
140.83699999999999
 20
226.846
 30
0.0
 11
140.83699999999999
 21
222.881
 31
0.0
  0
LINE
  5
2E1
  8
0
 62
     7
 10
150.83799999999999
 20
226.846
 30
0.0
 11
150.83799999999999
 21
222.881
 31
0.0
  0
LINE
  5
2E2
  8
0
 62
     7
 10
123.983
 20
202.36099999999999
 30
0.0
 11
121.34999999999999
 21
198.66900000000001
 31
0.0
  0
LINE
  5
2E3
  8
0
 62
     7
 10
140.83699999999999
 20
205.71600000000001
 30
0.0
 11
130.49600000000001
 21
205.71600000000001
 31
0.0
  0
ARC
  5
2E4
  8
0
 62
     7
 10
130.56744800000001
 20
197.57763700000001
 30
0.0
 40
8.1385529999999981
 50
90.503878000000014
 51
143.99993000000001
  0
LINE
  5
2E5
  8
0
 62
     7
 10
117.697
 20
197.63800000000001
 30
0.0
 11
114.17400000000001
 21
192.6999999999999
 31
0.0
  0
LINE
  5
2E6
  8
0
  6
AIGENLINE001
 62
     7
 10
122.05
 20
203.74000000000001
 30
0.0
 11
118.111
 21
198.22
 31
0.0
  0
LINE
  5
2E7
  8
0
  6
AIGENLINE001
 62
     7
 10
145.83799999999999
 20
208.09100000000001
 30
0.0
 11
130.49600000000001
 21
208.09100000000001
 31
0.0
  0
ARC
  5
2E8
  8
0
  6
AIGENLINE001
 62
     7
 10
130.587954
 20
197.5383479999999
 30
0.0
 40
10.552993000000001
 50
90.499928999999995
 51
144.00532899999999
  0
LINE
  5
2E9
  8
0
 62
     7
 10
120.116
 20
205.12
 30
0.0
 11
117.482
 21
201.428
 31
0.0
  0
LINE
  5
2EA
  8
0
 62
     7
 10
140.83699999999999
 20
210.46600000000001
 30
0.0
 11
130.49600000000001
 21
210.46600000000001
 31
0.0
  0
ARC
  5
2EB
  8
0
 62
     7
 10
130.60843499999999
 20
197.49691999999999
 30
0.0
 40
12.969227999999999
 50
90.497270999999998
 51
144.00279399999999
  0
LINE
  5
2EC
  8
0
 62
     7
 10
119.271
 20
216.059
 30
0.0
 11
119.271
 21
200.81800000000001
 31
0.0
  0
LINE
  5
2ED
  8
0
 62
     7
 10
119.271
 20
198.7059999999999
 30
0.0
 11
119.271
 21
190.739
 31
0.0
  0
LINE
  5
2EE
  8
0
 62
     7
 10
129.43700000000001
 20
196.35400000000001
 30
0.0
 11
128.845
 21
198.566
 31
0.0
  0
LINE
  5
2EF
  8
0
 62
     7
 10
128.845
 20
198.566
 30
0.0
 11
128.25200000000001
 21
196.35400000000001
 31
0.0
  0
LINE
  5
2F0
  8
0
 62
     7
 10
128.25200000000001
 20
196.35400000000001
 30
0.0
 11
129.43700000000001
 21
196.35400000000001
 31
0.0
  0
LINE
  5
2F1
  8
0
 62
     7
 10
128.267
 20
186.42699999999999
 30
0.0
 11
128.85900000000001
 21
184.21599999999989
 31
0.0
  0
LINE
  5
2F2
  8
0
 62
     7
 10
128.85900000000001
 20
184.21599999999989
 30
0.0
 11
129.452
 21
186.42699999999999
 31
0.0
  0
LINE
  5
2F3
  8
0
 62
     7
 10
129.452
 20
186.42699999999999
 30
0.0
 11
128.267
 21
186.42699999999999
 31
0.0
  0
LINE
  5
2F4
  8
0
 62
     7
 10
128.852
 20
198.565
 30
0.0
 11
128.852
 21
184.21700000000001
 31
0.0
  0
LINE
  5
2F5
  8
0
 62
     7
 10
108.84999999999999
 20
197.63399999999999
 30
0.0
 11
108.258
 21
199.846
 31
0.0
  0
LINE
  5
2F6
  8
0
 62
     7
 10
108.258
 20
199.846
 30
0.0
 11
107.66500000000001
 21
197.63399999999999
 31
0.0
  0
LINE
  5
2F7
  8
0
 62
     7
 10
107.66500000000001
 20
197.63399999999999
 30
0.0
 11
108.84999999999999
 21
197.63399999999999
 31
0.0
  0
LINE
  5
2F8
  8
0
 62
     7
 10
107.68000000000001
 20
186.4259999999999
 30
0.0
 11
108.27200000000001
 21
184.215
 31
0.0
  0
LINE
  5
2F9
  8
0
 62
     7
 10
108.27200000000001
 20
184.215
 30
0.0
 11
108.86499999999999
 21
186.4259999999999
 31
0.0
  0
LINE
  5
2FA
  8
0
 62
     7
 10
108.86499999999999
 20
186.4259999999999
 30
0.0
 11
107.68000000000001
 21
186.4259999999999
 31
0.0
  0
LINE
  5
2FB
  8
0
 62
     7
 10
108.265
 20
199.845
 30
0.0
 11
108.265
 21
184.21599999999989
 31
0.0
  0
LINE
  5
2FC
  8
0
 62
     7
 10
119.271
 20
199.845
 30
0.0
 11
117.541
 21
201.07900000000001
 31
0.0
  0
ARC
  5
2FD
  8
0
 62
     7
 10
117.700305
 20
201.28491600000001
 30
0.0
 40
0.260633
 50
146.77125100000001
 51
232.28177500000001
  0
LINE
  5
2FE
  8
0
 62
     7
 10
121.001
 20
198.61099999999999
 30
0.0
 11
119.271
 21
199.845
 31
0.0
  0
ARC
  5
2FF
  8
0
 62
     7
 10
121.14402800000001
 20
198.828305
 30
0.0
 40
0.26007
 50
236.67027400000001
 51
322.291111
  0
LINE
  5
300
  8
0
 62
     7
 10
129.54499999999999
 20
198.566
 30
0.0
 11
122.21299999999999
 21
198.566
 31
0.0
  0
LINE
  5
301
  8
0
 62
     7
 10
118.16
 20
199.845
 30
0.0
 11
107.56399999999999
 21
199.845
 31
0.0
  0
LINE
  5
302
  8
0
 62
     7
 10
140.01300000000001
 20
184.21599999999989
 30
0.0
 11
107.56399999999999
 21
184.21599999999989
 31
0.0
  0
LINE
  5
303
  8
0
 62
     7
 10
124.108
 20
202.536
 30
0.0
 11
120.241
 21
205.29499999999999
 31
0.0
  0
LINE
  5
304
  8
0
 62
     7
 10
141.21199999999999
 20
213.71600000000001
 30
0.0
 11
141.21199999999999
 21
213.21600000000001
 31
0.0
  0
LINE
  5
305
  8
0
 62
     7
 10
150.46199999999999
 20
213.21600000000001
 30
0.0
 11
150.46199999999999
 21
213.71600000000001
 31
0.0
  0
LINE
  5
306
  8
0
 62
     7
 10
149.83699999999999
 20
182.71600000000001
 30
0.0
 11
150.21199999999999
 21
183.965
 31
0.0
  0
LINE
  5
307
  8
0
 62
     7
 10
146.08799999999999
 20
182.71600000000001
 30
0.0
 11
146.08799999999999
 21
183.965
 31
0.0
  0
LINE
  5
308
  8
0
 62
     7
 10
145.58799999999999
 20
182.71600000000001
 30
0.0
 11
145.58799999999999
 21
183.965
 31
0.0
  0
LINE
  5
309
  8
0
 62
     7
 10
146.08799999999999
 20
182.71600000000001
 30
0.0
 11
145.58799999999999
 21
182.71600000000001
 31
0.0
  0
LINE
  5
30A
  8
0
 62
     7
 10
141.46199999999999
 20
183.965
 30
0.0
 11
141.83699999999999
 21
182.71600000000001
 31
0.0
  0
LINE
  5
30B
  8
0
 62
     7
 10
141.83699999999999
 20
181.96600000000001
 30
0.0
 11
141.83699999999999
 21
183.965
 31
0.0
  0
LINE
  5
30C
  8
0
 62
     7
 10
149.83699999999999
 20
181.96600000000001
 30
0.0
 11
149.83699999999999
 21
183.965
 31
0.0
  0
LINE
  5
30D
  8
0
 62
     7
 10
149.83699999999999
 20
181.96600000000001
 30
0.0
 11
141.83699999999999
 21
181.96600000000001
 31
0.0
  0
LINE
  5
30E
  8
0
 62
     7
 10
140.71299999999999
 20
183.965
 30
0.0
 11
140.71299999999999
 21
184.21599999999989
 31
0.0
  0
LINE
  5
30F
  8
0
 62
     7
 10
150.96299999999999
 20
184.21599999999989
 30
0.0
 11
150.96299999999999
 21
183.965
 31
0.0
  0
LINE
  5
310
  8
0
 62
     7
 10
150.96299999999999
 20
183.965
 30
0.0
 11
140.71299999999999
 21
183.965
 31
0.0
  0
LINE
  5
311
  8
0
 62
     7
 10
140.83699999999999
 20
205.71600000000001
 30
0.0
 11
140.83699999999999
 21
184.21599999999989
 31
0.0
  0
LINE
  5
312
  8
0
 62
     7
 10
140.83699999999999
 20
213.21600000000001
 30
0.0
 11
140.83699999999999
 21
210.46600000000001
 31
0.0
  0
LINE
  5
313
  8
0
 62
     7
 10
150.83799999999999
 20
213.21600000000001
 30
0.0
 11
150.83799999999999
 21
184.21599999999989
 31
0.0
  0
LINE
  5
314
  8
0
 62
     7
 10
150.96299999999999
 20
184.21599999999989
 30
0.0
 11
140.71299999999999
 21
184.21599999999989
 31
0.0
  0
LINE
  5
315
  8
0
 62
     7
 10
150.83799999999999
 20
213.21600000000001
 30
0.0
 11
140.83699999999999
 21
213.21600000000001
 31
0.0
  0
LINE
  5
316
  8
0
 62
     7
 10
140.83699999999999
 20
221.46600000000001
 30
0.0
 11
140.83699999999999
 21
213.71600000000001
 31
0.0
  0
LINE
  5
317
  8
0
 62
     7
 10
150.58799999999999
 20
221.71600000000001
 30
0.0
 11
141.08799999999999
 21
221.71600000000001
 31
0.0
  0
ARC
  5
318
  8
0
 62
     7
 10
141.097196
 20
221.456086
 30
0.0
 40
0.259955
 50
92.128064999999992
 51
177.83243200000001
  0
LINE
  5
319
  8
0
 62
     7
 10
150.83799999999999
 20
221.46600000000001
 30
0.0
 11
150.83799999999999
 21
213.71600000000001
 31
0.0
  0
ARC
  5
31A
  8
0
 62
     7
 10
150.578307
 20
221.45624900000001
 30
0.0
 40
0.259786
 50
2.133124
 51
87.906339000000017
  0
LINE
  5
31B
  8
0
 62
     7
 10
150.83799999999999
 20
213.71600000000001
 30
0.0
 11
140.83699999999999
 21
213.71600000000001
 31
0.0
  0
LINE
  5
31C
  8
0
 62
     7
 10
70.842299999999994
 20
173.59100000000001
 30
0.0
 11
70.842299999999994
 21
169.215
 31
0.0
  0
LINE
  5
31D
  8
0
 62
     7
 10
70.842299999999994
 20
181.947
 30
0.0
 11
70.842299999999994
 21
176.715
 31
0.0
  0
LINE
  5
31E
  8
0
 62
     7
 10
71.092399999999984
 20
176.715
 30
0.0
 11
71.092399999999984
 21
181.947
 31
0.0
  0
LINE
  5
31F
  8
0
 62
     7
 10
63.842500000000001
 20
181.947
 30
0.0
 11
63.842500000000001
 21
176.715
 31
0.0
  0
LINE
  5
320
  8
0
 62
     7
 10
63.5931
 20
176.715
 30
0.0
 11
63.5931
 21
181.947
 31
0.0
  0
LINE
  5
321
  8
0
 62
     7
 10
70.842299999999994
 20
176.09
 30
0.0
 11
70.842299999999994
 21
174.84099999999989
 31
0.0
  0
LINE
  5
322
  8
0
 62
     7
 10
71.092399999999984
 20
174.84099999999989
 30
0.0
 11
71.092399999999984
 21
176.09
 31
0.0
  0
LINE
  5
323
  8
0
 62
     7
 10
63.842500000000001
 20
176.09
 30
0.0
 11
63.842500000000001
 21
174.84099999999989
 31
0.0
  0
LINE
  5
324
  8
0
 62
     7
 10
63.5931
 20
174.84099999999989
 30
0.0
 11
63.5931
 21
176.09
 31
0.0
  0
LINE
  5
325
  8
0
 62
     7
 10
63.842500000000001
 20
173.59100000000001
 30
0.0
 11
63.842500000000001
 21
169.215
 31
0.0
  0
LINE
  5
326
  8
0
 62
     7
 10
63.5931
 20
169.465
 30
0.0
 11
63.5931
 21
173.59100000000001
 31
0.0
  0
LINE
  5
327
  8
0
 62
     7
 10
63.5931
 20
169.465
 30
0.0
 11
71.092399999999984
 21
169.465
 31
0.0
  0
LINE
  5
328
  8
0
 62
     7
 10
71.092399999999984
 20
173.59100000000001
 30
0.0
 11
71.092399999999984
 21
169.465
 31
0.0
  0
LINE
  5
329
  8
0
 62
     7
 10
71.092399999999984
 20
169.465
 30
0.0
 11
70.840900000000005
 21
169.215
 31
0.0
  0
LINE
  5
32A
  8
0
 62
     7
 10
70.840900000000005
 20
169.215
 30
0.0
 11
63.842500000000001
 21
169.215
 31
0.0
  0
LINE
  5
32B
  8
0
 62
     7
 10
63.842500000000001
 20
169.215
 30
0.0
 11
63.5931
 21
169.465
 31
0.0
  0
LINE
  5
32C
  8
0
 62
     7
 10
61.499099999999999
 20
172.34
 30
0.0
 11
61.499099999999999
 21
173.59
 31
0.0
  0
LINE
  5
32D
  8
0
 62
     7
 10
62.748999999999988
 20
172.34
 30
0.0
 11
62.748999999999988
 21
173.59
 31
0.0
  0
LINE
  5
32E
  8
0
 62
     7
 10
61.499099999999999
 20
174.84
 30
0.0
 11
61.499099999999999
 21
176.09
 31
0.0
  0
LINE
  5
32F
  8
0
 62
     7
 10
62.748999999999988
 20
174.84
 30
0.0
 11
62.748999999999988
 21
176.09
 31
0.0
  0
LINE
  5
330
  8
0
  6
AIGENLINE001
 62
     7
 10
62.124099999999999
 20
170.04300000000001
 30
0.0
 11
62.124099999999999
 21
177.738
 31
0.0
  0
LINE
  5
331
  8
0
 62
     7
 10
61.073999999999998
 20
171.09
 30
0.0
 11
61.073999999999998
 21
172.34
 31
0.0
  0
LINE
  5
332
  8
0
 62
     7
 10
61.073999999999998
 20
172.34
 30
0.0
 11
63.174100000000003
 21
172.34
 31
0.0
  0
LINE
  5
333
  8
0
 62
     7
 10
63.174100000000003
 20
172.34
 30
0.0
 11
63.174100000000003
 21
171.09
 31
0.0
  0
LINE
  5
334
  8
0
 62
     7
 10
63.174100000000003
 20
171.09
 30
0.0
 11
61.073999999999998
 21
171.09
 31
0.0
  0
LINE
  5
335
  8
0
 62
     7
 10
71.999200000000002
 20
172.34
 30
0.0
 11
71.999200000000002
 21
173.59
 31
0.0
  0
LINE
  5
336
  8
0
 62
     7
 10
73.248999999999995
 20
172.34
 30
0.0
 11
73.248999999999995
 21
173.59
 31
0.0
  0
LINE
  5
337
  8
0
 62
     7
 10
71.999200000000002
 20
174.84
 30
0.0
 11
71.999200000000002
 21
176.09
 31
0.0
  0
LINE
  5
338
  8
0
 62
     7
 10
73.248999999999995
 20
174.84
 30
0.0
 11
73.248999999999995
 21
176.09
 31
0.0
  0
LINE
  5
339
  8
0
  6
AIGENLINE001
 62
     7
 10
72.624099999999999
 20
170.04300000000001
 30
0.0
 11
72.624099999999999
 21
177.738
 31
0.0
  0
LINE
  5
33A
  8
0
 62
     7
 10
71.573999999999984
 20
171.09
 30
0.0
 11
71.573999999999984
 21
172.34
 31
0.0
  0
LINE
  5
33B
  8
0
 62
     7
 10
71.573999999999984
 20
172.34
 30
0.0
 11
73.674199999999999
 21
172.34
 31
0.0
  0
LINE
  5
33C
  8
0
 62
     7
 10
73.674199999999999
 20
172.34
 30
0.0
 11
73.674199999999999
 21
171.09
 31
0.0
  0
LINE
  5
33D
  8
0
 62
     7
 10
73.674199999999999
 20
171.09
 30
0.0
 11
71.573999999999984
 21
171.09
 31
0.0
  0
LINE
  5
33E
  8
0
 62
     7
 10
61.124299999999991
 20
173.59
 30
0.0
 11
61.124299999999991
 21
174.84
 31
0.0
  0
LINE
  5
33F
  8
0
 62
     7
 10
61.124299999999991
 20
174.84
 30
0.0
 11
73.624600000000001
 21
174.84
 31
0.0
  0
LINE
  5
340
  8
0
 62
     7
 10
73.624600000000001
 20
174.84
 30
0.0
 11
73.624600000000001
 21
173.59
 31
0.0
  0
LINE
  5
341
  8
0
 62
     7
 10
73.624600000000001
 20
173.59
 30
0.0
 11
61.124299999999991
 21
173.59
 31
0.0
  0
LINE
  5
342
  8
0
 62
     7
 10
61.124299999999991
 20
176.09
 30
0.0
 11
61.124299999999991
 21
176.465
 31
0.0
  0
LINE
  5
343
  8
0
 62
     7
 10
61.124299999999991
 20
176.465
 30
0.0
 11
73.624600000000001
 21
176.465
 31
0.0
  0
LINE
  5
344
  8
0
 62
     7
 10
73.624600000000001
 20
176.465
 30
0.0
 11
73.624600000000001
 21
176.09
 31
0.0
  0
LINE
  5
345
  8
0
 62
     7
 10
73.624600000000001
 20
176.09
 30
0.0
 11
61.124299999999991
 21
176.09
 31
0.0
  0
LINE
  5
346
  8
0
 62
     7
 10
61.874000000000002
 20
176.465
 30
0.0
 11
61.874000000000002
 21
176.715
 31
0.0
  0
LINE
  5
347
  8
0
 62
     7
 10
61.874000000000002
 20
176.715
 30
0.0
 11
72.874200000000002
 21
176.715
 31
0.0
  0
LINE
  5
348
  8
0
 62
     7
 10
72.874200000000002
 20
176.715
 30
0.0
 11
72.874200000000002
 21
176.465
 31
0.0
  0
LINE
  5
349
  8
0
 62
     7
 10
72.874200000000002
 20
176.465
 30
0.0
 11
61.874000000000002
 21
176.465
 31
0.0
  0
ARC
  5
34A
  8
0
 62
     7
 10
63.937907000000003
 20
86.172942000000006
 30
0.0
 40
0.493237
 50
297.38880699999999
 51
314.87045899999998
  0
ARC
  5
34B
  8
0
 62
     7
 10
63.655546999999999
 20
86.668661999999983
 30
0.0
 40
1.0635229999999991
 50
285.81142599999998
 51
298.60990199999998
  0
ARC
  5
34C
  8
0
 62
     7
 10
63.277307999999998
 20
87.872668000000004
 30
0.0
 40
2.3253099999999991
 50
277.90359000000001
 51
286.69530600000002
  0
ARC
  5
34D
  8
0
 62
     7
 10
62.957289000000003
 20
89.865925000000004
 30
0.0
 40
4.3438499999999989
 50
270.55654500000003
 51
278.46937200000002
  0
ARC
  5
34E
  8
0
 62
     7
 10
65.549429000000003
 20
86.919834999999992
 30
0.0
 40
1.391648999999999
 50
231.98785000000001
 51
264.90697899999998
  0
ARC
  5
34F
  8
0
 62
     7
 10
65.678495999999996
 20
88.273595999999984
 30
0.0
 40
2.7515350000000001
 50
264.73248100000001
 51
270.72267399999998
  0
ARC
  5
350
  8
0
 62
     7
 10
62.061056000000001
 20
86.172942000000006
 30
0.0
 40
0.493237
 50
225.129561
 51
242.61121299999999
  0
ARC
  5
351
  8
0
 62
     7
 10
62.343415999999998
 20
86.668661999999983
 30
0.0
 40
1.0635229999999991
 50
241.39011800000009
 51
254.18859399999999
  0
ARC
  5
352
  8
0
 62
     7
 10
62.721654999999998
 20
87.872668000000004
 30
0.0
 40
2.3253099999999991
 50
253.30471399999999
 51
262.09643
  0
ARC
  5
353
  8
0
 62
     7
 10
63.041674
 20
89.865925000000004
 30
0.0
 40
4.3438499999999989
 50
261.53064799999999
 51
269.44347400000009
  0
ARC
  5
354
  8
0
 62
     7
 10
60.449927000000002
 20
86.919775000000001
 30
0.0
 40
1.391570999999999
 50
275.08506699999998
 51
308.01209999999998
  0
ARC
  5
355
  8
0
 62
     7
 10
60.320733999999987
 20
88.272187000000017
 30
0.0
 40
2.7501250000000002
 50
269.278571
 51
275.26869599999998
  0
ARC
  5
356
  8
0
 62
     7
 10
63.937907000000003
 20
89.497033000000016
 30
0.0
 40
0.493237
 50
45.129540999999989
 51
62.611193
  0
ARC
  5
357
  8
0
 62
     7
 10
63.655546999999999
 20
89.001312999999996
 30
0.0
 40
1.0635229999999991
 50
61.390098000000002
 51
74.188574000000003
  0
ARC
  5
358
  8
0
 62
     7
 10
63.277307999999998
 20
87.797306999999989
 30
0.0
 40
2.3253099999999991
 50
73.304693999999998
 51
82.096409999999992
  0
ARC
  5
359
  8
0
 62
     7
 10
62.957289000000003
 20
85.804050000000004
 30
0.0
 40
4.3438499999999989
 50
81.530627999999993
 51
89.443455
  0
ARC
  5
35A
  8
0
 62
     7
 10
65.549429000000003
 20
88.750139000000004
 30
0.0
 40
1.391648999999999
 50
95.093020999999993
 51
128.01214999999999
  0
ARC
  5
35B
  8
0
 62
     7
 10
65.678495999999996
 20
87.396377999999999
 30
0.0
 40
2.7515350000000001
 50
89.277326000000002
 51
95.267518999999979
  0
ARC
  5
35C
  8
0
 62
     7
 10
63.756954999999998
 20
76.886371999999994
 30
0.0
 40
1.4147000000000001
 50
286.97059999999999
 51
296.75049200000001
  0
ARC
  5
35D
  8
0
 62
     7
 10
63.442202999999999
 20
77.850294999999988
 30
0.0
 40
2.4285990000000002
 50
278.70251500000001
 51
287.43526700000001
  0
ARC
  5
35E
  8
0
 62
     7
 10
63.154611000000003
 20
79.547009000000003
 30
0.0
 40
4.1493839999999986
 50
267.85744699999998
 51
279.0831
  0
ARC
  5
35F
  8
0
 62
     7
 10
65.786160999999993
 20
77.58178199999999
 30
0.0
 40
2.177718
 50
244.08307500000001
 51
265.836502
  0
ARC
  5
360
  8
0
 62
     7
 10
65.919539999999998
 20
78.913358000000002
 30
0.0
 40
3.5156519999999989
 50
265.24406800000003
 51
270.342872
  0
ARC
  5
361
  8
0
 62
     7
 10
62.243299999999998
 20
76.890066000000004
 30
0.0
 40
1.4185799999999991
 50
243.27005600000001
 51
253.02697900000001
  0
ARC
  5
362
  8
0
 62
     7
 10
62.557239000000003
 20
77.852133999999992
 30
0.0
 40
2.430466
 50
252.569253
 51
261.29639900000001
  0
ARC
  5
363
  8
0
 62
     7
 10
62.844453999999999
 20
79.546673999999996
 30
0.0
 40
4.1490460000000002
 50
260.91686099999998
 51
272.141344
  0
ARC
  5
364
  8
0
 62
     7
 10
60.212612
 20
77.584018999999984
 30
0.0
 40
2.179964
 50
274.164512
 51
295.90388000000002
  0
ARC
  5
365
  8
0
 62
     7
 10
60.079406000000013
 20
78.914061000000004
 30
0.0
 40
3.5163540000000002
 50
269.65749399999999
 51
274.75545299999999
  0
ARC
  5
366
  8
0
 62
     7
 10
63.756954999999998
 20
77.924796000000001
 30
0.0
 40
1.4147000000000001
 50
63.249507999999992
 51
73.029399999999995
  0
ARC
  5
367
  8
0
 62
     7
 10
63.442202999999999
 20
76.960871999999995
 30
0.0
 40
2.4285990000000002
 50
72.56473299999999
 51
81.297484999999995
  0
ARC
  5
368
  8
0
 62
     7
 10
63.154611000000003
 20
75.264158999999992
 30
0.0
 40
4.1493839999999986
 50
80.916899999999984
 51
92.142553000000007
  0
ARC
  5
369
  8
0
 62
     7
 10
65.887764000000004
 20
77.025475
 30
0.0
 40
2.4055299999999988
 50
104.458814
 51
115.970804
  0
ARC
  5
36A
  8
0
 62
     7
 10
65.732404000000002
 20
77.482706000000007
 30
0.0
 40
1.924331
 50
93.757221000000001
 51
103.37866
  0
ARC
  5
36B
  8
0
 62
     7
 10
65.835284999999985
 20
76.046362000000002
 30
0.0
 40
3.364341
 50
89.656006000000005
 51
93.902619000000001
  0
ARC
  5
36C
  8
0
 62
     7
 10
62.243299999999998
 20
77.921102000000005
 30
0.0
 40
1.4185799999999991
 50
106.973021
 51
116.729944
  0
ARC
  5
36D
  8
0
 62
     7
 10
62.557239000000003
 20
76.959034000000003
 30
0.0
 40
2.430466
 50
98.703601000000006
 51
107.430747
  0
ARC
  5
36E
  8
0
 62
     7
 10
62.844453999999999
 20
75.264493000000002
 30
0.0
 40
4.1490460000000002
 50
87.858656000000011
 51
99.083139000000017
  0
ARC
  5
36F
  8
0
 62
     7
 10
60.111015999999999
 20
77.023131999999976
 30
0.0
 40
2.4078669999999991
 50
64.042319999999989
 51
75.548775000000006
  0
ARC
  5
370
  8
0
 62
     7
 10
60.266514000000001
 20
77.481959000000003
 30
0.0
 40
1.92509
 50
76.622529
 51
86.23841800000001
  0
ARC
  5
371
  8
0
 62
     7
 10
60.163972999999999
 20
76.050522999999998
 30
0.0
 40
3.360179
 50
86.094999000000016
 51
90.343568999999974
  0
ARC
  5
372
  8
0
 62
     7
 10
62.061056000000001
 20
89.497033000000016
 30
0.0
 40
0.493237
 50
117.38878699999999
 51
134.87043899999989
  0
ARC
  5
373
  8
0
 62
     7
 10
62.343415999999998
 20
89.001312999999996
 30
0.0
 40
1.0635229999999991
 50
105.81140600000001
 51
118.609882
  0
ARC
  5
374
  8
0
 62
     7
 10
62.721654999999998
 20
87.797306999999989
 30
0.0
 40
2.3253099999999991
 50
97.903570000000002
 51
106.695286
  0
ARC
  5
375
  8
0
 62
     7
 10
63.041674
 20
85.804050000000004
 30
0.0
 40
4.3438499999999989
 50
90.556526000000005
 51
98.469351999999986
  0
ARC
  5
376
  8
0
 62
     7
 10
60.449927000000002
 20
88.750198999999995
 30
0.0
 40
1.391570999999999
 50
51.98790000000001
 51
84.914933000000005
  0
ARC
  5
377
  8
0
 62
     7
 10
60.320733999999987
 20
87.397788000000006
 30
0.0
 40
2.7501250000000002
 50
84.731303999999994
 51
90.721429000000015
  0
LINE
  5
378
  8
0
 62
     7
 10
65.940600000000003
 20
75.397800000000004
 30
0.0
 11
66.2286
 21
75.623099999999994
 31
0.0
  0
LINE
  5
379
  8
0
 62
     7
 10
65.459299999999999
 20
79.6477
 30
0.0
 11
66.2286
 21
79.188100000000006
 31
0.0
  0
LINE
  5
37A
  8
0
 62
     7
 10
65.459299999999999
 20
79.6477
 30
0.0
 11
62.999499999999991
 21
79.6477
 31
0.0
  0
LINE
  5
37B
  8
0
 62
     7
 10
65.940600000000003
 20
75.397800000000004
 30
0.0
 11
62.999499999999991
 21
75.397800000000004
 31
0.0
  0
LINE
  5
37C
  8
0
 62
     7
 10
64.393699999999995
 20
75.623099999999994
 30
0.0
 11
64.834400000000002
 21
75.623099999999994
 31
0.0
  0
LINE
  5
37D
  8
0
 62
     7
 10
64.393699999999995
 20
79.188100000000006
 30
0.0
 11
64.393699999999995
 21
75.623099999999994
 31
0.0
  0
LINE
  5
37E
  8
0
 62
     7
 10
64.834400000000002
 20
79.188100000000006
 30
0.0
 11
64.393699999999995
 21
79.188100000000006
 31
0.0
  0
LINE
  5
37F
  8
0
 62
     7
 10
66.2286
 20
79.188100000000006
 30
0.0
 11
66.2286
 21
75.623099999999994
 31
0.0
  0
LINE
  5
380
  8
0
 62
     7
 10
64.834400000000002
 20
79.188100000000006
 30
0.0
 11
64.834400000000002
 21
75.623099999999994
 31
0.0
  0
LINE
  5
381
  8
0
 62
     7
 10
60.539999999999999
 20
84.335099999999997
 30
0.0
 11
60.7898
 21
84.5852
 31
0.0
  0
LINE
  5
382
  8
0
 62
     7
 10
65.209199999999996
 20
84.5852
 30
0.0
 11
65.459299999999999
 21
84.335099999999997
 31
0.0
  0
LINE
  5
383
  8
0
 62
     7
 10
65.209199999999996
 20
84.5852
 30
0.0
 11
65.209199999999996
 21
85.522299999999987
 31
0.0
  0
LINE
  5
384
  8
0
 62
     7
 10
60.7898
 20
84.5852
 30
0.0
 11
60.7898
 21
85.522299999999987
 31
0.0
  0
LINE
  5
385
  8
0
 62
     7
 10
60.539999999999999
 20
84.5852
 30
0.0
 11
65.459299999999999
 21
84.5852
 31
0.0
  0
LINE
  5
386
  8
0
 62
     7
 10
65.459299999999999
 20
79.6477
 30
0.0
 11
65.459299999999999
 21
85.522299999999987
 31
0.0
  0
LINE
  5
387
  8
0
 62
     7
 10
65.713200000000001
 20
90.1477
 30
0.0
 11
65.978800000000007
 21
89.846599999999995
 31
0.0
  0
LINE
  5
388
  8
0
 62
     7
 10
60.020499999999998
 20
89.846599999999995
 30
0.0
 11
60.286099999999998
 21
90.1477
 31
0.0
  0
LINE
  5
389
  8
0
 62
     7
 10
65.713200000000001
 20
85.522299999999987
 30
0.0
 11
65.978800000000007
 21
85.777900000000002
 31
0.0
  0
LINE
  5
38A
  8
0
 62
     7
 10
60.286099999999998
 20
85.522299999999987
 30
0.0
 11
60.020499999999998
 21
85.777900000000002
 31
0.0
  0
LINE
  5
38B
  8
0
 62
     7
 10
60.058399999999999
 20
75.397800000000004
 30
0.0
 11
59.770400000000002
 21
75.623099999999994
 31
0.0
  0
LINE
  5
38C
  8
0
 62
     7
 10
60.539999999999999
 20
79.6477
 30
0.0
 11
59.770400000000002
 21
79.188100000000006
 31
0.0
  0
LINE
  5
38D
  8
0
 62
     7
 10
60.539999999999999
 20
79.6477
 30
0.0
 11
60.539999999999999
 21
85.522299999999987
 31
0.0
  0
LINE
  5
38E
  8
0
 62
     7
 10
60.539999999999999
 20
79.6477
 30
0.0
 11
62.999499999999991
 21
79.6477
 31
0.0
  0
LINE
  5
38F
  8
0
 62
     7
 10
60.058399999999999
 20
75.397800000000004
 30
0.0
 11
62.999499999999991
 21
75.397800000000004
 31
0.0
  0
LINE
  5
390
  8
0
 62
     7
 10
61.605200000000004
 20
75.623099999999994
 30
0.0
 11
61.164999999999999
 21
75.623099999999994
 31
0.0
  0
LINE
  5
391
  8
0
 62
     7
 10
61.605200000000004
 20
79.188100000000006
 30
0.0
 11
61.605200000000004
 21
75.623099999999994
 31
0.0
  0
LINE
  5
392
  8
0
 62
     7
 10
61.164999999999999
 20
79.188100000000006
 30
0.0
 11
61.605200000000004
 21
79.188100000000006
 31
0.0
  0
LINE
  5
393
  8
0
 62
     7
 10
59.770400000000002
 20
79.188100000000006
 30
0.0
 11
59.770400000000002
 21
75.623099999999994
 31
0.0
  0
LINE
  5
394
  8
0
 62
     7
 10
61.164999999999999
 20
79.188100000000006
 30
0.0
 11
61.164999999999999
 21
75.623099999999994
 31
0.0
  0
LINE
  5
395
  8
0
 62
     7
 10
65.713200000000001
 20
85.522299999999987
 30
0.0
 11
62.999499999999991
 21
85.522299999999987
 31
0.0
  0
LINE
  5
396
  8
0
 62
     7
 10
60.286099999999998
 20
85.522299999999987
 30
0.0
 11
62.999499999999991
 21
85.522299999999987
 31
0.0
  0
LINE
  5
397
  8
0
 62
     7
 10
64.285899999999984
 20
85.823400000000007
 30
0.0
 11
64.692400000000006
 21
85.823400000000007
 31
0.0
  0
LINE
  5
398
  8
0
 62
     7
 10
64.285899999999984
 20
89.846599999999995
 30
0.0
 11
64.285899999999984
 21
85.823400000000007
 31
0.0
  0
LINE
  5
399
  8
0
 62
     7
 10
64.692400000000006
 20
89.846599999999995
 30
0.0
 11
64.285899999999984
 21
89.846599999999995
 31
0.0
  0
LINE
  5
39A
  8
0
 62
     7
 10
65.978800000000007
 20
89.846599999999995
 30
0.0
 11
65.978800000000007
 21
85.777900000000002
 31
0.0
  0
LINE
  5
39B
  8
0
 62
     7
 10
64.692400000000006
 20
89.846599999999995
 30
0.0
 11
64.692400000000006
 21
85.823400000000007
 31
0.0
  0
LINE
  5
39C
  8
0
 62
     7
 10
65.713200000000001
 20
90.1477
 30
0.0
 11
62.999499999999991
 21
90.1477
 31
0.0
  0
LINE
  5
39D
  8
0
 62
     7
 10
61.713099999999997
 20
85.823400000000007
 30
0.0
 11
61.306899999999999
 21
85.823400000000007
 31
0.0
  0
LINE
  5
39E
  8
0
 62
     7
 10
61.713099999999997
 20
89.846599999999995
 30
0.0
 11
61.713099999999997
 21
85.823400000000007
 31
0.0
  0
LINE
  5
39F
  8
0
 62
     7
 10
61.306899999999999
 20
89.846599999999995
 30
0.0
 11
61.713099999999997
 21
89.846599999999995
 31
0.0
  0
LINE
  5
3A0
  8
0
 62
     7
 10
60.020499999999998
 20
89.846599999999995
 30
0.0
 11
60.020499999999998
 21
85.777900000000002
 31
0.0
  0
LINE
  5
3A1
  8
0
 62
     7
 10
61.306899999999999
 20
89.846599999999995
 30
0.0
 11
61.306899999999999
 21
85.823400000000007
 31
0.0
  0
LINE
  5
3A2
  8
0
 62
     7
 10
60.286099999999998
 20
90.1477
 30
0.0
 11
62.999499999999991
 21
90.1477
 31
0.0
  0
ARC
  5
3A3
  8
0
 62
     7
 10
72.688304000000002
 20
86.171565999999984
 30
0.0
 40
0.491674
 50
297.38579600000003
 51
314.91473400000001
  0
ARC
  5
3A4
  8
0
 62
     7
 10
72.405542000000011
 20
86.667656999999991
 30
0.0
 40
1.062479
 50
285.81137899999999
 51
298.61978599999998
  0
ARC
  5
3A5
  8
0
 62
     7
 10
72.027180000000001
 20
87.871943000000016
 30
0.0
 40
2.32457
 50
277.90193699999998
 51
286.69659000000001
  0
ARC
  5
3A6
  8
0
 62
     7
 10
71.706885
 20
89.867420999999979
 30
0.0
 40
4.3453460000000002
 50
270.55593500000009
 51
278.46787699999999
  0
ARC
  5
3A7
  8
0
 62
     7
 10
74.299501000000006
 20
86.921199999999999
 30
0.0
 40
1.3930359999999999
 50
232.00598199999999
 51
264.89890200000002
  0
ARC
  5
3A8
  8
0
 62
     7
 10
74.428336999999999
 20
88.275332999999975
 30
0.0
 40
2.7532730000000001
 50
264.73398100000003
 51
270.72363999999999
  0
ARC
  5
3A9
  8
0
 62
     7
 10
70.810699
 20
86.173284999999993
 30
0.0
 40
0.4935350000000001
 50
225.151161
 51
242.63083599999999
  0
ARC
  5
3AA
  8
0
 62
     7
 10
71.093411000000003
 20
86.669668000000001
 30
0.0
 40
1.0645690000000001
 50
241.39999700000001
 51
254.18854899999999
  0
ARC
  5
3AB
  8
0
 62
     7
 10
71.471527000000009
 20
87.873393000000007
 30
0.0
 40
2.3260519999999998
 50
253.3059979999999
 51
262.09477700000002
  0
ARC
  5
3AC
  8
0
 62
     7
 10
71.791302999999999
 20
89.864846
 30
0.0
 40
4.3427720000000001
 50
261.52953500000001
 51
269.44248199999998
  0
ARC
  5
3AD
  8
0
 62
     7
 10
69.199377999999996
 20
86.921080000000003
 30
0.0
 40
1.392881
 50
275.08517999999998
 51
307.993898
  0
ARC
  5
3AE
  8
0
 62
     7
 10
69.07030300000001
 20
88.272203999999988
 30
0.0
 40
2.750141999999999
 50
269.27849099999997
 51
275.26869099999999
  0
ARC
  5
3AF
  8
0
 62
     7
 10
72.688304000000002
 20
89.498407999999998
 30
0.0
 40
0.491674
 50
45.08526599999999
 51
62.614204000000008
  0
ARC
  5
3B0
  8
0
 62
     7
 10
72.405542000000011
 20
89.002317000000005
 30
0.0
 40
1.062479
 50
61.380214000000002
 51
74.188620999999998
  0
ARC
  5
3B1
  8
0
 62
     7
 10
72.027180000000001
 20
87.798030999999995
 30
0.0
 40
2.32457
 50
73.30341
 51
82.098062999999996
  0
ARC
  5
3B2
  8
0
 62
     7
 10
71.706885
 20
85.802553000000003
 30
0.0
 40
4.3453460000000002
 50
81.532122999999984
 51
89.444065000000009
  0
ARC
  5
3B3
  8
0
 62
     7
 10
74.299501000000006
 20
88.748773999999997
 30
0.0
 40
1.3930359999999999
 50
95.101097999999993
 51
127.994018
  0
ARC
  5
3B4
  8
0
 62
     7
 10
74.428336999999999
 20
87.394641000000007
 30
0.0
 40
2.7532730000000001
 50
89.276359999999997
 51
95.266019000000014
  0
ARC
  5
3B5
  8
0
 62
     7
 10
72.505724999999998
 20
76.889756999999989
 30
0.0
 40
1.4182360000000001
 50
286.970122
 51
296.730028
  0
ARC
  5
3B6
  8
0
 62
     7
 10
72.191674000000006
 20
77.852214000000004
 30
0.0
 40
2.4305249999999989
 50
278.70022
 51
287.42889000000002
  0
ARC
  5
3B7
  8
0
 62
     7
 10
71.904161000000002
 20
79.548594999999992
 30
0.0
 40
4.150968999999999
 50
267.858451
 51
279.08122100000003
  0
ARC
  5
3B8
  8
0
 62
     7
 10
74.536259999999984
 20
77.584018999999984
 30
0.0
 40
2.179964
 50
244.09613999999999
 51
265.835508
  0
ARC
  5
3B9
  8
0
 62
     7
 10
74.669465999999986
 20
78.914061000000004
 30
0.0
 40
3.5163540000000002
 50
265.24456600000002
 51
270.34252599999991
  0
ARC
  5
3BA
  8
0
 62
     7
 10
70.993363000000002
 20
76.890373999999994
 30
0.0
 40
1.4189249999999991
 50
243.27012099999999
 51
253.02405899999999
  0
ARC
  5
3BB
  8
0
 62
     7
 10
71.307164
 20
77.851966000000004
 30
0.0
 40
2.4303149999999998
 50
252.5673359999999
 51
261.2934130000001
  0
ARC
  5
3BC
  8
0
 62
     7
 10
71.594088999999997
 20
79.544403000000003
 30
0.0
 40
4.1467729999999996
 50
260.9144609999999
 51
272.14153499999998
  0
ARC
  5
3BD
  8
0
 62
     7
 10
68.962520999999995
 20
77.584018999999984
 30
0.0
 40
2.179964
 50
274.164512
 51
295.90388000000002
  0
ARC
  5
3BE
  8
0
 62
     7
 10
68.829313999999997
 20
78.914061000000004
 30
0.0
 40
3.5163540000000002
 50
269.65749399999999
 51
274.75545299999999
  0
ARC
  5
3BF
  8
0
 62
     7
 10
72.505724999999998
 20
77.921409999999995
 30
0.0
 40
1.4182360000000001
 50
63.269972000000003
 51
73.029877999999997
  0
ARC
  5
3C0
  8
0
 62
     7
 10
72.191674000000006
 20
76.958952999999994
 30
0.0
 40
2.4305249999999989
 50
72.571110000000004
 51
81.299779999999984
  0
ARC
  5
3C1
  8
0
 62
     7
 10
71.904161000000002
 20
75.262573000000003
 30
0.0
 40
4.150968999999999
 50
80.918779000000001
 51
92.141548999999998
  0
ARC
  5
3C2
  8
0
 62
     7
 10
74.637855999999999
 20
77.023131999999976
 30
0.0
 40
2.4078669999999991
 50
104.451205
 51
115.95766
  0
ARC
  5
3C3
  8
0
 62
     7
 10
74.482357999999991
 20
77.481959000000003
 30
0.0
 40
1.92509
 50
93.761561999999998
 51
103.37745099999999
  0
ARC
  5
3C4
  8
0
 62
     7
 10
74.584897999999995
 20
76.050522999999998
 30
0.0
 40
3.360179
 50
89.656411000000006
 51
93.904981000000006
  0
ARC
  5
3C5
  8
0
 62
     7
 10
70.993363000000002
 20
77.920793000000003
 30
0.0
 40
1.4189249999999991
 50
106.97594100000001
 51
116.729879
  0
ARC
  5
3C6
  8
0
 62
     7
 10
71.307164
 20
76.959202000000005
 30
0.0
 40
2.4303149999999998
 50
98.706586999999985
 51
107.432664
  0
ARC
  5
3C7
  8
0
 62
     7
 10
71.594088999999997
 20
75.266765000000007
 30
0.0
 40
4.1467729999999996
 50
87.858464999999995
 51
99.085539000000011
  0
ARC
  5
3C8
  8
0
 62
     7
 10
68.860924999999995
 20
77.023131999999976
 30
0.0
 40
2.4078669999999991
 50
64.042319999999989
 51
75.548775000000006
  0
ARC
  5
3C9
  8
0
 62
     7
 10
69.016423000000003
 20
77.481959000000003
 30
0.0
 40
1.92509
 50
76.622529
 51
86.23841800000001
  0
ARC
  5
3CA
  8
0
 62
     7
 10
68.913882000000001
 20
76.050522999999998
 30
0.0
 40
3.360179
 50
86.094999000000016
 51
90.343568999999974
  0
ARC
  5
3CB
  8
0
 62
     7
 10
70.810699
 20
89.496690000000001
 30
0.0
 40
0.4935350000000001
 50
117.369164
 51
134.848839
  0
ARC
  5
3CC
  8
0
 62
     7
 10
71.093411000000003
 20
89.000307000000006
 30
0.0
 40
1.0645690000000001
 50
105.81145100000001
 51
118.600003
  0
ARC
  5
3CD
  8
0
 62
     7
 10
71.471527000000009
 20
87.796582000000001
 30
0.0
 40
2.3260519999999998
 50
97.905222999999992
 51
106.694002
  0
ARC
  5
3CE
  8
0
 62
     7
 10
71.791302999999999
 20
85.805127999999996
 30
0.0
 40
4.3427720000000001
 50
90.557518000000016
 51
98.470465000000004
  0
ARC
  5
3CF
  8
0
 62
     7
 10
69.199377999999996
 20
88.748895000000005
 30
0.0
 40
1.392881
 50
52.006101999999998
 51
84.914819999999992
  0
ARC
  5
3D0
  8
0
 62
     7
 10
69.07030300000001
 20
87.397769999999994
 30
0.0
 40
2.750141999999999
 50
84.731308999999996
 51
90.721508999999998
  0
LINE
  5
3D1
  8
0
 62
     7
 10
74.6905
 20
75.397800000000004
 30
0.0
 11
74.978499999999997
 21
75.623099999999994
 31
0.0
  0
LINE
  5
3D2
  8
0
 62
     7
 10
74.208899999999986
 20
79.6477
 30
0.0
 11
74.978499999999997
 21
79.188100000000006
 31
0.0
  0
LINE
  5
3D3
  8
0
 62
     7
 10
74.208899999999986
 20
79.6477
 30
0.0
 11
71.748999999999995
 21
79.6477
 31
0.0
  0
LINE
  5
3D4
  8
0
 62
     7
 10
74.6905
 20
75.397800000000004
 30
0.0
 11
71.748999999999995
 21
75.397800000000004
 31
0.0
  0
LINE
  5
3D5
  8
0
 62
     7
 10
73.143600000000006
 20
75.623099999999994
 30
0.0
 11
73.583899999999986
 21
75.623099999999994
 31
0.0
  0
LINE
  5
3D6
  8
0
 62
     7
 10
73.143600000000006
 20
79.188100000000006
 30
0.0
 11
73.143600000000006
 21
75.623099999999994
 31
0.0
  0
LINE
  5
3D7
  8
0
 62
     7
 10
73.583899999999986
 20
79.188100000000006
 30
0.0
 11
73.143600000000006
 21
79.188100000000006
 31
0.0
  0
LINE
  5
3D8
  8
0
 62
     7
 10
74.978499999999997
 20
79.188100000000006
 30
0.0
 11
74.978499999999997
 21
75.623099999999994
 31
0.0
  0
LINE
  5
3D9
  8
0
 62
     7
 10
73.583899999999986
 20
79.188100000000006
 30
0.0
 11
73.583899999999986
 21
75.623099999999994
 31
0.0
  0
LINE
  5
3DA
  8
0
 62
     7
 10
69.289900000000003
 20
84.335099999999997
 30
0.0
 11
69.539299999999983
 21
84.5852
 31
0.0
  0
LINE
  5
3DB
  8
0
 62
     7
 10
73.958699999999993
 20
84.5852
 30
0.0
 11
74.208899999999986
 21
84.335099999999997
 31
0.0
  0
LINE
  5
3DC
  8
0
 62
     7
 10
73.958699999999993
 20
84.5852
 30
0.0
 11
73.958699999999993
 21
85.522299999999987
 31
0.0
  0
LINE
  5
3DD
  8
0
 62
     7
 10
69.539299999999983
 20
84.5852
 30
0.0
 11
69.539299999999983
 21
85.522299999999987
 31
0.0
  0
LINE
  5
3DE
  8
0
 62
     7
 10
69.289900000000003
 20
84.5852
 30
0.0
 11
74.208899999999986
 21
84.5852
 31
0.0
  0
LINE
  5
3DF
  8
0
 62
     7
 10
74.208899999999986
 20
79.6477
 30
0.0
 11
74.208899999999986
 21
85.522299999999987
 31
0.0
  0
LINE
  5
3E0
  8
0
 62
     7
 10
74.463099999999997
 20
90.1477
 30
0.0
 11
74.728399999999993
 21
89.846599999999995
 31
0.0
  0
LINE
  5
3E1
  8
0
 62
     7
 10
68.770399999999995
 20
89.846599999999995
 30
0.0
 11
69.035700000000006
 21
90.1477
 31
0.0
  0
LINE
  5
3E2
  8
0
 62
     7
 10
74.463099999999997
 20
85.522299999999987
 30
0.0
 11
74.728399999999993
 21
85.777900000000002
 31
0.0
  0
LINE
  5
3E3
  8
0
 62
     7
 10
69.035700000000006
 20
85.522299999999987
 30
0.0
 11
68.770399999999995
 21
85.777900000000002
 31
0.0
  0
LINE
  5
3E4
  8
0
 62
     7
 10
68.808300000000003
 20
75.397800000000004
 30
0.0
 11
68.520300000000006
 21
75.623099999999994
 31
0.0
  0
LINE
  5
3E5
  8
0
 62
     7
 10
69.289900000000003
 20
79.6477
 30
0.0
 11
68.520300000000006
 21
79.188100000000006
 31
0.0
  0
LINE
  5
3E6
  8
0
 62
     7
 10
69.289900000000003
 20
79.6477
 30
0.0
 11
69.289900000000003
 21
85.522299999999987
 31
0.0
  0
LINE
  5
3E7
  8
0
 62
     7
 10
69.289900000000003
 20
79.6477
 30
0.0
 11
71.748999999999995
 21
79.6477
 31
0.0
  0
LINE
  5
3E8
  8
0
 62
     7
 10
68.808300000000003
 20
75.397800000000004
 30
0.0
 11
71.748999999999995
 21
75.397800000000004
 31
0.0
  0
LINE
  5
3E9
  8
0
 62
     7
 10
70.355199999999996
 20
75.623099999999994
 30
0.0
 11
69.914900000000003
 21
75.623099999999994
 31
0.0
  0
LINE
  5
3EA
  8
0
 62
     7
 10
70.355199999999996
 20
79.188100000000006
 30
0.0
 11
70.355199999999996
 21
75.623099999999994
 31
0.0
  0
LINE
  5
3EB
  8
0
 62
     7
 10
69.914900000000003
 20
79.188100000000006
 30
0.0
 11
70.355199999999996
 21
79.188100000000006
 31
0.0
  0
LINE
  5
3EC
  8
0
 62
     7
 10
68.520300000000006
 20
79.188100000000006
 30
0.0
 11
68.520300000000006
 21
75.623099999999994
 31
0.0
  0
LINE
  5
3ED
  8
0
 62
     7
 10
69.914900000000003
 20
79.188100000000006
 30
0.0
 11
69.914900000000003
 21
75.623099999999994
 31
0.0
  0
LINE
  5
3EE
  8
0
 62
     7
 10
74.463099999999997
 20
85.522299999999987
 30
0.0
 11
71.748999999999995
 21
85.522299999999987
 31
0.0
  0
LINE
  5
3EF
  8
0
 62
     7
 10
69.035700000000006
 20
85.522299999999987
 30
0.0
 11
71.748999999999995
 21
85.522299999999987
 31
0.0
  0
LINE
  5
3F0
  8
0
 62
     7
 10
73.035499999999999
 20
85.823400000000007
 30
0.0
 11
73.441999999999993
 21
85.823400000000007
 31
0.0
  0
LINE
  5
3F1
  8
0
 62
     7
 10
73.035499999999999
 20
89.846599999999995
 30
0.0
 11
73.035499999999999
 21
85.823400000000007
 31
0.0
  0
LINE
  5
3F2
  8
0
 62
     7
 10
73.441999999999993
 20
89.846599999999995
 30
0.0
 11
73.035499999999999
 21
89.846599999999995
 31
0.0
  0
LINE
  5
3F3
  8
0
 62
     7
 10
74.728399999999993
 20
89.846599999999995
 30
0.0
 11
74.728399999999993
 21
85.777900000000002
 31
0.0
  0
LINE
  5
3F4
  8
0
 62
     7
 10
73.441999999999993
 20
89.846599999999995
 30
0.0
 11
73.441999999999993
 21
85.823400000000007
 31
0.0
  0
LINE
  5
3F5
  8
0
 62
     7
 10
74.463099999999997
 20
90.1477
 30
0.0
 11
71.748999999999995
 21
90.1477
 31
0.0
  0
LINE
  5
3F6
  8
0
 62
     7
 10
70.462599999999995
 20
85.823400000000007
 30
0.0
 11
70.056799999999996
 21
85.823400000000007
 31
0.0
  0
LINE
  5
3F7
  8
0
 62
     7
 10
70.462599999999995
 20
89.846599999999995
 30
0.0
 11
70.462599999999995
 21
85.823400000000007
 31
0.0
  0
LINE
  5
3F8
  8
0
 62
     7
 10
70.056799999999996
 20
89.846599999999995
 30
0.0
 11
70.462599999999995
 21
89.846599999999995
 31
0.0
  0
LINE
  5
3F9
  8
0
 62
     7
 10
68.770399999999995
 20
89.846599999999995
 30
0.0
 11
68.770399999999995
 21
85.777900000000002
 31
0.0
  0
LINE
  5
3FA
  8
0
 62
     7
 10
70.056799999999996
 20
89.846599999999995
 30
0.0
 11
70.056799999999996
 21
85.823400000000007
 31
0.0
  0
LINE
  5
3FB
  8
0
 62
     7
 10
69.035700000000006
 20
90.1477
 30
0.0
 11
71.748999999999995
 21
90.1477
 31
0.0
  0
LINE
  5
3FC
  8
0
 62
     7
 10
82.930499999999995
 20
69.200000000000003
 30
0.0
 11
65.815899999999999
 21
69.200000000000003
 31
0.0
  0
LINE
  5
3FD
  8
0
 62
     7
 10
74.207499999999996
 20
74.716300000000004
 30
0.0
 11
74.207499999999996
 21
68.684600000000003
 31
0.0
  0
LINE
  5
3FE
  8
0
 62
     7
 10
69.290599999999984
 20
68.707999999999998
 30
0.0
 11
69.290599999999984
 21
74.741799999999998
 31
0.0
  0
ARC
  5
3FF
  8
0
 62
     7
 10
73.819554000000011
 20
115.642374
 30
0.0
 40
0.8304309999999999
 50
213.15683899999999
 51
269.47756200000009
  0
ARC
  5
400
  8
0
 62
     7
 10
73.804410000000004
 20
115.642374
 30
0.0
 40
0.8304309999999999
 50
270.52245799999997
 51
326.84318100000002
  0
ARC
  5
401
  8
0
 62
     7
 10
71.747506999999999
 20
118.565765
 30
0.0
 40
3.753787
 50
260.71524199999999
 51
270.03401500000001
  0
ARC
  5
402
  8
0
 62
     7
 10
71.51950699999999
 20
117.027905
 30
0.0
 40
2.199411
 50
246.923565
 51
260.1132629999999
  0
ARC
  5
403
  8
0
 62
     7
 10
71.146008999999992
 20
116.09935299999999
 30
0.0
 40
1.1989369999999999
 50
233.99927
 51
245.9513750000001
  0
ARC
  5
404
  8
0
 62
     7
 10
70.740899999999996
 20
115.537458
 30
0.0
 40
0.506243
 50
223.624686
 51
233.711421
  0
ARC
  5
405
  8
0
 62
     7
 10
71.751959999999997
 20
118.56122499999999
 30
0.0
 40
3.7492480000000001
 50
269.96600599999999
 51
279.29040800000001
  0
ARC
  5
406
  8
0
 62
     7
 10
71.979623000000004
 20
117.026371
 30
0.0
 40
2.197894999999999
 50
279.89279099999999
 51
293.085669
  0
ARC
  5
407
  8
0
 62
     7
 10
72.352873000000002
 20
116.098922
 30
0.0
 40
1.1985339999999991
 50
294.05612400000001
 51
306.00934699999999
  0
ARC
  5
408
  8
0
 62
     7
 10
72.757995999999991
 20
115.537271
 30
0.0
 40
0.5060310000000001
 50
306.291515
 51
316.381573
  0
ARC
  5
409
  8
0
 62
     7
 10
69.679226
 20
115.642374
 30
0.0
 40
0.8304309999999999
 50
270.52245799999997
 51
326.84318100000002
  0
ARC
  5
40A
  8
0
 62
     7
 10
69.69437099999999
 20
115.642374
 30
0.0
 40
0.8304309999999999
 50
213.15683899999999
 51
269.47756200000009
  0
LINE
  5
40B
  8
0
 62
     7
 10
69.686800000000005
 20
114.812
 30
0.0
 11
73.811999999999983
 21
114.812
 31
0.0
  0
ARC
  5
40C
  8
0
 62
     7
 10
73.819580000000002
 20
116.982373
 30
0.0
 40
0.8296479999999998
 50
90.524690000000007
 51
146.92924300000001
  0
ARC
  5
40D
  8
0
 62
     7
 10
73.804383999999999
 20
116.982373
 30
0.0
 40
0.8296479999999998
 50
33.070737000000001
 51
89.475290000000015
  0
ARC
  5
40E
  8
0
 62
     7
 10
71.747488000000004
 20
114.06572
 30
0.0
 40
3.746267
 50
89.965624000000005
 51
99.303264999999996
  0
ARC
  5
40F
  8
0
 62
     7
 10
71.519049999999993
 20
115.601145
 30
0.0
 40
2.1942270000000001
 50
99.898217000000002
 51
113.12114699999989
  0
ARC
  5
410
  8
0
 62
     7
 10
71.146334999999993
 20
116.52544399999999
 30
0.0
 40
1.197983999999999
 50
114.086039
 51
126.05312499999999
  0
ARC
  5
411
  8
0
 62
     7
 10
70.740889999999993
 20
117.086575
 30
0.0
 40
0.505713
 50
126.331231
 51
136.436657
  0
ARC
  5
412
  8
0
 62
     7
 10
71.751979000000006
 20
114.07025
 30
0.0
 40
3.7417370000000001
 50
80.691073000000003
 51
90.034356000000017
  0
ARC
  5
413
  8
0
 62
     7
 10
71.980080000000001
 20
115.602675
 30
0.0
 40
2.1927140000000001
 50
66.869602
 51
80.095721999999995
  0
ARC
  5
414
  8
0
 62
     7
 10
72.352547000000001
 20
116.525875
 30
0.0
 40
1.1975830000000001
 50
53.938253000000003
 51
65.906452000000002
  0
ARC
  5
415
  8
0
 62
     7
 10
72.758006000000009
 20
117.086761
 30
0.0
 40
0.505501
 50
43.557084000000003
 51
53.665830999999997
  0
ARC
  5
416
  8
0
 62
     7
 10
69.679201000000006
 20
116.982373
 30
0.0
 40
0.8296479999999998
 50
33.070737000000001
 51
89.475290000000015
  0
ARC
  5
417
  8
0
 62
     7
 10
69.694395999999998
 20
116.982373
 30
0.0
 40
0.8296479999999998
 50
90.524690000000007
 51
146.92924300000001
  0
LINE
  5
418
  8
0
 62
     7
 10
69.686800000000005
 20
117.812
 30
0.0
 11
73.811999999999983
 21
117.812
 31
0.0
  0
ARC
  5
419
  8
0
 62
     7
 10
73.819580000000002
 20
118.891026
 30
0.0
 40
0.8296479999999998
 50
213.07075699999999
 51
269.47530999999998
  0
ARC
  5
41A
  8
0
 62
     7
 10
73.804383999999999
 20
118.891026
 30
0.0
 40
0.8296479999999998
 50
270.52471000000003
 51
326.92926299999999
  0
ARC
  5
41B
  8
0
 62
     7
 10
71.747488000000004
 20
121.80767899999999
 30
0.0
 40
3.746267
 50
260.69673499999999
 51
270.0343759999999
  0
ARC
  5
41C
  8
0
 62
     7
 10
71.519049999999993
 20
120.27225300000001
 30
0.0
 40
2.1942270000000001
 50
246.87885299999999
 51
260.10178300000001
  0
ARC
  5
41D
  8
0
 62
     7
 10
71.146334999999993
 20
119.347955
 30
0.0
 40
1.197983999999999
 50
233.94687500000001
 51
245.913961
  0
ARC
  5
41E
  8
0
 62
     7
 10
70.740889999999993
 20
118.786823
 30
0.0
 40
0.505713
 50
223.563343
 51
233.668769
  0
ARC
  5
41F
  8
0
 62
     7
 10
71.751979000000006
 20
121.803149
 30
0.0
 40
3.7417370000000001
 50
269.965644
 51
279.30892699999998
  0
ARC
  5
420
  8
0
 62
     7
 10
71.980080000000001
 20
120.270723
 30
0.0
 40
2.1927140000000001
 50
279.90427799999998
 51
293.13039800000001
  0
ARC
  5
421
  8
0
 62
     7
 10
72.352547000000001
 20
119.34752400000001
 30
0.0
 40
1.1975830000000001
 50
294.093548
 51
306.06174700000003
  0
ARC
  5
422
  8
0
 62
     7
 10
72.758006000000009
 20
118.7866379999999
 30
0.0
 40
0.505501
 50
306.33416899999997
 51
316.44291600000003
  0
ARC
  5
423
  8
0
 62
     7
 10
69.679201000000006
 20
118.891026
 30
0.0
 40
0.8296479999999998
 50
270.52471000000003
 51
326.92926299999999
  0
ARC
  5
424
  8
0
 62
     7
 10
69.694395999999998
 20
118.891026
 30
0.0
 40
0.8296479999999998
 50
213.07075699999999
 51
269.47530999999998
  0
LINE
  5
425
  8
0
 62
     7
 10
69.686800000000005
 20
118.06100000000001
 30
0.0
 11
73.811999999999983
 21
118.06100000000001
 31
0.0
  0
ARC
  5
426
  8
0
 62
     7
 10
73.819580000000002
 20
121.7325
 30
0.0
 40
0.8296479999999998
 50
90.524690000000007
 51
146.92924300000001
  0
ARC
  5
427
  8
0
 62
     7
 10
73.804383999999999
 20
121.7325
 30
0.0
 40
0.8296479999999998
 50
33.070737000000001
 51
89.475290000000015
  0
ARC
  5
428
  8
0
 62
     7
 10
71.747488000000004
 20
118.815848
 30
0.0
 40
3.746267
 50
89.965624000000005
 51
99.303264999999996
  0
ARC
  5
429
  8
0
 62
     7
 10
71.519049999999993
 20
120.35127300000001
 30
0.0
 40
2.1942270000000001
 50
99.898217000000002
 51
113.12114699999989
  0
ARC
  5
42A
  8
0
 62
     7
 10
71.146334999999993
 20
121.275572
 30
0.0
 40
1.197983999999999
 50
114.086039
 51
126.05312499999999
  0
ARC
  5
42B
  8
0
 62
     7
 10
70.740889999999993
 20
121.836703
 30
0.0
 40
0.505713
 50
126.331231
 51
136.436657
  0
ARC
  5
42C
  8
0
 62
     7
 10
71.751979000000006
 20
118.82037800000001
 30
0.0
 40
3.7417370000000001
 50
80.691073000000003
 51
90.034356000000017
  0
ARC
  5
42D
  8
0
 62
     7
 10
71.980080000000001
 20
120.35280299999999
 30
0.0
 40
2.1927140000000001
 50
66.869602
 51
80.095721999999995
  0
ARC
  5
42E
  8
0
 62
     7
 10
72.352547000000001
 20
121.27600200000001
 30
0.0
 40
1.1975830000000001
 50
53.938253000000003
 51
65.906452000000002
  0
ARC
  5
42F
  8
0
 62
     7
 10
72.758006000000009
 20
121.836889
 30
0.0
 40
0.505501
 50
43.557084000000003
 51
53.665830999999997
  0
ARC
  5
430
  8
0
 62
     7
 10
69.679201000000006
 20
121.7325
 30
0.0
 40
0.8296479999999998
 50
33.070737000000001
 51
89.475290000000015
  0
ARC
  5
431
  8
0
 62
     7
 10
69.694395999999998
 20
121.7325
 30
0.0
 40
0.8296479999999998
 50
90.524690000000007
 51
146.92924300000001
  0
LINE
  5
432
  8
0
 62
     7
 10
69.903800000000004
 20
109.792
 30
0.0
 11
71.749700000000004
 21
109.792
 31
0.0
  0
LINE
  5
433
  8
0
 62
     7
 10
73.594899999999996
 20
109.792
 30
0.0
 11
71.749700000000004
 21
109.792
 31
0.0
  0
LINE
  5
434
  8
0
 62
     7
 10
73.594899999999996
 20
109.792
 30
0.0
 11
73.594899999999996
 21
111.48099999999999
 31
0.0
  0
LINE
  5
435
  8
0
 62
     7
 10
73.321399999999997
 20
111.755
 30
0.0
 11
73.321399999999997
 21
113.91
 31
0.0
  0
LINE
  5
436
  8
0
 62
     7
 10
73.321399999999997
 20
111.755
 30
0.0
 11
73.594899999999996
 21
111.48099999999999
 31
0.0
  0
LINE
  5
437
  8
0
 62
     7
 10
72.240999999999985
 20
111.755
 30
0.0
 11
72.240999999999985
 21
113.91
 31
0.0
  0
LINE
  5
438
  8
0
 62
     7
 10
72.631
 20
111.755
 30
0.0
 11
72.631
 21
113.91
 31
0.0
  0
LINE
  5
439
  8
0
 62
     7
 10
72.631
 20
111.755
 30
0.0
 11
73.321399999999997
 21
111.755
 31
0.0
  0
LINE
  5
43A
  8
0
 62
     7
 10
71.749700000000004
 20
111.755
 30
0.0
 11
72.240999999999985
 21
111.755
 31
0.0
  0
ARC
  5
43B
  8
0
 62
     7
 10
73.304427000000004
 20
114.343698
 30
0.0
 40
0.468588
 50
2.0754399999999991
 51
87.924549999999996
  0
ARC
  5
43C
  8
0
 62
     7
 10
73.304736000000005
 20
114.37804300000001
 30
0.0
 40
0.468294
 50
272.03888000000001
 51
357.87358799999998
  0
LINE
  5
43D
  8
0
 62
     7
 10
72.631
 20
113.91
 30
0.0
 11
73.321399999999997
 21
113.91
 31
0.0
  0
LINE
  5
43E
  8
0
 62
     7
 10
71.749700000000004
 20
113.91
 30
0.0
 11
72.240999999999985
 21
113.91
 31
0.0
  0
LINE
  5
43F
  8
0
 62
     7
 10
71.749700000000004
 20
114.812
 30
0.0
 11
73.321399999999997
 21
114.812
 31
0.0
  0
LINE
  5
440
  8
0
 62
     7
 10
69.903800000000004
 20
109.792
 30
0.0
 11
69.903800000000004
 21
111.48099999999999
 31
0.0
  0
LINE
  5
441
  8
0
 62
     7
 10
70.177400000000006
 20
111.755
 30
0.0
 11
70.177400000000006
 21
113.91
 31
0.0
  0
LINE
  5
442
  8
0
 62
     7
 10
70.177400000000006
 20
111.755
 30
0.0
 11
69.903800000000004
 21
111.48099999999999
 31
0.0
  0
LINE
  5
443
  8
0
 62
     7
 10
71.258499999999984
 20
111.755
 30
0.0
 11
71.258499999999984
 21
113.91
 31
0.0
  0
LINE
  5
444
  8
0
 62
     7
 10
70.867800000000003
 20
111.755
 30
0.0
 11
70.867800000000003
 21
113.91
 31
0.0
  0
LINE
  5
445
  8
0
 62
     7
 10
70.867800000000003
 20
111.755
 30
0.0
 11
70.177400000000006
 21
111.755
 31
0.0
  0
LINE
  5
446
  8
0
 62
     7
 10
71.749700000000004
 20
111.755
 30
0.0
 11
71.258499999999984
 21
111.755
 31
0.0
  0
ARC
  5
447
  8
0
 62
     7
 10
70.194322999999997
 20
114.377607
 30
0.0
 40
0.467868
 50
182.07494999999989
 51
267.92507999999998
  0
ARC
  5
448
  8
0
 62
     7
 10
70.195397999999997
 20
114.343369
 30
0.0
 40
0.4689550000000001
 50
92.201530000000005
 51
177.88598099999999
  0
LINE
  5
449
  8
0
 62
     7
 10
70.867800000000003
 20
113.91
 30
0.0
 11
70.177400000000006
 21
113.91
 31
0.0
  0
LINE
  5
44A
  8
0
 62
     7
 10
71.749700000000004
 20
113.91
 30
0.0
 11
71.258499999999984
 21
113.91
 31
0.0
  0
LINE
  5
44B
  8
0
 62
     7
 10
71.749700000000004
 20
114.812
 30
0.0
 11
70.177400000000006
 21
114.812
 31
0.0
  0
ARC
  5
44C
  8
0
 62
     7
 10
72.500802000000007
 20
102.05512
 30
0.0
 40
1.064263999999999
 50
240.313177
 51
269.92409300000003
  0
ARC
  5
44D
  8
0
 62
     7
 10
72.324989000000002
 20
101.71335999999999
 30
0.0
 40
0.6804899999999999
 50
212.29017200000001
 51
238.92186899999999
  0
ARC
  5
44E
  8
0
 62
     7
 10
72.497981999999993
 20
102.05512
 30
0.0
 40
1.064263999999999
 50
270.07592699999998
 51
299.68684200000001
  0
ARC
  5
44F
  8
0
 62
     7
 10
72.673794999999998
 20
101.71335999999999
 30
0.0
 40
0.6804899999999999
 50
301.07815099999999
 51
327.70984700000008
  0
ARC
  5
450
  8
0
 62
     7
 10
72.497981999999993
 20
100.64455599999999
 30
0.0
 40
1.064263999999999
 50
60.313157999999987
 51
89.924072999999993
  0
ARC
  5
451
  8
0
 62
     7
 10
72.673794999999998
 20
100.986315
 30
0.0
 40
0.6804899999999999
 50
32.290152999999997
 51
58.921849000000009
  0
ARC
  5
452
  8
0
 62
     7
 10
72.500802000000007
 20
100.64455599999999
 30
0.0
 40
1.064263999999999
 50
90.075906999999987
 51
119.686823
  0
ARC
  5
453
  8
0
 62
     7
 10
72.324989000000002
 20
100.986315
 30
0.0
 40
0.6804899999999999
 50
121.0781309999999
 51
147.70982799999999
  0
ARC
  5
454
  8
0
 62
     7
 10
70.997977000000006
 20
100.644164
 30
0.0
 40
1.064656
 50
60.318740000000012
 51
89.924024000000017
  0
ARC
  5
455
  8
0
 62
     7
 10
71.172044
 20
100.98288100000001
 30
0.0
 40
0.6843860000000001
 50
32.424239
 51
58.937621999999998
  0
ARC
  5
456
  8
0
 62
     7
 10
71.000798000000003
 20
100.64455599999999
 30
0.0
 40
1.064263999999999
 50
90.075906999999987
 51
119.686823
  0
ARC
  5
457
  8
0
 62
     7
 10
70.824984999999984
 20
100.986315
 30
0.0
 40
0.6804899999999999
 50
121.0781309999999
 51
147.70982799999999
  0
LINE
  5
458
  8
0
 62
     7
 10
73.249700000000004
 20
103.202
 30
0.0
 11
73.249700000000004
 21
109.792
 31
0.0
  0
LINE
  5
459
  8
0
 62
     7
 10
70.249700000000004
 20
103.202
 30
0.0
 11
70.249700000000004
 21
109.792
 31
0.0
  0
ARC
  5
45A
  8
0
 62
     7
 10
70.998666999999983
 20
102.496651
 30
0.0
 40
1.064263999999999
 50
60.313157999999987
 51
89.924072999999993
  0
ARC
  5
45B
  8
0
 62
     7
 10
71.174480000000003
 20
102.83841
 30
0.0
 40
0.6804899999999999
 50
32.290152999999997
 51
58.921849000000009
  0
ARC
  5
45C
  8
0
 62
     7
 10
71.001493000000011
 20
102.49520800000001
 30
0.0
 40
1.0657069999999991
 50
90.07608900000001
 51
119.666267
  0
ARC
  5
45D
  8
0
 62
     7
 10
70.825147000000001
 20
102.837745
 30
0.0
 40
0.6809820000000001
 50
121.038388
 51
147.66977900000001
  0
ARC
  5
45E
  8
0
 62
     7
 10
71.001493000000011
 20
103.90865700000001
 30
0.0
 40
1.0657069999999991
 50
240.333733
 51
269.92391099999998
  0
ARC
  5
45F
  8
0
 62
     7
 10
70.825147000000001
 20
103.56612
 30
0.0
 40
0.6809820000000001
 50
212.33022099999999
 51
238.961612
  0
ARC
  5
460
  8
0
 62
     7
 10
70.998666999999983
 20
103.90721499999999
 30
0.0
 40
1.064263999999999
 50
270.07592699999998
 51
299.68684200000001
  0
ARC
  5
461
  8
0
 62
     7
 10
71.174480000000003
 20
103.565455
 30
0.0
 40
0.6804899999999999
 50
301.07815099999999
 51
327.70984700000008
  0
ARC
  5
462
  8
0
 62
     7
 10
72.500802000000007
 20
103.90721499999999
 30
0.0
 40
1.064263999999999
 50
240.313177
 51
269.92409300000003
  0
ARC
  5
463
  8
0
 62
     7
 10
72.324989000000002
 20
103.565455
 30
0.0
 40
0.6804899999999999
 50
212.29017200000001
 51
238.92186899999999
  0
ARC
  5
464
  8
0
 62
     7
 10
72.497977000000006
 20
103.90865700000001
 30
0.0
 40
1.0657069999999991
 50
270.07610899999997
 51
299.66628700000001
  0
ARC
  5
465
  8
0
 62
     7
 10
72.674323000000001
 20
103.56612
 30
0.0
 40
0.6809820000000001
 50
301.038408
 51
327.66979800000001
  0
LINE
  5
466
  8
0
 62
     7
 10
69.903800000000004
 20
97.238399999999999
 30
0.0
 11
69.903800000000004
 21
95.548900000000003
 31
0.0
  0
LINE
  5
467
  8
0
 62
     7
 10
69.903800000000004
 20
97.238399999999999
 30
0.0
 11
71.749700000000004
 21
97.238399999999999
 31
0.0
  0
LINE
  5
468
  8
0
 62
     7
 10
70.177400000000006
 20
95.275400000000005
 30
0.0
 11
70.177400000000006
 21
93.049199999999999
 31
0.0
  0
LINE
  5
469
  8
0
 62
     7
 10
70.177400000000006
 20
95.275400000000005
 30
0.0
 11
69.903800000000004
 21
95.548900000000003
 31
0.0
  0
LINE
  5
46A
  8
0
 62
     7
 10
71.258499999999984
 20
95.275400000000005
 30
0.0
 11
71.258499999999984
 21
93.049199999999999
 31
0.0
  0
LINE
  5
46B
  8
0
 62
     7
 10
70.867800000000003
 20
95.275400000000005
 30
0.0
 11
70.867800000000003
 21
93.049199999999999
 31
0.0
  0
LINE
  5
46C
  8
0
 62
     7
 10
70.867800000000003
 20
95.275400000000005
 30
0.0
 11
70.177400000000006
 21
95.275400000000005
 31
0.0
  0
LINE
  5
46D
  8
0
 62
     7
 10
71.749700000000004
 20
95.275400000000005
 30
0.0
 11
71.258499999999984
 21
95.275400000000005
 31
0.0
  0
ARC
  5
46E
  8
0
 62
     7
 10
70.194372000000001
 20
92.614824999999996
 30
0.0
 40
0.4678930000000001
 50
181.99327400000001
 51
267.91921500000001
  0
ARC
  5
46F
  8
0
 62
     7
 10
70.194710000000001
 20
92.581224000000006
 30
0.0
 40
0.468269
 50
92.120547999999999
 51
177.87942200000001
  0
LINE
  5
470
  8
0
 62
     7
 10
70.867800000000003
 20
93.049199999999999
 30
0.0
 11
70.177400000000006
 21
93.049199999999999
 31
0.0
  0
LINE
  5
471
  8
0
 62
     7
 10
71.749700000000004
 20
93.049199999999999
 30
0.0
 11
71.258499999999984
 21
93.049199999999999
 31
0.0
  0
LINE
  5
472
  8
0
 62
     7
 10
70.499799999999993
 20
90.1477
 30
0.0
 11
70.499799999999993
 21
92.147199999999984
 31
0.0
  0
LINE
  5
473
  8
0
 62
     7
 10
71.749700000000004
 20
92.147199999999984
 30
0.0
 11
70.177400000000006
 21
92.147199999999984
 31
0.0
  0
LINE
  5
474
  8
0
 62
     7
 10
73.594899999999996
 20
97.238399999999999
 30
0.0
 11
73.594899999999996
 21
95.548900000000003
 31
0.0
  0
LINE
  5
475
  8
0
 62
     7
 10
73.594899999999996
 20
97.238399999999999
 30
0.0
 11
71.749700000000004
 21
97.238399999999999
 31
0.0
  0
LINE
  5
476
  8
0
 62
     7
 10
73.321399999999997
 20
95.275400000000005
 30
0.0
 11
73.321399999999997
 21
93.049199999999999
 31
0.0
  0
LINE
  5
477
  8
0
 62
     7
 10
73.321399999999997
 20
95.275400000000005
 30
0.0
 11
73.594899999999996
 21
95.548900000000003
 31
0.0
  0
LINE
  5
478
  8
0
 62
     7
 10
72.240999999999985
 20
95.275400000000005
 30
0.0
 11
72.240999999999985
 21
93.049199999999999
 31
0.0
  0
LINE
  5
479
  8
0
 62
     7
 10
72.631699999999995
 20
95.275400000000005
 30
0.0
 11
72.631699999999995
 21
93.049199999999999
 31
0.0
  0
LINE
  5
47A
  8
0
 62
     7
 10
72.631699999999995
 20
95.275400000000005
 30
0.0
 11
73.321399999999997
 21
95.275400000000005
 31
0.0
  0
LINE
  5
47B
  8
0
 62
     7
 10
71.749700000000004
 20
95.275400000000005
 30
0.0
 11
72.240999999999985
 21
95.275400000000005
 31
0.0
  0
ARC
  5
47C
  8
0
 62
     7
 10
73.304475999999994
 20
92.580914000000007
 30
0.0
 40
0.4685640000000001
 50
2.157125999999999
 51
87.930405000000007
  0
ARC
  5
47D
  8
0
 62
     7
 10
73.304050000000004
 20
92.615898000000016
 30
0.0
 40
0.468979
 50
272.11986899999999
 51
357.88014099999998
  0
LINE
  5
47E
  8
0
 62
     7
 10
72.631699999999995
 20
93.049199999999999
 30
0.0
 11
73.321399999999997
 21
93.049199999999999
 31
0.0
  0
LINE
  5
47F
  8
0
 62
     7
 10
71.749700000000004
 20
93.049199999999999
 30
0.0
 11
72.240999999999985
 21
93.049199999999999
 31
0.0
  0
LINE
  5
480
  8
0
 62
     7
 10
72.999600000000001
 20
90.1477
 30
0.0
 11
72.999600000000001
 21
92.147199999999984
 31
0.0
  0
LINE
  5
481
  8
0
 62
     7
 10
71.749700000000004
 20
92.147199999999984
 30
0.0
 11
73.321399999999997
 21
92.147199999999984
 31
0.0
  0
LINE
  5
482
  8
0
 62
     7
 10
73.249700000000004
 20
97.238399999999999
 30
0.0
 11
73.249700000000004
 21
101.34999999999999
 31
0.0
  0
LINE
  5
483
  8
0
 62
     7
 10
70.249700000000004
 20
97.238399999999999
 30
0.0
 11
70.249700000000004
 21
101.34999999999999
 31
0.0
  0
LINE
  5
484
  8
0
 62
     7
 10
73.624600000000001
 20
117.812
 30
0.0
 11
73.624600000000001
 21
118.06100000000001
 31
0.0
  0
LINE
  5
485
  8
0
 62
     7
 10
69.874200000000002
 20
118.062
 30
0.0
 11
69.874200000000002
 21
117.812
 31
0.0
  0
LINE
  5
486
  8
0
 62
     7
 10
74.499600000000001
 20
115.188
 30
0.0
 11
74.499600000000001
 21
117.435
 31
0.0
  0
LINE
  5
487
  8
0
 62
     7
 10
73.124300000000005
 20
115.188
 30
0.0
 11
73.124300000000005
 21
117.435
 31
0.0
  0
LINE
  5
488
  8
0
 62
     7
 10
70.374399999999994
 20
115.188
 30
0.0
 11
70.374399999999994
 21
117.435
 31
0.0
  0
LINE
  5
489
  8
0
 62
     7
 10
68.999200000000002
 20
115.188
 30
0.0
 11
68.999200000000002
 21
117.435
 31
0.0
  0
LINE
  5
48A
  8
0
 62
     7
 10
74.499600000000001
 20
118.438
 30
0.0
 11
74.499600000000001
 21
122.185
 31
0.0
  0
LINE
  5
48B
  8
0
 62
     7
 10
70.374399999999994
 20
118.438
 30
0.0
 11
70.374399999999994
 21
122.185
 31
0.0
  0
LINE
  5
48C
  8
0
 62
     7
 10
73.124300000000005
 20
118.438
 30
0.0
 11
73.124300000000005
 21
122.185
 31
0.0
  0
LINE
  5
48D
  8
0
 62
     7
 10
68.999200000000002
 20
118.438
 30
0.0
 11
68.999200000000002
 21
122.185
 31
0.0
  0
LINE
  5
48E
  8
0
 62
     7
 10
69.686800000000005
 20
122.562
 30
0.0
 11
73.811999999999983
 21
122.562
 31
0.0
  0
ARC
  5
48F
  8
0
 62
     7
 10
65.069640000000007
 20
115.642366
 30
0.0
 40
0.8304219999999999
 50
213.15650500000001
 51
269.47789499999999
  0
ARC
  5
490
  8
0
 62
     7
 10
65.054156000000006
 20
115.642374
 30
0.0
 40
0.8304309999999999
 50
270.52245799999997
 51
326.84318100000002
  0
ARC
  5
491
  8
0
 62
     7
 10
62.997253999999998
 20
118.564046
 30
0.0
 40
3.7520679999999991
 50
260.71311100000003
 51
270.03402499999999
  0
ARC
  5
492
  8
0
 62
     7
 10
62.769620000000003
 20
117.028768
 30
0.0
 40
2.2003009999999992
 50
246.926559
 51
260.11130800000001
  0
ARC
  5
493
  8
0
 62
     7
 10
62.396269999999987
 20
116.100454
 30
0.0
 40
1.2001010000000001
 50
234.01217299999999
 51
245.95577599999999
  0
ARC
  5
494
  8
0
 62
     7
 10
61.990856000000001
 20
115.537942
 30
0.0
 40
0.506729
 50
223.648054
 51
233.72922800000001
  0
ARC
  5
495
  8
0
 62
     7
 10
63.001705000000001
 20
118.561773
 30
0.0
 40
3.749795999999999
 50
269.96603199999998
 51
279.28972800000003
  0
ARC
  5
496
  8
0
 62
     7
 10
63.229298999999997
 20
117.02756599999999
 30
0.0
 40
2.1990910000000001
 50
279.89037100000002
 51
293.07942400000002
  0
ARC
  5
497
  8
0
 62
     7
 10
63.602353000000001
 20
116.10033
 30
0.0
 40
1.2000010000000001
 50
294.04812299999992
 51
305.99138199999999
  0
ARC
  5
498
  8
0
 62
     7
 10
64.007508000000001
 20
115.53820399999999
 30
0.0
 40
0.5070930000000001
 50
306.27694000000002
 51
316.350391
  0
ARC
  5
499
  8
0
 62
     7
 10
60.928978000000001
 20
115.642366
 30
0.0
 40
0.8304219999999999
 50
270.52212500000002
 51
326.84351500000002
  0
ARC
  5
49A
  8
0
 62
     7
 10
60.944462000000001
 20
115.642374
 30
0.0
 40
0.8304309999999999
 50
213.15683899999999
 51
269.47756200000009
  0
LINE
  5
49B
  8
0
 62
     7
 10
60.936500000000002
 20
114.812
 30
0.0
 11
65.062100000000001
 21
114.812
 31
0.0
  0
ARC
  5
49C
  8
0
 62
     7
 10
65.069665999999998
 20
116.982382
 30
0.0
 40
0.8296389999999998
 50
90.524356999999995
 51
146.92957699999999
  0
ARC
  5
49D
  8
0
 62
     7
 10
65.054131000000012
 20
116.982373
 30
0.0
 40
0.8296479999999998
 50
33.070737000000001
 51
89.475290000000015
  0
ARC
  5
49E
  8
0
 62
     7
 10
62.997234999999989
 20
114.067435
 30
0.0
 40
3.744551
 50
89.965614000000002
 51
99.305400999999989
  0
ARC
  5
49F
  8
0
 62
     7
 10
62.769162999999992
 20
115.600285
 30
0.0
 40
2.1951130000000001
 50
99.900173999999993
 51
113.118149
  0
ARC
  5
4A0
  8
0
 62
     7
 10
62.396595999999988
 20
116.524345
 30
0.0
 40
1.1991459999999989
 50
114.081633
 51
126.040211
  0
ARC
  5
4A1
  8
0
 62
     7
 10
61.990844999999993
 20
117.08609199999999
 30
0.0
 40
0.5061970000000001
 50
126.31341399999999
 51
136.41328999999999
  0
ARC
  5
4A2
  8
0
 62
     7
 10
63.001724000000003
 20
114.069703
 30
0.0
 40
3.742283
 50
80.691754000000003
 51
90.034328999999985
  0
ARC
  5
4A3
  8
0
 62
     7
 10
63.229756000000009
 20
115.601484
 30
0.0
 40
2.1939069999999989
 50
66.875857999999994
 51
80.098145000000002
  0
ARC
  5
4A4
  8
0
 62
     7
 10
63.602027
 20
116.52446999999999
 30
0.0
 40
1.1990469999999991
 50
53.95623100000001
 51
65.914462999999998
  0
ARC
  5
4A5
  8
0
 62
     7
 10
64.00752
 20
117.085832
 30
0.0
 40
0.50656
 50
43.58826599999999
 51
53.680416000000001
  0
ARC
  5
4A6
  8
0
 62
     7
 10
60.928952000000002
 20
116.982382
 30
0.0
 40
0.8296389999999998
 50
33.070404000000003
 51
89.475623999999996
  0
ARC
  5
4A7
  8
0
 62
     7
 10
60.944487000000002
 20
116.982373
 30
0.0
 40
0.8296479999999998
 50
90.524690000000007
 51
146.92924300000001
  0
LINE
  5
4A8
  8
0
 62
     7
 10
60.936500000000002
 20
117.812
 30
0.0
 11
65.062100000000001
 21
117.812
 31
0.0
  0
ARC
  5
4A9
  8
0
 62
     7
 10
65.069665999999998
 20
118.89101700000001
 30
0.0
 40
0.8296389999999998
 50
213.07042300000001
 51
269.47564299999999
  0
ARC
  5
4AA
  8
0
 62
     7
 10
65.054131000000012
 20
118.891026
 30
0.0
 40
0.8296479999999998
 50
270.52471000000003
 51
326.92926299999999
  0
ARC
  5
4AB
  8
0
 62
     7
 10
62.997234999999989
 20
121.80596300000001
 30
0.0
 40
3.744551
 50
260.69459899999998
 51
270.03438599999998
  0
ARC
  5
4AC
  8
0
 62
     7
 10
62.769162999999992
 20
120.27311400000001
 30
0.0
 40
2.1951130000000001
 50
246.88185100000001
 51
260.09982599999989
  0
ARC
  5
4AD
  8
0
 62
     7
 10
62.396595999999988
 20
119.349053
 30
0.0
 40
1.1991459999999989
 50
233.959789
 51
245.91836699999999
  0
ARC
  5
4AE
  8
0
 62
     7
 10
61.990844999999993
 20
118.787306
 30
0.0
 40
0.5061970000000001
 50
223.58671000000001
 51
233.68658600000001
  0
ARC
  5
4AF
  8
0
 62
     7
 10
63.001724000000003
 20
121.803695
 30
0.0
 40
3.742283
 50
269.96567099999999
 51
279.308246
  0
ARC
  5
4B0
  8
0
 62
     7
 10
63.229756000000009
 20
120.27191500000001
 30
0.0
 40
2.1939069999999989
 50
279.9018549999999
 51
293.12414200000001
  0
ARC
  5
4B1
  8
0
 62
     7
 10
63.602027
 20
119.348929
 30
0.0
 40
1.1990469999999991
 50
294.08553699999999
 51
306.043769
  0
ARC
  5
4B2
  8
0
 62
     7
 10
64.00752
 20
118.787567
 30
0.0
 40
0.50656
 50
306.31958400000002
 51
316.41173400000002
  0
ARC
  5
4B3
  8
0
 62
     7
 10
60.928952000000002
 20
118.89101700000001
 30
0.0
 40
0.8296389999999998
 50
270.52437600000002
 51
326.929596
  0
ARC
  5
4B4
  8
0
 62
     7
 10
60.944487000000002
 20
118.891026
 30
0.0
 40
0.8296479999999998
 50
213.07075699999999
 51
269.47530999999998
  0
LINE
  5
4B5
  8
0
 62
     7
 10
60.936500000000002
 20
118.06100000000001
 30
0.0
 11
65.062100000000001
 21
118.06100000000001
 31
0.0
  0
ARC
  5
4B6
  8
0
 62
     7
 10
65.069665999999998
 20
121.73250899999999
 30
0.0
 40
0.8296389999999998
 50
90.524356999999995
 51
146.92957699999999
  0
ARC
  5
4B7
  8
0
 62
     7
 10
65.054131000000012
 20
121.7325
 30
0.0
 40
0.8296479999999998
 50
33.070737000000001
 51
89.475290000000015
  0
ARC
  5
4B8
  8
0
 62
     7
 10
62.997234999999989
 20
118.81756300000001
 30
0.0
 40
3.744551
 50
89.965614000000002
 51
99.305400999999989
  0
ARC
  5
4B9
  8
0
 62
     7
 10
62.769162999999992
 20
120.350413
 30
0.0
 40
2.1951130000000001
 50
99.900173999999993
 51
113.118149
  0
ARC
  5
4BA
  8
0
 62
     7
 10
62.396595999999988
 20
121.274473
 30
0.0
 40
1.1991459999999989
 50
114.081633
 51
126.040211
  0
ARC
  5
4BB
  8
0
 62
     7
 10
61.990844999999993
 20
121.83622
 30
0.0
 40
0.5061970000000001
 50
126.31341399999999
 51
136.41328999999999
  0
ARC
  5
4BC
  8
0
 62
     7
 10
63.001724000000003
 20
118.81983099999999
 30
0.0
 40
3.742283
 50
80.691754000000003
 51
90.034328999999985
  0
ARC
  5
4BD
  8
0
 62
     7
 10
63.229756000000009
 20
120.351612
 30
0.0
 40
2.1939069999999989
 50
66.875857999999994
 51
80.098145000000002
  0
ARC
  5
4BE
  8
0
 62
     7
 10
63.602027
 20
121.274597
 30
0.0
 40
1.1990469999999991
 50
53.95623100000001
 51
65.914462999999998
  0
ARC
  5
4BF
  8
0
 62
     7
 10
64.00752
 20
121.835959
 30
0.0
 40
0.50656
 50
43.58826599999999
 51
53.680416000000001
  0
ARC
  5
4C0
  8
0
 62
     7
 10
60.928952000000002
 20
121.73250899999999
 30
0.0
 40
0.8296389999999998
 50
33.070404000000003
 51
89.475623999999996
  0
ARC
  5
4C1
  8
0
 62
     7
 10
60.944487000000002
 20
121.7325
 30
0.0
 40
0.8296479999999998
 50
90.524690000000007
 51
146.92924300000001
  0
LINE
  5
4C2
  8
0
 62
     7
 10
61.1539
 20
109.792
 30
0.0
 11
62.999499999999991
 21
109.792
 31
0.0
  0
LINE
  5
4C3
  8
0
 62
     7
 10
64.844700000000003
 20
109.792
 30
0.0
 11
62.999499999999991
 21
109.792
 31
0.0
  0
LINE
  5
4C4
  8
0
 62
     7
 10
64.844700000000003
 20
109.792
 30
0.0
 11
64.844700000000003
 21
111.48099999999999
 31
0.0
  0
LINE
  5
4C5
  8
0
 62
     7
 10
64.5715
 20
111.755
 30
0.0
 11
64.5715
 21
113.91
 31
0.0
  0
LINE
  5
4C6
  8
0
 62
     7
 10
64.5715
 20
111.755
 30
0.0
 11
64.844700000000003
 21
111.48099999999999
 31
0.0
  0
LINE
  5
4C7
  8
0
 62
     7
 10
63.4908
 20
111.755
 30
0.0
 11
63.4908
 21
113.91
 31
0.0
  0
LINE
  5
4C8
  8
0
 62
     7
 10
63.881100000000011
 20
111.755
 30
0.0
 11
63.881100000000011
 21
113.91
 31
0.0
  0
LINE
  5
4C9
  8
0
 62
     7
 10
63.881100000000011
 20
111.755
 30
0.0
 11
64.5715
 21
111.755
 31
0.0
  0
LINE
  5
4CA
  8
0
 62
     7
 10
62.999499999999991
 20
111.755
 30
0.0
 11
63.4908
 21
111.755
 31
0.0
  0
ARC
  5
4CB
  8
0
 62
     7
 10
64.554508999999996
 20
114.34404600000001
 30
0.0
 40
0.46824
 50
2.03437
 51
87.921865999999994
  0
ARC
  5
4CC
  8
0
 62
     7
 10
64.554494999999989
 20
114.37801899999999
 30
0.0
 40
0.4682810000000001
 50
272.07970699999998
 51
357.8765150000001
  0
LINE
  5
4CD
  8
0
 62
     7
 10
63.881100000000011
 20
113.91
 30
0.0
 11
64.5715
 21
113.91
 31
0.0
  0
LINE
  5
4CE
  8
0
 62
     7
 10
62.999499999999991
 20
113.91
 30
0.0
 11
63.4908
 21
113.91
 31
0.0
  0
LINE
  5
4CF
  8
0
 62
     7
 10
62.999499999999991
 20
114.812
 30
0.0
 11
64.5715
 21
114.812
 31
0.0
  0
LINE
  5
4D0
  8
0
 62
     7
 10
61.1539
 20
109.792
 30
0.0
 11
61.1539
 21
111.48099999999999
 31
0.0
  0
LINE
  5
4D1
  8
0
 62
     7
 10
61.427500000000002
 20
111.755
 30
0.0
 11
61.427500000000002
 21
113.91
 31
0.0
  0
LINE
  5
4D2
  8
0
 62
     7
 10
61.427500000000002
 20
111.755
 30
0.0
 11
61.1539
 21
111.48099999999999
 31
0.0
  0
LINE
  5
4D3
  8
0
 62
     7
 10
62.508200000000002
 20
111.755
 30
0.0
 11
62.508200000000002
 21
113.91
 31
0.0
  0
LINE
  5
4D4
  8
0
 62
     7
 10
62.1175
 20
111.755
 30
0.0
 11
62.1175
 21
113.91
 31
0.0
  0
LINE
  5
4D5
  8
0
 62
     7
 10
62.1175
 20
111.755
 30
0.0
 11
61.427500000000002
 21
111.755
 31
0.0
  0
LINE
  5
4D6
  8
0
 62
     7
 10
62.999499999999991
 20
111.755
 30
0.0
 11
62.508200000000002
 21
111.755
 31
0.0
  0
ARC
  5
4D7
  8
0
 62
     7
 10
61.444394999999993
 20
114.37794599999999
 30
0.0
 40
0.4682060000000001
 50
182.11494500000001
 51
267.92887200000001
  0
ARC
  5
4D8
  8
0
 62
     7
 10
61.445155
 20
114.343345
 30
0.0
 40
0.4689670000000001
 50
92.160663999999997
 51
177.88306
  0
LINE
  5
4D9
  8
0
 62
     7
 10
62.1175
 20
113.91
 30
0.0
 11
61.427500000000002
 21
113.91
 31
0.0
  0
LINE
  5
4DA
  8
0
 62
     7
 10
62.999499999999991
 20
113.91
 30
0.0
 11
62.508200000000002
 21
113.91
 31
0.0
  0
LINE
  5
4DB
  8
0
 62
     7
 10
62.999499999999991
 20
114.812
 30
0.0
 11
61.427500000000002
 21
114.812
 31
0.0
  0
ARC
  5
4DC
  8
0
 62
     7
 10
63.750548999999999
 20
102.05512
 30
0.0
 40
1.064263999999999
 50
240.313177
 51
269.92409300000003
  0
ARC
  5
4DD
  8
0
 62
     7
 10
63.574736000000001
 20
101.71335999999999
 30
0.0
 40
0.6804899999999999
 50
212.29017200000001
 51
238.92186899999999
  0
ARC
  5
4DE
  8
0
 62
     7
 10
63.747727000000012
 20
102.055656
 30
0.0
 40
1.0647999999999991
 50
270.07599399999998
 51
299.67920400000003
  0
ARC
  5
4DF
  8
0
 62
     7
 10
63.924545999999999
 20
101.71211099999999
 30
0.0
 40
0.678974
 50
301.07012099999997
 51
327.75368300000008
  0
ARC
  5
4E0
  8
0
 62
     7
 10
63.747727000000012
 20
100.64402
 30
0.0
 40
1.0647999999999991
 50
60.320795999999987
 51
89.924006000000006
  0
ARC
  5
4E1
  8
0
 62
     7
 10
63.924545999999999
 20
100.98756400000001
 30
0.0
 40
0.678974
 50
32.246316999999998
 51
58.929879000000007
  0
ARC
  5
4E2
  8
0
 62
     7
 10
63.750548999999999
 20
100.64455599999999
 30
0.0
 40
1.064263999999999
 50
90.075906999999987
 51
119.686823
  0
ARC
  5
4E3
  8
0
 62
     7
 10
63.574736000000001
 20
100.986315
 30
0.0
 40
0.6804899999999999
 50
121.0781309999999
 51
147.70982799999999
  0
ARC
  5
4E4
  8
0
 62
     7
 10
62.247725000000003
 20
100.64319500000001
 30
0.0
 40
1.065625
 50
60.332545000000003
 51
89.924186999999989
  0
ARC
  5
4E5
  8
0
 62
     7
 10
62.423087999999993
 20
100.98462499999999
 30
0.0
 40
0.6823560000000001
 50
32.359071999999998
 51
58.936844999999998
  0
ARC
  5
4E6
  8
0
 62
     7
 10
62.250544999999988
 20
100.64455599999999
 30
0.0
 40
1.064263999999999
 50
90.075906999999987
 51
119.686823
  0
ARC
  5
4E7
  8
0
 62
     7
 10
62.07473199999999
 20
100.986315
 30
0.0
 40
0.6804899999999999
 50
121.0781309999999
 51
147.70982799999999
  0
LINE
  5
4E8
  8
0
 62
     7
 10
64.499499999999998
 20
103.202
 30
0.0
 11
64.499499999999998
 21
109.792
 31
0.0
  0
LINE
  5
4E9
  8
0
 62
     7
 10
61.499499999999998
 20
103.202
 30
0.0
 11
61.499499999999998
 21
109.792
 31
0.0
  0
ARC
  5
4EA
  8
0
 62
     7
 10
62.248413999999997
 20
102.496651
 30
0.0
 40
1.064263999999999
 50
60.313157999999987
 51
89.924072999999993
  0
ARC
  5
4EB
  8
0
 62
     7
 10
62.424227000000002
 20
102.83841
 30
0.0
 40
0.6804899999999999
 50
32.290152999999997
 51
58.921849000000009
  0
ARC
  5
4EC
  8
0
 62
     7
 10
62.251238999999991
 20
102.495394
 30
0.0
 40
1.0655209999999991
 50
90.076064999999986
 51
119.668908
  0
ARC
  5
4ED
  8
0
 62
     7
 10
62.074154000000007
 20
102.839327
 30
0.0
 40
0.6792200000000001
 50
121.050224
 51
147.73360500000001
  0
ARC
  5
4EE
  8
0
 62
     7
 10
62.251238999999991
 20
103.908472
 30
0.0
 40
1.0655209999999991
 50
240.33109200000001
 51
269.92393499999997
  0
ARC
  5
4EF
  8
0
 62
     7
 10
62.074154000000007
 20
103.564539
 30
0.0
 40
0.6792200000000001
 50
212.26639499999999
 51
238.94977600000001
  0
ARC
  5
4F0
  8
0
 62
     7
 10
62.248413999999997
 20
103.90721499999999
 30
0.0
 40
1.064263999999999
 50
270.07592699999998
 51
299.68684200000001
  0
ARC
  5
4F1
  8
0
 62
     7
 10
62.424227000000002
 20
103.565455
 30
0.0
 40
0.6804899999999999
 50
301.07815099999999
 51
327.70984700000008
  0
ARC
  5
4F2
  8
0
 62
     7
 10
63.750892999999998
 20
103.90839
 30
0.0
 40
1.065439
 50
240.32992400000001
 51
269.92423000000002
  0
ARC
  5
4F3
  8
0
 62
     7
 10
63.574641
 20
103.565411
 30
0.0
 40
0.6803860000000001
 50
212.29124200000001
 51
238.929059
  0
ARC
  5
4F4
  8
0
 62
     7
 10
63.748070999999989
 20
103.90793600000001
 30
0.0
 40
1.0649850000000001
 50
270.07601799999998
 51
299.67656099999999
  0
ARC
  5
4F5
  8
0
 62
     7
 10
63.92414999999999
 20
103.565788
 30
0.0
 40
0.6807350000000002
 50
301.058269
 51
327.68982
  0
LINE
  5
4F6
  8
0
 62
     7
 10
61.1539
 20
97.238399999999999
 30
0.0
 11
61.1539
 21
95.548900000000003
 31
0.0
  0
LINE
  5
4F7
  8
0
 62
     7
 10
61.1539
 20
97.238399999999999
 30
0.0
 11
62.999499999999991
 21
97.238399999999999
 31
0.0
  0
LINE
  5
4F8
  8
0
 62
     7
 10
61.427500000000002
 20
95.275400000000005
 30
0.0
 11
61.427500000000002
 21
93.049199999999999
 31
0.0
  0
LINE
  5
4F9
  8
0
 62
     7
 10
61.427500000000002
 20
95.275400000000005
 30
0.0
 11
61.1539
 21
95.548900000000003
 31
0.0
  0
LINE
  5
4FA
  8
0
 62
     7
 10
62.508200000000002
 20
95.275400000000005
 30
0.0
 11
62.508200000000002
 21
93.049199999999999
 31
0.0
  0
LINE
  5
4FB
  8
0
 62
     7
 10
62.1175
 20
95.275400000000005
 30
0.0
 11
62.1175
 21
93.049199999999999
 31
0.0
  0
LINE
  5
4FC
  8
0
 62
     7
 10
62.1175
 20
95.275400000000005
 30
0.0
 11
61.427500000000002
 21
95.275400000000005
 31
0.0
  0
LINE
  5
4FD
  8
0
 62
     7
 10
62.999499999999991
 20
95.275400000000005
 30
0.0
 11
62.508200000000002
 21
95.275400000000005
 31
0.0
  0
ARC
  5
4FE
  8
0
 62
     7
 10
61.444443999999997
 20
92.615162999999995
 30
0.0
 40
0.4682300000000001
 50
182.03326399999989
 51
267.92301200000003
  0
ARC
  5
4FF
  8
0
 62
     7
 10
61.444468000000001
 20
92.581198999999998
 30
0.0
 40
0.4682810000000001
 50
92.079687000000007
 51
177.87649500000001
  0
LINE
  5
500
  8
0
 62
     7
 10
62.1175
 20
93.049199999999999
 30
0.0
 11
61.427500000000002
 21
93.049199999999999
 31
0.0
  0
LINE
  5
501
  8
0
 62
     7
 10
62.999499999999991
 20
93.049199999999999
 30
0.0
 11
62.508200000000002
 21
93.049199999999999
 31
0.0
  0
LINE
  5
502
  8
0
 62
     7
 10
61.749600000000001
 20
90.1477
 30
0.0
 11
61.749600000000001
 21
92.147199999999984
 31
0.0
  0
LINE
  5
503
  8
0
 62
     7
 10
62.999499999999991
 20
92.147199999999984
 30
0.0
 11
61.427500000000002
 21
92.147199999999984
 31
0.0
  0
LINE
  5
504
  8
0
 62
     7
 10
64.844700000000003
 20
97.238399999999999
 30
0.0
 11
64.844700000000003
 21
95.548900000000003
 31
0.0
  0
LINE
  5
505
  8
0
 62
     7
 10
64.844700000000003
 20
97.238399999999999
 30
0.0
 11
62.999499999999991
 21
97.238399999999999
 31
0.0
  0
LINE
  5
506
  8
0
 62
     7
 10
64.5715
 20
95.275400000000005
 30
0.0
 11
64.5715
 21
93.049199999999999
 31
0.0
  0
LINE
  5
507
  8
0
 62
     7
 10
64.5715
 20
95.275400000000005
 30
0.0
 11
64.844700000000003
 21
95.548900000000003
 31
0.0
  0
LINE
  5
508
  8
0
 62
     7
 10
63.4908
 20
95.275400000000005
 30
0.0
 11
63.4908
 21
93.049199999999999
 31
0.0
  0
LINE
  5
509
  8
0
 62
     7
 10
63.881399999999992
 20
95.275400000000005
 30
0.0
 11
63.881399999999992
 21
93.049199999999999
 31
0.0
  0
LINE
  5
50A
  8
0
 62
     7
 10
63.881399999999992
 20
95.275400000000005
 30
0.0
 11
64.5715
 21
95.275400000000005
 31
0.0
  0
LINE
  5
50B
  8
0
 62
     7
 10
62.999499999999991
 20
95.275400000000005
 30
0.0
 11
63.4908
 21
95.275400000000005
 31
0.0
  0
ARC
  5
50C
  8
0
 62
     7
 10
64.554558
 20
92.581263000000007
 30
0.0
 40
0.468216
 50
2.1160509999999988
 51
87.927726000000007
  0
ARC
  5
50D
  8
0
 62
     7
 10
64.553806999999992
 20
92.615874000000005
 30
0.0
 40
0.4689670000000001
 50
272.16070100000002
 51
357.88306299999999
  0
LINE
  5
50E
  8
0
 62
     7
 10
63.881399999999992
 20
93.049199999999999
 30
0.0
 11
64.5715
 21
93.049199999999999
 31
0.0
  0
LINE
  5
50F
  8
0
 62
     7
 10
62.999499999999991
 20
93.049199999999999
 30
0.0
 11
63.4908
 21
93.049199999999999
 31
0.0
  0
LINE
  5
510
  8
0
 62
     7
 10
64.249399999999994
 20
90.1477
 30
0.0
 11
64.249399999999994
 21
92.147199999999984
 31
0.0
  0
LINE
  5
511
  8
0
 62
     7
 10
62.999499999999991
 20
92.147199999999984
 30
0.0
 11
64.5715
 21
92.147199999999984
 31
0.0
  0
LINE
  5
512
  8
0
 62
     7
 10
64.499499999999998
 20
97.238399999999999
 30
0.0
 11
64.499499999999998
 21
101.34999999999999
 31
0.0
  0
LINE
  5
513
  8
0
 62
     7
 10
61.499499999999998
 20
97.238399999999999
 30
0.0
 11
61.499499999999998
 21
101.34999999999999
 31
0.0
  0
LINE
  5
514
  8
0
 62
     7
 10
67.078800000000001
 20
68.607399999999984
 30
0.0
 11
69.290599999999984
 21
69.200000000000003
 31
0.0
  0
LINE
  5
515
  8
0
 62
     7
 10
69.290599999999984
 20
69.200000000000003
 30
0.0
 11
67.078800000000001
 21
69.792599999999993
 31
0.0
  0
LINE
  5
516
  8
0
 62
     7
 10
67.078800000000001
 20
69.792599999999993
 30
0.0
 11
67.078800000000001
 21
68.607399999999984
 31
0.0
  0
LINE
  5
517
  8
0
 62
     7
 10
76.419200000000004
 20
69.792599999999993
 30
0.0
 11
74.207499999999996
 21
69.200000000000003
 31
0.0
  0
LINE
  5
518
  8
0
 62
     7
 10
74.207499999999996
 20
69.200000000000003
 30
0.0
 11
76.419200000000004
 21
68.607399999999984
 31
0.0
  0
LINE
  5
519
  8
0
 62
     7
 10
76.419200000000004
 20
68.607399999999984
 30
0.0
 11
76.419200000000004
 21
69.792599999999993
 31
0.0
  0
LINE
  5
51A
  8
0
 62
     7
 10
102.76300000000001
 20
96.454999999999998
 30
0.0
 11
77.911699999999996
 21
96.454999999999998
 31
0.0
  0
LINE
  5
51B
  8
0
 62
     7
 10
75.437399999999997
 20
98.710200000000015
 30
0.0
 11
73.249700000000004
 21
99.385400000000004
 31
0.0
  0
LINE
  5
51C
  8
0
 62
     7
 10
73.249700000000004
 20
99.385400000000004
 30
0.0
 11
74.806600000000003
 21
97.706299999999999
 31
0.0
  0
LINE
  5
51D
  8
0
 62
     7
 10
74.806600000000003
 20
97.706299999999999
 30
0.0
 11
75.437399999999997
 21
98.710200000000015
 31
0.0
  0
LINE
  5
51E
  8
0
 62
     7
 10
73.249700000000004
 20
99.385400000000004
 30
0.0
 11
77.911699999999996
 21
96.454999999999998
 31
0.0
  0
LINE
  5
51F
  8
0
 62
     7
 10
62.831400000000002
 20
103.93600000000001
 30
0.0
 11
61.499499999999998
 21
105.268
 31
0.0
  0
LINE
  5
520
  8
0
 62
     7
 10
64.499499999999998
 20
105.268
 30
0.0
 11
63.1676
 21
103.93600000000001
 31
0.0
  0
LINE
  5
521
  8
0
 62
     7
 10
63.932099999999991
 20
103.93600000000001
 30
0.0
 11
61.499499999999998
 21
106.36799999999999
 31
0.0
  0
LINE
  5
522
  8
0
 62
     7
 10
64.499499999999998
 20
106.36799999999999
 30
0.0
 11
62.066899999999997
 21
103.93600000000001
 31
0.0
  0
LINE
  5
523
  8
0
 62
     7
 10
64.499499999999998
 20
104.46899999999999
 30
0.0
 11
61.499499999999998
 21
107.46899999999999
 31
0.0
  0
LINE
  5
524
  8
0
 62
     7
 10
64.499499999999998
 20
107.46899999999999
 30
0.0
 11
61.499499999999998
 21
104.46899999999999
 31
0.0
  0
LINE
  5
525
  8
0
 62
     7
 10
64.499499999999998
 20
105.569
 30
0.0
 11
61.499499999999998
 21
108.569
 31
0.0
  0
LINE
  5
526
  8
0
 62
     7
 10
64.499499999999998
 20
108.569
 30
0.0
 11
61.499499999999998
 21
105.569
 31
0.0
  0
LINE
  5
527
  8
0
 62
     7
 10
64.499499999999998
 20
106.67
 30
0.0
 11
61.499499999999998
 21
109.67
 31
0.0
  0
LINE
  5
528
  8
0
 62
     7
 10
64.499499999999998
 20
109.67
 30
0.0
 11
61.499499999999998
 21
106.67
 31
0.0
  0
LINE
  5
529
  8
0
 62
     7
 10
64.499499999999998
 20
107.771
 30
0.0
 11
62.478900000000003
 21
109.792
 31
0.0
  0
LINE
  5
52A
  8
0
 62
     7
 10
63.520000000000003
 20
109.792
 30
0.0
 11
61.499499999999998
 21
107.771
 31
0.0
  0
LINE
  5
52B
  8
0
 62
     7
 10
64.499499999999998
 20
108.872
 30
0.0
 11
63.579599999999999
 21
109.792
 31
0.0
  0
LINE
  5
52C
  8
0
 62
     7
 10
62.419299999999993
 20
109.792
 30
0.0
 11
61.499499999999998
 21
108.872
 31
0.0
  0
LINE
  5
52D
  8
0
 62
     7
 10
64.874300000000005
 20
117.812
 30
0.0
 11
64.874300000000005
 21
118.06100000000001
 31
0.0
  0
LINE
  5
52E
  8
0
 62
     7
 10
61.124299999999991
 20
118.062
 30
0.0
 11
61.124299999999991
 21
117.812
 31
0.0
  0
LINE
  5
52F
  8
0
 62
     7
 10
65.749399999999994
 20
115.188
 30
0.0
 11
65.749399999999994
 21
117.435
 31
0.0
  0
LINE
  5
530
  8
0
 62
     7
 10
64.374399999999994
 20
115.188
 30
0.0
 11
64.374399999999994
 21
117.435
 31
0.0
  0
LINE
  5
531
  8
0
 62
     7
 10
61.624200000000002
 20
115.188
 30
0.0
 11
61.624200000000002
 21
117.435
 31
0.0
  0
LINE
  5
532
  8
0
 62
     7
 10
60.249200000000002
 20
115.188
 30
0.0
 11
60.249200000000002
 21
117.435
 31
0.0
  0
LINE
  5
533
  8
0
 62
     7
 10
65.749399999999994
 20
118.438
 30
0.0
 11
65.749399999999994
 21
122.185
 31
0.0
  0
LINE
  5
534
  8
0
 62
     7
 10
61.624200000000002
 20
118.438
 30
0.0
 11
61.624200000000002
 21
122.185
 31
0.0
  0
LINE
  5
535
  8
0
 62
     7
 10
64.374399999999994
 20
118.438
 30
0.0
 11
64.374399999999994
 21
122.185
 31
0.0
  0
LINE
  5
536
  8
0
 62
     7
 10
60.249200000000002
 20
118.438
 30
0.0
 11
60.249200000000002
 21
122.185
 31
0.0
  0
LINE
  5
537
  8
0
 62
     7
 10
60.936500000000002
 20
122.562
 30
0.0
 11
65.062100000000001
 21
122.562
 31
0.0
  0
ARC
  5
538
  8
0
 62
     7
 10
146.776174
 20
86.172599000000005
 30
0.0
 40
0.492938
 50
297.408455
 51
314.89207499999998
  0
ARC
  5
539
  8
0
 62
     7
 10
146.494134
 20
86.667721999999998
 30
0.0
 40
1.0625519999999991
 50
285.81244900000002
 51
298.61970000000002
  0
ARC
  5
53A
  8
0
 62
     7
 10
146.11585500000001
 20
87.871786999999998
 30
0.0
 40
2.324406999999999
 50
277.90113100000002
 51
286.69665900000001
  0
ARC
  5
53B
  8
0
 62
     7
 10
145.795569
 20
89.866591999999997
 30
0.0
 40
4.3445159999999996
 50
270.55525499999999
 51
278.468639
  0
ARC
  5
53C
  8
0
 62
     7
 10
148.388124
 20
86.921198000000004
 30
0.0
 40
1.3930340000000001
 50
232.00598500000001
 51
264.89918599999999
  0
ARC
  5
53D
  8
0
 62
     7
 10
148.516941
 20
88.274695999999977
 30
0.0
 40
2.752635999999999
 50
264.73330099999998
 51
270.72423400000002
  0
ARC
  5
53E
  8
0
 62
     7
 10
144.89932400000001
 20
86.173284999999993
 30
0.0
 40
0.4935350000000001
 50
225.151161
 51
242.63083599999999
  0
ARC
  5
53F
  8
0
 62
     7
 10
145.18200200000001
 20
86.669601999999998
 30
0.0
 40
1.064495999999999
 50
241.399911
 51
254.189618
  0
ARC
  5
540
  8
0
 62
     7
 10
145.560202
 20
87.873548999999997
 30
0.0
 40
2.3262139999999989
 50
253.30606700000001
 51
262.09397100000001
  0
ARC
  5
541
  8
0
 62
     7
 10
145.879955
 20
89.865257999999997
 30
0.0
 40
4.343183999999999
 50
261.52991500000002
 51
269.442183
  0
ARC
  5
542
  8
0
 62
     7
 10
143.28800100000001
 20
86.921081999999984
 30
0.0
 40
1.392884
 50
275.085464
 51
307.9939
  0
ARC
  5
543
  8
0
 62
     7
 10
143.158919
 20
88.272531000000001
 30
0.0
 40
2.7504689999999989
 50
269.278749
 51
275.268349
  0
ARC
  5
544
  8
0
 62
     7
 10
146.776174
 20
89.497375000000005
 30
0.0
 40
0.492938
 50
45.107924999999987
 51
62.591545000000011
  0
ARC
  5
545
  8
0
 62
     7
 10
146.494134
 20
89.002251999999984
 30
0.0
 40
1.0625519999999991
 50
61.380299999999998
 51
74.187550999999999
  0
ARC
  5
546
  8
0
 62
     7
 10
146.11585500000001
 20
87.798186999999984
 30
0.0
 40
2.324406999999999
 50
73.303341000000003
 51
82.098868999999993
  0
ARC
  5
547
  8
0
 62
     7
 10
145.795569
 20
85.803381999999985
 30
0.0
 40
4.3445159999999996
 50
81.531361000000004
 51
89.444744999999998
  0
ARC
  5
548
  8
0
 62
     7
 10
148.388124
 20
88.748776000000007
 30
0.0
 40
1.3930340000000001
 50
95.100814
 51
127.994015
  0
ARC
  5
549
  8
0
 62
     7
 10
148.516941
 20
87.395278000000005
 30
0.0
 40
2.752635999999999
 50
89.275766000000004
 51
95.266698999999988
  0
ARC
  5
54A
  8
0
 62
     7
 10
146.59553199999999
 20
76.886833999999993
 30
0.0
 40
1.4150940000000001
 50
286.95868300000001
 51
296.74051600000001
  0
ARC
  5
54B
  8
0
 62
     7
 10
146.28026800000001
 20
77.852301999999995
 30
0.0
 40
2.4306169999999989
 50
278.70063599999997
 51
287.42885000000001
  0
ARC
  5
54C
  8
0
 62
     7
 10
145.992786
 20
79.548594999999992
 30
0.0
 40
4.150968999999999
 50
267.858451
 51
279.08122100000003
  0
ARC
  5
54D
  8
0
 62
     7
 10
148.62556699999999
 20
77.586558999999994
 30
0.0
 40
2.182545999999999
 50
244.10916
 51
265.82248800000002
  0
ARC
  5
54E
  8
0
 62
     7
 10
148.75809100000001
 20
78.914061000000004
 30
0.0
 40
3.5163540000000002
 50
265.24456600000002
 51
270.34252599999991
  0
ARC
  5
54F
  8
0
 62
     7
 10
145.080804
 20
76.887447999999992
 30
0.0
 40
1.4157789999999999
 50
243.25963300000001
 51
253.03549799999999
  0
ARC
  5
550
  8
0
 62
     7
 10
145.395489
 20
77.850647999999993
 30
0.0
 40
2.4289669999999992
 50
252.564909
 51
261.29584
  0
ARC
  5
551
  8
0
 62
     7
 10
145.68269699999999
 20
79.544050999999996
 30
0.0
 40
4.1464220000000003
 50
260.91399899999999
 51
272.14195100000001
  0
ARC
  5
552
  8
0
 62
     7
 10
143.05046299999989
 20
77.586558999999994
 30
0.0
 40
2.182545999999999
 50
274.17753199999999
 51
295.89085999999998
  0
ARC
  5
553
  8
0
 62
     7
 10
142.91793899999999
 20
78.914061000000004
 30
0.0
 40
3.5163540000000002
 50
269.65749399999999
 51
274.75545299999999
  0
ARC
  5
554
  8
0
 62
     7
 10
146.59553199999999
 20
77.92433299999999
 30
0.0
 40
1.4150940000000001
 50
63.259483999999993
 51
73.041317000000006
  0
ARC
  5
555
  8
0
 62
     7
 10
146.28026800000001
 20
76.958865000000003
 30
0.0
 40
2.4306169999999989
 50
72.571150000000003
 51
81.299363999999997
  0
ARC
  5
556
  8
0
 62
     7
 10
145.992786
 20
75.262573000000003
 30
0.0
 40
4.150968999999999
 50
80.918779000000001
 51
92.141548999999998
  0
ARC
  5
557
  8
0
 62
     7
 10
148.72648000000001
 20
77.023131999999976
 30
0.0
 40
2.4078669999999991
 50
104.451205
 51
115.95766
  0
ARC
  5
558
  8
0
 62
     7
 10
148.57098300000001
 20
77.481959000000003
 30
0.0
 40
1.92509
 50
93.761561999999998
 51
103.37745099999999
  0
ARC
  5
559
  8
0
 62
     7
 10
148.67352299999999
 20
76.050522999999998
 30
0.0
 40
3.360179
 50
89.656411000000006
 51
93.904981000000006
  0
ARC
  5
55A
  8
0
 62
     7
 10
145.080804
 20
77.923718999999991
 30
0.0
 40
1.4157789999999999
 50
106.964502
 51
116.74036700000001
  0
ARC
  5
55B
  8
0
 62
     7
 10
145.395489
 20
76.960518999999991
 30
0.0
 40
2.4289669999999992
 50
98.704159999999973
 51
107.435091
  0
ARC
  5
55C
  8
0
 62
     7
 10
145.68269699999999
 20
75.267116999999985
 30
0.0
 40
4.1464220000000003
 50
87.858048999999994
 51
99.08600100000001
  0
ARC
  5
55D
  8
0
 62
     7
 10
142.9495499999999
 20
77.023131999999976
 30
0.0
 40
2.4078669999999991
 50
64.042319999999989
 51
75.548775000000006
  0
ARC
  5
55E
  8
0
 62
     7
 10
143.10504800000001
 20
77.481959000000003
 30
0.0
 40
1.92509
 50
76.622529
 51
86.23841800000001
  0
ARC
  5
55F
  8
0
 62
     7
 10
143.00250700000001
 20
76.050522999999998
 30
0.0
 40
3.360179
 50
86.094999000000016
 51
90.343568999999974
  0
ARC
  5
560
  8
0
 62
     7
 10
144.89932400000001
 20
89.496690000000001
 30
0.0
 40
0.4935350000000001
 50
117.369164
 51
134.848839
  0
ARC
  5
561
  8
0
 62
     7
 10
145.18200200000001
 20
89.000371999999984
 30
0.0
 40
1.064495999999999
 50
105.810382
 51
118.600089
  0
ARC
  5
562
  8
0
 62
     7
 10
145.560202
 20
87.796424999999985
 30
0.0
 40
2.3262139999999989
 50
97.906029000000004
 51
106.693933
  0
ARC
  5
563
  8
0
 62
     7
 10
145.879955
 20
85.804717000000025
 30
0.0
 40
4.343183999999999
 50
90.557817000000014
 51
98.470084999999983
  0
ARC
  5
564
  8
0
 62
     7
 10
143.28800100000001
 20
88.748891999999998
 30
0.0
 40
1.392884
 50
52.006100000000011
 51
84.914535999999984
  0
ARC
  5
565
  8
0
 62
     7
 10
143.158919
 20
87.397443999999993
 30
0.0
 40
2.7504689999999989
 50
84.731651000000014
 51
90.721250999999995
  0
LINE
  5
566
  8
0
 62
     7
 10
148.779
 20
75.397800000000004
 30
0.0
 11
149.06700000000001
 21
75.623099999999994
 31
0.0
  0
LINE
  5
567
  8
0
 62
     7
 10
148.297
 20
79.6477
 30
0.0
 11
149.06700000000001
 21
79.188100000000006
 31
0.0
  0
LINE
  5
568
  8
0
 62
     7
 10
148.297
 20
79.6477
 30
0.0
 11
145.83799999999999
 21
79.6477
 31
0.0
  0
LINE
  5
569
  8
0
 62
     7
 10
148.779
 20
75.397800000000004
 30
0.0
 11
145.83799999999999
 21
75.397800000000004
 31
0.0
  0
LINE
  5
56A
  8
0
 62
     7
 10
147.232
 20
75.623099999999994
 30
0.0
 11
147.673
 21
75.623099999999994
 31
0.0
  0
LINE
  5
56B
  8
0
 62
     7
 10
147.232
 20
79.188100000000006
 30
0.0
 11
147.232
 21
75.623099999999994
 31
0.0
  0
LINE
  5
56C
  8
0
 62
     7
 10
147.673
 20
79.188100000000006
 30
0.0
 11
147.232
 21
79.188100000000006
 31
0.0
  0
LINE
  5
56D
  8
0
 62
     7
 10
149.06700000000001
 20
79.188100000000006
 30
0.0
 11
149.06700000000001
 21
75.623099999999994
 31
0.0
  0
LINE
  5
56E
  8
0
 62
     7
 10
147.673
 20
79.188100000000006
 30
0.0
 11
147.673
 21
75.623099999999994
 31
0.0
  0
LINE
  5
56F
  8
0
 62
     7
 10
143.37899999999999
 20
84.335099999999997
 30
0.0
 11
143.62799999999999
 21
84.5852
 31
0.0
  0
LINE
  5
570
  8
0
 62
     7
 10
148.047
 20
84.5852
 30
0.0
 11
148.297
 21
84.335099999999997
 31
0.0
  0
LINE
  5
571
  8
0
 62
     7
 10
148.047
 20
84.5852
 30
0.0
 11
148.047
 21
85.522299999999987
 31
0.0
  0
LINE
  5
572
  8
0
 62
     7
 10
143.62799999999999
 20
84.5852
 30
0.0
 11
143.62799999999999
 21
85.522299999999987
 31
0.0
  0
LINE
  5
573
  8
0
 62
     7
 10
143.37899999999999
 20
84.5852
 30
0.0
 11
148.297
 21
84.5852
 31
0.0
  0
LINE
  5
574
  8
0
 62
     7
 10
148.297
 20
79.6477
 30
0.0
 11
148.297
 21
85.522299999999987
 31
0.0
  0
LINE
  5
575
  8
0
 62
     7
 10
148.55199999999999
 20
90.1477
 30
0.0
 11
148.81700000000001
 21
89.846599999999995
 31
0.0
  0
LINE
  5
576
  8
0
 62
     7
 10
142.85900000000001
 20
89.846599999999995
 30
0.0
 11
143.124
 21
90.1477
 31
0.0
  0
LINE
  5
577
  8
0
 62
     7
 10
148.55199999999999
 20
85.522299999999987
 30
0.0
 11
148.81700000000001
 21
85.777900000000002
 31
0.0
  0
LINE
  5
578
  8
0
 62
     7
 10
143.124
 20
85.522299999999987
 30
0.0
 11
142.85900000000001
 21
85.777900000000002
 31
0.0
  0
LINE
  5
579
  8
0
 62
     7
 10
142.89699999999999
 20
75.397800000000004
 30
0.0
 11
142.60900000000001
 21
75.623099999999994
 31
0.0
  0
LINE
  5
57A
  8
0
 62
     7
 10
143.37899999999999
 20
79.6477
 30
0.0
 11
142.60900000000001
 21
79.188100000000006
 31
0.0
  0
LINE
  5
57B
  8
0
 62
     7
 10
143.37899999999999
 20
79.6477
 30
0.0
 11
143.37899999999999
 21
85.522299999999987
 31
0.0
  0
LINE
  5
57C
  8
0
 62
     7
 10
143.37899999999999
 20
79.6477
 30
0.0
 11
145.83799999999999
 21
79.6477
 31
0.0
  0
LINE
  5
57D
  8
0
 62
     7
 10
142.89699999999999
 20
75.397800000000004
 30
0.0
 11
145.83799999999999
 21
75.397800000000004
 31
0.0
  0
LINE
  5
57E
  8
0
 62
     7
 10
144.44399999999999
 20
75.623099999999994
 30
0.0
 11
144.00299999999999
 21
75.623099999999994
 31
0.0
  0
LINE
  5
57F
  8
0
 62
     7
 10
144.44399999999999
 20
79.188100000000006
 30
0.0
 11
144.44399999999999
 21
75.623099999999994
 31
0.0
  0
LINE
  5
580
  8
0
 62
     7
 10
144.00299999999999
 20
79.188100000000006
 30
0.0
 11
144.44399999999999
 21
79.188100000000006
 31
0.0
  0
LINE
  5
581
  8
0
 62
     7
 10
142.60900000000001
 20
79.188100000000006
 30
0.0
 11
142.60900000000001
 21
75.623099999999994
 31
0.0
  0
LINE
  5
582
  8
0
 62
     7
 10
144.00299999999999
 20
79.188100000000006
 30
0.0
 11
144.00299999999999
 21
75.623099999999994
 31
0.0
  0
LINE
  5
583
  8
0
 62
     7
 10
148.55199999999999
 20
85.522299999999987
 30
0.0
 11
145.83799999999999
 21
85.522299999999987
 31
0.0
  0
LINE
  5
584
  8
0
 62
     7
 10
143.124
 20
85.522299999999987
 30
0.0
 11
145.83799999999999
 21
85.522299999999987
 31
0.0
  0
LINE
  5
585
  8
0
 62
     7
 10
147.124
 20
85.823400000000007
 30
0.0
 11
147.53100000000001
 21
85.823400000000007
 31
0.0
  0
LINE
  5
586
  8
0
 62
     7
 10
147.124
 20
89.846599999999995
 30
0.0
 11
147.124
 21
85.823400000000007
 31
0.0
  0
LINE
  5
587
  8
0
 62
     7
 10
147.53100000000001
 20
89.846599999999995
 30
0.0
 11
147.124
 21
89.846599999999995
 31
0.0
  0
LINE
  5
588
  8
0
 62
     7
 10
148.81700000000001
 20
89.846599999999995
 30
0.0
 11
148.81700000000001
 21
85.777900000000002
 31
0.0
  0
LINE
  5
589
  8
0
 62
     7
 10
147.53100000000001
 20
89.846599999999995
 30
0.0
 11
147.53100000000001
 21
85.823400000000007
 31
0.0
  0
LINE
  5
58A
  8
0
 62
     7
 10
148.55199999999999
 20
90.1477
 30
0.0
 11
145.83799999999999
 21
90.1477
 31
0.0
  0
LINE
  5
58B
  8
0
 62
     7
 10
144.55099999999999
 20
85.823400000000007
 30
0.0
 11
144.14500000000001
 21
85.823400000000007
 31
0.0
  0
LINE
  5
58C
  8
0
 62
     7
 10
144.55099999999999
 20
89.846599999999995
 30
0.0
 11
144.55099999999999
 21
85.823400000000007
 31
0.0
  0
LINE
  5
58D
  8
0
 62
     7
 10
144.14500000000001
 20
89.846599999999995
 30
0.0
 11
144.55099999999999
 21
89.846599999999995
 31
0.0
  0
LINE
  5
58E
  8
0
 62
     7
 10
142.85900000000001
 20
89.846599999999995
 30
0.0
 11
142.85900000000001
 21
85.777900000000002
 31
0.0
  0
LINE
  5
58F
  8
0
 62
     7
 10
144.14500000000001
 20
89.846599999999995
 30
0.0
 11
144.14500000000001
 21
85.823400000000007
 31
0.0
  0
LINE
  5
590
  8
0
 62
     7
 10
143.124
 20
90.1477
 30
0.0
 11
145.83799999999999
 21
90.1477
 31
0.0
  0
ARC
  5
591
  8
0
 62
     7
 10
144.647921
 20
119.76361900000001
 30
0.0
 40
2.7984949999999991
 50
89.961632999999992
 51
100.767985
  0
ARC
  5
592
  8
0
 62
     7
 10
144.46140299999999
 20
120.852537
 30
0.0
 40
1.694024999999999
 50
101.45162999999999
 51
116.44883900000001
  0
ARC
  5
593
  8
0
 62
     7
 10
144.165291
 20
121.485462
 30
0.0
 40
0.9955989999999999
 50
117.414873
 51
130.931871
  0
ARC
  5
594
  8
0
 62
     7
 10
143.795905
 20
121.915099
 30
0.0
 40
0.4290130000000001
 50
131.254288
 51
140.97723500000001
  0
ARC
  5
595
  8
0
 62
     7
 10
144.65166499999989
 20
119.75971199999999
 30
0.0
 40
2.8024029999999991
 50
79.239526999999995
 51
90.038250999999974
  0
ARC
  5
596
  8
0
 62
     7
 10
144.83843999999999
 20
120.85096799999999
 30
0.0
 40
1.695584
 50
63.564221999999987
 51
78.555194
  0
ARC
  5
597
  8
0
 62
     7
 10
145.135425
 20
121.485862
 30
0.0
 40
0.9950030000000001
 50
49.072578
 51
62.601332999999997
  0
ARC
  5
598
  8
0
 62
     7
 10
145.50496100000001
 20
121.91560699999999
 30
0.0
 40
0.428236
 50
39.019508000000002
 51
48.761155000000002
  0
ARC
  5
599
  8
0
 62
     7
 10
147.022987
 20
119.762675
 30
0.0
 40
2.7994400000000002
 50
89.961705000000009
 51
100.76616300000001
  0
ARC
  5
59A
  8
0
 62
     7
 10
146.83677900000001
 20
120.849962
 30
0.0
 40
1.6966270000000001
 50
101.447543
 51
116.430286
  0
ARC
  5
59B
  8
0
 62
     7
 10
146.54087200000001
 20
121.483003
 30
0.0
 40
0.9981849999999999
 50
117.39429199999999
 51
130.887449
  0
ARC
  5
59C
  8
0
 62
     7
 10
146.17008300000001
 20
121.914766
 30
0.0
 40
0.429069
 50
131.195446
 51
140.92612500000001
  0
ARC
  5
59D
  8
0
 62
     7
 10
147.02672899999999
 20
119.762675
 30
0.0
 40
2.7994400000000002
 50
79.233817000000002
 51
90.038275999999996
  0
ARC
  5
59E
  8
0
 62
     7
 10
147.21293700000001
 20
120.849962
 30
0.0
 40
1.6966270000000001
 50
63.569693999999991
 51
78.552436999999983
  0
ARC
  5
59F
  8
0
 62
     7
 10
147.50884400000001
 20
121.483003
 30
0.0
 40
0.9981849999999999
 50
49.11253099999999
 51
62.605687999999986
  0
ARC
  5
5A0
  8
0
 62
     7
 10
147.87963300000001
 20
121.914766
 30
0.0
 40
0.429069
 50
39.073855000000002
 51
48.804533999999997
  0
LINE
  5
5A1
  8
0
 62
     7
 10
144.65000000000001
 20
122.562
 30
0.0
 11
147.02500000000001
 21
122.562
 31
0.0
  0
ARC
  5
5A2
  8
0
 62
     7
 10
144.647921
 20
115.013491
 30
0.0
 40
2.7984949999999991
 50
89.961632999999992
 51
100.767985
  0
ARC
  5
5A3
  8
0
 62
     7
 10
144.46140299999999
 20
116.10240899999999
 30
0.0
 40
1.694024999999999
 50
101.45162999999999
 51
116.44883900000001
  0
ARC
  5
5A4
  8
0
 62
     7
 10
144.165291
 20
116.73533500000001
 30
0.0
 40
0.9955989999999999
 50
117.414873
 51
130.931871
  0
ARC
  5
5A5
  8
0
 62
     7
 10
143.795905
 20
117.16497099999999
 30
0.0
 40
0.4290130000000001
 50
131.254288
 51
140.97723500000001
  0
ARC
  5
5A6
  8
0
 62
     7
 10
144.65166499999989
 20
115.009584
 30
0.0
 40
2.8024029999999991
 50
79.239526999999995
 51
90.038250999999974
  0
ARC
  5
5A7
  8
0
 62
     7
 10
144.83843999999999
 20
116.100841
 30
0.0
 40
1.695584
 50
63.564221999999987
 51
78.555194
  0
ARC
  5
5A8
  8
0
 62
     7
 10
145.135425
 20
116.73573500000001
 30
0.0
 40
0.9950030000000001
 50
49.072578
 51
62.601332999999997
  0
ARC
  5
5A9
  8
0
 62
     7
 10
145.50496100000001
 20
117.16548
 30
0.0
 40
0.428236
 50
39.019508000000002
 51
48.761155000000002
  0
ARC
  5
5AA
  8
0
 62
     7
 10
147.022987
 20
115.012547
 30
0.0
 40
2.7994400000000002
 50
89.961705000000009
 51
100.76616300000001
  0
ARC
  5
5AB
  8
0
 62
     7
 10
146.83677900000001
 20
116.099834
 30
0.0
 40
1.6966270000000001
 50
101.447543
 51
116.430286
  0
ARC
  5
5AC
  8
0
 62
     7
 10
146.54087200000001
 20
116.73287500000001
 30
0.0
 40
0.9981849999999999
 50
117.39429199999999
 51
130.887449
  0
ARC
  5
5AD
  8
0
 62
     7
 10
146.17008300000001
 20
117.16463899999999
 30
0.0
 40
0.429069
 50
131.195446
 51
140.92612500000001
  0
ARC
  5
5AE
  8
0
 62
     7
 10
147.02672899999999
 20
115.012547
 30
0.0
 40
2.7994400000000002
 50
79.233817000000002
 51
90.038275999999996
  0
ARC
  5
5AF
  8
0
 62
     7
 10
147.21293700000001
 20
116.099834
 30
0.0
 40
1.6966270000000001
 50
63.569693999999991
 51
78.552436999999983
  0
ARC
  5
5B0
  8
0
 62
     7
 10
147.50884400000001
 20
116.73287500000001
 30
0.0
 40
0.9981849999999999
 50
49.11253099999999
 51
62.605687999999986
  0
ARC
  5
5B1
  8
0
 62
     7
 10
147.87963300000001
 20
117.16463899999999
 30
0.0
 40
0.429069
 50
39.073855000000002
 51
48.804533999999997
  0
ARC
  5
5B2
  8
0
 62
     7
 10
144.647921
 20
120.85990700000001
 30
0.0
 40
2.7984949999999991
 50
259.23201499999999
 51
270.03836699999999
  0
ARC
  5
5B3
  8
0
 62
     7
 10
144.46140299999999
 20
119.770989
 30
0.0
 40
1.694024999999999
 50
243.55116100000001
 51
258.54837000000009
  0
ARC
  5
5B4
  8
0
 62
     7
 10
144.165291
 20
119.138064
 30
0.0
 40
0.9955989999999999
 50
229.068129
 51
242.585127
  0
ARC
  5
5B5
  8
0
 62
     7
 10
143.795905
 20
118.708428
 30
0.0
 40
0.4290130000000001
 50
219.02276499999999
 51
228.745712
  0
ARC
  5
5B6
  8
0
 62
     7
 10
144.65166499999989
 20
120.863815
 30
0.0
 40
2.8024029999999991
 50
269.961749
 51
280.76047299999999
  0
ARC
  5
5B7
  8
0
 62
     7
 10
144.83843999999999
 20
119.772558
 30
0.0
 40
1.695584
 50
281.44480600000003
 51
296.43577800000003
  0
ARC
  5
5B8
  8
0
 62
     7
 10
145.135425
 20
119.137664
 30
0.0
 40
0.9950030000000001
 50
297.39866699999999
 51
310.92742199999998
  0
ARC
  5
5B9
  8
0
 62
     7
 10
145.50496100000001
 20
118.707919
 30
0.0
 40
0.428236
 50
311.23884500000003
 51
320.98049200000003
  0
ARC
  5
5BA
  8
0
 62
     7
 10
147.022987
 20
120.86085199999999
 30
0.0
 40
2.7994400000000002
 50
259.23383699999999
 51
270.03829500000001
  0
ARC
  5
5BB
  8
0
 62
     7
 10
146.83677900000001
 20
119.77356399999999
 30
0.0
 40
1.6966270000000001
 50
243.569714
 51
258.552457
  0
ARC
  5
5BC
  8
0
 62
     7
 10
146.54087200000001
 20
119.140524
 30
0.0
 40
0.9981849999999999
 50
229.112551
 51
242.60570799999999
  0
ARC
  5
5BD
  8
0
 62
     7
 10
146.17008300000001
 20
118.70876
 30
0.0
 40
0.429069
 50
219.07387499999999
 51
228.804554
  0
ARC
  5
5BE
  8
0
 62
     7
 10
147.02672899999999
 20
120.86085199999999
 30
0.0
 40
2.7994400000000002
 50
269.961724
 51
280.76618300000001
  0
ARC
  5
5BF
  8
0
 62
     7
 10
147.21293700000001
 20
119.77356399999999
 30
0.0
 40
1.6966270000000001
 50
281.447563
 51
296.43030599999997
  0
ARC
  5
5C0
  8
0
 62
     7
 10
147.50884400000001
 20
119.140524
 30
0.0
 40
0.9981849999999999
 50
297.39431200000001
 51
310.88746900000001
  0
ARC
  5
5C1
  8
0
 62
     7
 10
147.87963300000001
 20
118.70876
 30
0.0
 40
0.429069
 50
311.19546600000001
 51
320.92614500000002
  0
ARC
  5
5C2
  8
0
 62
     7
 10
144.64793700000001
 20
117.616063
 30
0.0
 40
2.804085999999999
 50
259.2534
 51
270.03795700000012
  0
ARC
  5
5C3
  8
0
 62
     7
 10
144.46177299999999
 20
116.525271
 30
0.0
 40
1.6978349999999991
 50
243.60118900000001
 51
258.56169
  0
ARC
  5
5C4
  8
0
 62
     7
 10
144.1648439999999
 20
115.88897
 30
0.0
 40
0.996011
 50
229.122726
 51
242.626408
  0
ARC
  5
5C5
  8
0
 62
     7
 10
143.79455200000001
 20
115.45759700000001
 30
0.0
 40
0.4275170000000001
 50
219.063377
 51
228.81104999999999
  0
ARC
  5
5C6
  8
0
 62
     7
 10
144.65164899999999
 20
117.619978
 30
0.0
 40
2.8080009999999991
 50
269.96215799999999
 51
280.739103
  0
ARC
  5
5C7
  8
0
 62
     7
 10
144.83806999999999
 20
116.526844
 30
0.0
 40
1.6993990000000001
 50
281.43149399999999
 51
296.38577099999998
  0
ARC
  5
5C8
  8
0
 62
     7
 10
145.13587200000001
 20
115.88857
 30
0.0
 40
0.9954149999999998
 50
297.35740099999998
 51
310.87282299999998
  0
ARC
  5
5C9
  8
0
 62
     7
 10
145.50631000000001
 20
115.45709100000001
 30
0.0
 40
0.426744
 50
311.17350699999997
 51
320.93987900000002
  0
ARC
  5
5CA
  8
0
 62
     7
 10
147.02300399999999
 20
117.617009
 30
0.0
 40
2.8050320000000002
 50
259.25521800000001
 51
270.03788600000001
  0
ARC
  5
5CB
  8
0
 62
     7
 10
146.83715000000001
 20
116.527854
 30
0.0
 40
1.700445999999999
 50
243.61971399999999
 51
258.56577199999998
  0
ARC
  5
5CC
  8
0
 62
     7
 10
146.540425
 20
115.891434
 30
0.0
 40
0.9986
 50
229.16712899999999
 51
242.64696599999999
  0
ARC
  5
5CD
  8
0
 62
     7
 10
146.16873200000001
 20
115.45793
 30
0.0
 40
0.427576
 50
219.11450500000001
 51
228.86988099999999
  0
ARC
  5
5CE
  8
0
 62
     7
 10
147.026712
 20
117.617009
 30
0.0
 40
2.8050320000000002
 50
269.96213299999999
 51
280.74480199999999
  0
ARC
  5
5CF
  8
0
 62
     7
 10
147.21256600000001
 20
116.527854
 30
0.0
 40
1.700445999999999
 50
281.43424800000008
 51
296.38030600000002
  0
ARC
  5
5D0
  8
0
 62
     7
 10
147.50929099999999
 20
115.891434
 30
0.0
 40
0.9986
 50
297.35305399999999
 51
310.83289100000002
  0
ARC
  5
5D1
  8
0
 62
     7
 10
147.88098400000001
 20
115.45793
 30
0.0
 40
0.427576
 50
311.13013899999999
 51
320.885514
  0
LINE
  5
5D2
  8
0
 62
     7
 10
143.99199999999999
 20
109.792
 30
0.0
 11
145.83799999999999
 21
109.792
 31
0.0
  0
LINE
  5
5D3
  8
0
 62
     7
 10
147.68299999999999
 20
109.792
 30
0.0
 11
145.83799999999999
 21
109.792
 31
0.0
  0
LINE
  5
5D4
  8
0
 62
     7
 10
147.68299999999999
 20
109.792
 30
0.0
 11
147.68299999999999
 21
111.48099999999999
 31
0.0
  0
LINE
  5
5D5
  8
0
 62
     7
 10
147.40899999999999
 20
111.755
 30
0.0
 11
147.40899999999999
 21
113.91
 31
0.0
  0
LINE
  5
5D6
  8
0
 62
     7
 10
147.40899999999999
 20
111.755
 30
0.0
 11
147.68299999999999
 21
111.48099999999999
 31
0.0
  0
LINE
  5
5D7
  8
0
 62
     7
 10
146.32900000000001
 20
111.755
 30
0.0
 11
146.32900000000001
 21
113.91
 31
0.0
  0
LINE
  5
5D8
  8
0
 62
     7
 10
146.71899999999999
 20
111.755
 30
0.0
 11
146.71899999999999
 21
113.91
 31
0.0
  0
LINE
  5
5D9
  8
0
 62
     7
 10
146.71899999999999
 20
111.755
 30
0.0
 11
147.40899999999999
 21
111.755
 31
0.0
  0
LINE
  5
5DA
  8
0
 62
     7
 10
145.83799999999999
 20
111.755
 30
0.0
 11
146.32900000000001
 21
111.755
 31
0.0
  0
ARC
  5
5DB
  8
0
 62
     7
 10
147.39237700000001
 20
114.343712
 30
0.0
 40
0.468573
 50
2.073777999999999
 51
87.926211999999992
  0
ARC
  5
5DC
  8
0
 62
     7
 10
147.39306300000001
 20
114.377652
 30
0.0
 40
0.4678880000000001
 50
271.992727
 51
357.91974199999999
  0
LINE
  5
5DD
  8
0
 62
     7
 10
146.71899999999999
 20
113.91
 30
0.0
 11
147.40899999999999
 21
113.91
 31
0.0
  0
LINE
  5
5DE
  8
0
 62
     7
 10
145.83799999999999
 20
113.91
 30
0.0
 11
146.32900000000001
 21
113.91
 31
0.0
  0
LINE
  5
5DF
  8
0
 62
     7
 10
145.83799999999999
 20
114.812
 30
0.0
 11
147.40899999999999
 21
114.812
 31
0.0
  0
LINE
  5
5E0
  8
0
 62
     7
 10
143.99199999999999
 20
109.792
 30
0.0
 11
143.99199999999999
 21
111.48099999999999
 31
0.0
  0
LINE
  5
5E1
  8
0
 62
     7
 10
144.26599999999999
 20
111.755
 30
0.0
 11
144.26599999999999
 21
113.91
 31
0.0
  0
LINE
  5
5E2
  8
0
 62
     7
 10
144.26599999999999
 20
111.755
 30
0.0
 11
143.99199999999999
 21
111.48099999999999
 31
0.0
  0
LINE
  5
5E3
  8
0
 62
     7
 10
145.346
 20
111.755
 30
0.0
 11
145.346
 21
113.91
 31
0.0
  0
LINE
  5
5E4
  8
0
 62
     7
 10
144.95599999999999
 20
111.755
 30
0.0
 11
144.95599999999999
 21
113.91
 31
0.0
  0
LINE
  5
5E5
  8
0
 62
     7
 10
144.95599999999999
 20
111.755
 30
0.0
 11
144.26599999999999
 21
111.755
 31
0.0
  0
LINE
  5
5E6
  8
0
 62
     7
 10
145.83799999999999
 20
111.755
 30
0.0
 11
145.346
 21
111.755
 31
0.0
  0
ARC
  5
5E7
  8
0
 62
     7
 10
144.282915
 20
114.37829000000001
 30
0.0
 40
0.468549
 50
182.155484
 51
267.93208700000002
  0
ARC
  5
5E8
  8
0
 62
     7
 10
144.28296399999999
 20
114.343712
 30
0.0
 40
0.468573
 50
92.073751000000001
 51
177.926219
  0
LINE
  5
5E9
  8
0
 62
     7
 10
144.95599999999999
 20
113.91
 30
0.0
 11
144.26599999999999
 21
113.91
 31
0.0
  0
LINE
  5
5EA
  8
0
 62
     7
 10
145.83799999999999
 20
113.91
 30
0.0
 11
145.346
 21
113.91
 31
0.0
  0
LINE
  5
5EB
  8
0
 62
     7
 10
145.83799999999999
 20
114.812
 30
0.0
 11
144.26599999999999
 21
114.812
 31
0.0
  0
ARC
  5
5EC
  8
0
 62
     7
 10
146.58873800000001
 20
102.05514100000001
 30
0.0
 40
1.064284999999999
 50
240.31347099999999
 51
269.92408999999998
  0
ARC
  5
5ED
  8
0
 62
     7
 10
146.413184
 20
101.713617
 30
0.0
 40
0.680846
 50
212.296753
 51
238.91391200000001
  0
ARC
  5
5EE
  8
0
 62
     7
 10
146.58591799999999
 20
102.05514100000001
 30
0.0
 40
1.064284999999999
 50
270.07593000000003
 51
299.68654900000001
  0
ARC
  5
5EF
  8
0
 62
     7
 10
146.761472
 20
101.713617
 30
0.0
 40
0.680846
 50
301.08610800000002
 51
327.70326699999998
  0
ARC
  5
5F0
  8
0
 62
     7
 10
146.58591799999999
 20
100.644535
 30
0.0
 40
1.064284999999999
 50
60.313450999999993
 51
89.92407
  0
ARC
  5
5F1
  8
0
 62
     7
 10
146.761472
 20
100.986059
 30
0.0
 40
0.680846
 50
32.296733000000003
 51
58.913891999999997
  0
ARC
  5
5F2
  8
0
 62
     7
 10
146.58873800000001
 20
100.644535
 30
0.0
 40
1.064284999999999
 50
90.075909999999965
 51
119.68652899999999
  0
ARC
  5
5F3
  8
0
 62
     7
 10
146.413184
 20
100.986059
 30
0.0
 40
0.680846
 50
121.086088
 51
147.703247
  0
ARC
  5
5F4
  8
0
 62
     7
 10
145.08590799999999
 20
100.64309299999999
 30
0.0
 40
1.0657270000000001
 50
60.334006999999993
 51
89.923888999999988
  0
ARC
  5
5F5
  8
0
 62
     7
 10
145.26199500000001
 20
100.985394
 30
0.0
 40
0.6813380000000001
 50
32.336767999999999
 51
58.953650000000003
  0
ARC
  5
5F6
  8
0
 62
     7
 10
145.08873399999999
 20
100.644535
 30
0.0
 40
1.064284999999999
 50
90.075909999999965
 51
119.68652899999999
  0
ARC
  5
5F7
  8
0
 62
     7
 10
144.91318000000001
 20
100.986059
 30
0.0
 40
0.680846
 50
121.086088
 51
147.703247
  0
LINE
  5
5F8
  8
0
 62
     7
 10
147.33799999999999
 20
103.202
 30
0.0
 11
147.33799999999999
 21
109.792
 31
0.0
  0
LINE
  5
5F9
  8
0
 62
     7
 10
144.33799999999999
 20
103.202
 30
0.0
 11
144.33799999999999
 21
109.792
 31
0.0
  0
ARC
  5
5FA
  8
0
 62
     7
 10
145.086603
 20
102.49663
 30
0.0
 40
1.064284999999999
 50
60.313450999999993
 51
89.92407
  0
ARC
  5
5FB
  8
0
 62
     7
 10
145.262157
 20
102.838154
 30
0.0
 40
0.680846
 50
32.296733000000003
 51
58.913891999999997
  0
ARC
  5
5FC
  8
0
 62
     7
 10
145.089429
 20
102.495188
 30
0.0
 40
1.0657270000000001
 50
90.076091000000005
 51
119.66597400000001
  0
ARC
  5
5FD
  8
0
 62
     7
 10
144.913342
 20
102.83748900000001
 30
0.0
 40
0.6813380000000001
 50
121.04633
 51
147.66321199999999
  0
ARC
  5
5FE
  8
0
 62
     7
 10
145.089429
 20
103.90867799999999
 30
0.0
 40
1.0657270000000001
 50
240.33402599999999
 51
269.92390899999998
  0
ARC
  5
5FF
  8
0
 62
     7
 10
144.913342
 20
103.566377
 30
0.0
 40
0.6813380000000001
 50
212.3367879999999
 51
238.95366999999999
  0
ARC
  5
600
  8
0
 62
     7
 10
145.086603
 20
103.907236
 30
0.0
 40
1.064284999999999
 50
270.07593000000003
 51
299.68654900000001
  0
ARC
  5
601
  8
0
 62
     7
 10
145.262157
 20
103.565712
 30
0.0
 40
0.680846
 50
301.08610800000002
 51
327.70326699999998
  0
ARC
  5
602
  8
0
 62
     7
 10
146.58873800000001
 20
103.907236
 30
0.0
 40
1.064284999999999
 50
240.31347099999999
 51
269.92408999999998
  0
ARC
  5
603
  8
0
 62
     7
 10
146.413184
 20
103.565712
 30
0.0
 40
0.680846
 50
212.296753
 51
238.91391200000001
  0
ARC
  5
604
  8
0
 62
     7
 10
146.58591999999999
 20
103.909544
 30
0.0
 40
1.066594
 50
270.07565099999999
 51
299.653661
  0
ARC
  5
605
  8
0
 62
     7
 10
146.762576
 20
103.565409
 30
0.0
 40
0.680333
 50
301.06392599999998
 51
327.70617800000002
  0
LINE
  5
606
  8
0
 62
     7
 10
143.99199999999999
 20
97.238399999999999
 30
0.0
 11
143.99199999999999
 21
95.548900000000003
 31
0.0
  0
LINE
  5
607
  8
0
 62
     7
 10
143.99199999999999
 20
97.238399999999999
 30
0.0
 11
145.83799999999999
 21
97.238399999999999
 31
0.0
  0
LINE
  5
608
  8
0
 62
     7
 10
144.26599999999999
 20
95.275400000000005
 30
0.0
 11
144.26599999999999
 21
93.049199999999999
 31
0.0
  0
LINE
  5
609
  8
0
 62
     7
 10
144.26599999999999
 20
95.275400000000005
 30
0.0
 11
143.99199999999999
 21
95.548900000000003
 31
0.0
  0
LINE
  5
60A
  8
0
 62
     7
 10
145.346
 20
95.275400000000005
 30
0.0
 11
145.346
 21
93.049199999999999
 31
0.0
  0
LINE
  5
60B
  8
0
 62
     7
 10
144.95599999999999
 20
95.275400000000005
 30
0.0
 11
144.95599999999999
 21
93.049199999999999
 31
0.0
  0
LINE
  5
60C
  8
0
 62
     7
 10
144.95599999999999
 20
95.275400000000005
 30
0.0
 11
144.26599999999999
 21
95.275400000000005
 31
0.0
  0
LINE
  5
60D
  8
0
 62
     7
 10
145.83799999999999
 20
95.275400000000005
 30
0.0
 11
145.346
 21
95.275400000000005
 31
0.0
  0
ARC
  5
60E
  8
0
 62
     7
 10
144.28296399999999
 20
92.615506999999994
 30
0.0
 40
0.468573
 50
182.073781
 51
267.9262490000001
  0
ARC
  5
60F
  8
0
 62
     7
 10
144.28227699999999
 20
92.581567000000007
 30
0.0
 40
0.4678880000000001
 50
91.992689999999996
 51
177.91973899999999
  0
LINE
  5
610
  8
0
 62
     7
 10
144.95599999999999
 20
93.049199999999999
 30
0.0
 11
144.26599999999999
 21
93.049199999999999
 31
0.0
  0
LINE
  5
611
  8
0
 62
     7
 10
145.83799999999999
 20
93.049199999999999
 30
0.0
 11
145.346
 21
93.049199999999999
 31
0.0
  0
LINE
  5
612
  8
0
 62
     7
 10
144.58799999999999
 20
90.1477
 30
0.0
 11
144.58799999999999
 21
92.147199999999984
 31
0.0
  0
LINE
  5
613
  8
0
 62
     7
 10
145.83799999999999
 20
92.147199999999984
 30
0.0
 11
144.26599999999999
 21
92.147199999999984
 31
0.0
  0
LINE
  5
614
  8
0
 62
     7
 10
147.68299999999999
 20
97.238399999999999
 30
0.0
 11
147.68299999999999
 21
95.548900000000003
 31
0.0
  0
LINE
  5
615
  8
0
 62
     7
 10
147.68299999999999
 20
97.238399999999999
 30
0.0
 11
145.83799999999999
 21
97.238399999999999
 31
0.0
  0
LINE
  5
616
  8
0
 62
     7
 10
147.40899999999999
 20
95.275400000000005
 30
0.0
 11
147.40899999999999
 21
93.049199999999999
 31
0.0
  0
LINE
  5
617
  8
0
 62
     7
 10
147.40899999999999
 20
95.275400000000005
 30
0.0
 11
147.68299999999999
 21
95.548900000000003
 31
0.0
  0
LINE
  5
618
  8
0
 62
     7
 10
146.32900000000001
 20
95.275400000000005
 30
0.0
 11
146.32900000000001
 21
93.049199999999999
 31
0.0
  0
LINE
  5
619
  8
0
 62
     7
 10
146.72
 20
95.275400000000005
 30
0.0
 11
146.72
 21
93.049199999999999
 31
0.0
  0
LINE
  5
61A
  8
0
 62
     7
 10
146.72
 20
95.275400000000005
 30
0.0
 11
147.40899999999999
 21
95.275400000000005
 31
0.0
  0
LINE
  5
61B
  8
0
 62
     7
 10
145.83799999999999
 20
95.275400000000005
 30
0.0
 11
146.32900000000001
 21
95.275400000000005
 31
0.0
  0
ARC
  5
61C
  8
0
 62
     7
 10
147.392426
 20
92.580928
 30
0.0
 40
0.468549
 50
2.1554639999999989
 51
87.932067000000004
  0
ARC
  5
61D
  8
0
 62
     7
 10
147.39237700000001
 20
92.615506999999994
 30
0.0
 40
0.468573
 50
272.07378799999998
 51
357.926222
  0
LINE
  5
61E
  8
0
 62
     7
 10
146.72
 20
93.049199999999999
 30
0.0
 11
147.40899999999999
 21
93.049199999999999
 31
0.0
  0
LINE
  5
61F
  8
0
 62
     7
 10
145.83799999999999
 20
93.049199999999999
 30
0.0
 11
146.32900000000001
 21
93.049199999999999
 31
0.0
  0
LINE
  5
620
  8
0
 62
     7
 10
147.08799999999999
 20
90.1477
 30
0.0
 11
147.08799999999999
 21
92.147199999999984
 31
0.0
  0
LINE
  5
621
  8
0
 62
     7
 10
145.83799999999999
 20
92.147199999999984
 30
0.0
 11
147.40899999999999
 21
92.147199999999984
 31
0.0
  0
LINE
  5
622
  8
0
 62
     7
 10
147.33799999999999
 20
97.238399999999999
 30
0.0
 11
147.33799999999999
 21
101.34999999999999
 31
0.0
  0
LINE
  5
623
  8
0
 62
     7
 10
144.33799999999999
 20
97.238399999999999
 30
0.0
 11
144.33799999999999
 21
101.34999999999999
 31
0.0
  0
LINE
  5
624
  8
0
  6
AIGENLINE001
 62
     7
 10
145.83799999999999
 20
222.98400000000001
 30
0.0
 11
145.83799999999999
 21
73.610399999999998
 31
0.0
  0
LINE
  5
625
  8
0
 62
     7
 10
147.71299999999999
 20
117.72199999999999
 30
0.0
 11
147.71299999999999
 21
118.152
 31
0.0
  0
LINE
  5
626
  8
0
 62
     7
 10
143.96199999999999
 20
118.152
 30
0.0
 11
143.96199999999999
 21
117.72199999999999
 31
0.0
  0
LINE
  5
627
  8
0
 62
     7
 10
148.21299999999999
 20
115.188
 30
0.0
 11
148.21299999999999
 21
117.435
 31
0.0
  0
LINE
  5
628
  8
0
 62
     7
 10
145.83799999999999
 20
115.188
 30
0.0
 11
145.83799999999999
 21
117.812
 31
0.0
  0
LINE
  5
629
  8
0
 62
     7
 10
143.46299999999999
 20
115.188
 30
0.0
 11
143.46299999999999
 21
117.435
 31
0.0
  0
LINE
  5
62A
  8
0
 62
     7
 10
144.65000000000001
 20
114.812
 30
0.0
 11
147.02500000000001
 21
114.812
 31
0.0
  0
LINE
  5
62B
  8
0
 62
     7
 10
144.65000000000001
 20
117.812
 30
0.0
 11
147.02500000000001
 21
117.812
 31
0.0
  0
LINE
  5
62C
  8
0
 62
     7
 10
148.21299999999999
 20
118.438
 30
0.0
 11
148.21299999999999
 21
122.185
 31
0.0
  0
LINE
  5
62D
  8
0
 62
     7
 10
145.83799999999999
 20
118.06100000000001
 30
0.0
 11
145.83799999999999
 21
122.562
 31
0.0
  0
LINE
  5
62E
  8
0
 62
     7
 10
143.46299999999999
 20
118.438
 30
0.0
 11
143.46299999999999
 21
122.185
 31
0.0
  0
LINE
  5
62F
  8
0
 62
     7
 10
144.65000000000001
 20
118.06100000000001
 30
0.0
 11
147.02500000000001
 21
118.06100000000001
 31
0.0
  0
LINE
  5
630
  8
0
 62
     7
 10
149.83699999999999
 20
124.506
 30
0.0
 11
149.83699999999999
 21
105.916
 31
0.0
  0
LINE
  5
631
  8
0
 62
     7
 10
136.33699999999999
 20
124.506
 30
0.0
 11
136.33699999999999
 21
105.916
 31
0.0
  0
LINE
  5
632
  8
0
 62
     7
 10
147.626
 20
106.19799999999999
 30
0.0
 11
149.83699999999999
 21
106.79000000000001
 31
0.0
  0
LINE
  5
633
  8
0
 62
     7
 10
149.83699999999999
 20
106.79000000000001
 30
0.0
 11
147.626
 21
107.384
 31
0.0
  0
LINE
  5
634
  8
0
 62
     7
 10
147.626
 20
107.384
 30
0.0
 11
147.626
 21
106.19799999999999
 31
0.0
  0
LINE
  5
635
  8
0
 62
     7
 10
138.54900000000001
 20
107.36799999999999
 30
0.0
 11
136.33699999999999
 21
106.776
 31
0.0
  0
LINE
  5
636
  8
0
 62
     7
 10
136.33699999999999
 20
106.776
 30
0.0
 11
138.54900000000001
 21
106.18300000000001
 31
0.0
  0
LINE
  5
637
  8
0
 62
     7
 10
138.54900000000001
 20
106.18300000000001
 30
0.0
 11
138.54900000000001
 21
107.36799999999999
 31
0.0
  0
LINE
  5
638
  8
0
 62
     7
 10
149.83699999999999
 20
106.783
 30
0.0
 11
136.33699999999999
 21
106.783
 31
0.0
  0
LINE
  5
639
  8
0
 62
     7
 10
65.274299999999997
 20
164.369
 30
0.0
 11
63.47699999999999
 21
166.166
 31
0.0
  0
LINE
  5
63A
  8
0
 62
     7
 10
65.724199999999996
 20
165.02000000000001
 30
0.0
 11
63.927300000000002
 21
166.81700000000001
 31
0.0
  0
LINE
  5
63B
  8
0
 62
     7
 10
66.653000000000006
 20
166.93599999999989
 30
0.0
 11
64.375799999999998
 21
164.65899999999999
 31
0.0
  0
LINE
  5
63C
  8
0
 62
     7
 10
66.168000000000006
 20
165.67699999999999
 30
0.0
 11
64.2256
 21
167.619
 31
0.0
  0
LINE
  5
63D
  8
0
 62
     7
 10
66.730199999999996
 20
168.114
 30
0.0
 11
63.730200000000004
 21
165.114
 31
0.0
  0
LINE
  5
63E
  8
0
 62
     7
 10
66.516599999999997
 20
166.429
 30
0.0
 11
64.230400000000003
 21
168.715
 31
0.0
  0
LINE
  5
63F
  8
0
 62
     7
 10
66.730199999999996
 20
169.215
 30
0.0
 11
63.0167
 21
165.501
 31
0.0
  0
LINE
  5
640
  8
0
 62
     7
 10
66.711600000000004
 20
167.33500000000001
 30
0.0
 11
64.831299999999999
 21
169.215
 31
0.0
  0
LINE
  5
641
  8
0
 62
     7
 10
65.629800000000003
 20
169.215
 30
0.0
 11
64.230400000000003
 21
167.816
 31
0.0
  0
LINE
  5
642
  8
0
 62
     7
 10
66.730199999999996
 20
168.417
 30
0.0
 11
65.931600000000003
 21
169.215
 31
0.0
  0
LINE
  5
643
  8
0
 62
     7
 10
69.903800000000004
 20
154.65299999999999
 30
0.0
 11
69.903800000000004
 21
152.964
 31
0.0
  0
LINE
  5
644
  8
0
 62
     7
 10
69.903800000000004
 20
154.65299999999999
 30
0.0
 11
71.748999999999995
 21
154.65299999999999
 31
0.0
  0
LINE
  5
645
  8
0
 62
     7
 10
70.177400000000006
 20
152.69
 30
0.0
 11
70.177400000000006
 21
150.464
 31
0.0
  0
LINE
  5
646
  8
0
 62
     7
 10
70.177400000000006
 20
152.69
 30
0.0
 11
69.903800000000004
 21
152.964
 31
0.0
  0
LINE
  5
647
  8
0
 62
     7
 10
71.257800000000003
 20
152.69
 30
0.0
 11
71.257800000000003
 21
150.464
 31
0.0
  0
LINE
  5
648
  8
0
 62
     7
 10
70.867099999999994
 20
152.69
 30
0.0
 11
70.867099999999994
 21
150.464
 31
0.0
  0
LINE
  5
649
  8
0
 62
     7
 10
70.867099999999994
 20
152.69
 30
0.0
 11
70.177400000000006
 21
152.69
 31
0.0
  0
LINE
  5
64A
  8
0
 62
     7
 10
71.748999999999995
 20
152.69
 30
0.0
 11
71.257800000000003
 21
152.69
 31
0.0
  0
ARC
  5
64B
  8
0
 62
     7
 10
70.194338999999999
 20
150.03045299999999
 30
0.0
 40
0.468573
 50
182.073781
 51
267.9262490000001
  0
ARC
  5
64C
  8
0
 62
     7
 10
70.194043999999991
 20
149.99612099999999
 30
0.0
 40
0.468294
 50
92.03886
 51
177.873569
  0
LINE
  5
64D
  8
0
 62
     7
 10
70.867099999999994
 20
150.464
 30
0.0
 11
70.177400000000006
 21
150.464
 31
0.0
  0
LINE
  5
64E
  8
0
 62
     7
 10
71.748999999999995
 20
150.464
 30
0.0
 11
71.257800000000003
 21
150.464
 31
0.0
  0
LINE
  5
64F
  8
0
 62
     7
 10
71.748999999999995
 20
149.56200000000001
 30
0.0
 11
70.177400000000006
 21
149.56200000000001
 31
0.0
  0
LINE
  5
650
  8
0
 62
     7
 10
73.594300000000004
 20
154.65299999999999
 30
0.0
 11
73.594300000000004
 21
152.964
 31
0.0
  0
LINE
  5
651
  8
0
 62
     7
 10
73.594300000000004
 20
154.65299999999999
 30
0.0
 11
71.748999999999995
 21
154.65299999999999
 31
0.0
  0
LINE
  5
652
  8
0
 62
     7
 10
73.321399999999997
 20
152.69
 30
0.0
 11
73.321399999999997
 21
150.464
 31
0.0
  0
LINE
  5
653
  8
0
 62
     7
 10
73.321399999999997
 20
152.69
 30
0.0
 11
73.594300000000004
 21
152.964
 31
0.0
  0
LINE
  5
654
  8
0
 62
     7
 10
72.240300000000005
 20
152.69
 30
0.0
 11
72.240300000000005
 21
150.464
 31
0.0
  0
LINE
  5
655
  8
0
 62
     7
 10
72.631
 20
152.69
 30
0.0
 11
72.631
 21
150.464
 31
0.0
  0
LINE
  5
656
  8
0
 62
     7
 10
72.631
 20
152.69
 30
0.0
 11
73.321399999999997
 21
152.69
 31
0.0
  0
LINE
  5
657
  8
0
 62
     7
 10
71.748999999999995
 20
152.69
 30
0.0
 11
72.240300000000005
 21
152.69
 31
0.0
  0
ARC
  5
658
  8
0
 62
     7
 10
73.304456999999999
 20
149.996557
 30
0.0
 40
0.467868
 50
2.0749469999999999
 51
87.925043000000002
  0
ARC
  5
659
  8
0
 62
     7
 10
73.303381999999985
 20
150.03079600000001
 30
0.0
 40
0.4689550000000001
 50
272.20156700000001
 51
357.88598400000001
  0
LINE
  5
65A
  8
0
 62
     7
 10
72.631
 20
150.464
 30
0.0
 11
73.321399999999997
 21
150.464
 31
0.0
  0
LINE
  5
65B
  8
0
 62
     7
 10
71.748999999999995
 20
150.464
 30
0.0
 11
72.240300000000005
 21
150.464
 31
0.0
  0
LINE
  5
65C
  8
0
 62
     7
 10
71.748999999999995
 20
149.56200000000001
 30
0.0
 11
73.321399999999997
 21
149.56200000000001
 31
0.0
  0
ARC
  5
65D
  8
0
  6
AIGENLINE001
 62
     7
 10
72.039000000000001
 20
167.728341
 30
0.0
 40
2.7707899999999999
 50
180.12218200000001
 51
213.680531
  0
LINE
  5
65E
  8
0
  6
AIGENLINE001
 62
     7
 10
69.268600000000006
 20
170.56800000000001
 30
0.0
 11
69.268600000000006
 21
167.72200000000001
 31
0.0
  0
ARC
  5
65F
  8
0
 62
     7
 10
72.029083999999997
 20
167.725323
 30
0.0
 40
1.510637
 50
180.10960299999999
 51
213.22964099999999
  0
ARC
  5
660
  8
0
 62
     7
 10
72.04962900000001
 20
167.73135600000001
 30
0.0
 40
4.0313099999999986
 50
180.126833
 51
213.846553
  0
ARC
  5
661
  8
0
 62
     7
 10
68.987518999999992
 20
162.41729699999999
 30
0.0
 40
1.511641
 50
0.110989
 51
33.832980999999997
  0
ARC
  5
662
  8
0
  6
AIGENLINE001
 62
     7
 10
68.893598999999995
 20
162.38906
 30
0.0
 40
2.8554529999999989
 50
0.117255
 51
33.489921000000002
  0
ARC
  5
663
  8
0
 62
     7
 10
68.968760000000003
 20
162.41099600000001
 30
0.0
 40
4.0308729999999997
 50
0.128748
 51
34.536827000000009
  0
LINE
  5
664
  8
0
 62
     7
 10
70.765500000000003
 20
166.898
 30
0.0
 11
72.289199999999994
 21
164.696
 31
0.0
  0
LINE
  5
665
  8
0
  6
AIGENLINE001
 62
     7
 10
69.7333
 20
166.19200000000001
 30
0.0
 11
71.275000000000006
 21
163.965
 31
0.0
  0
LINE
  5
666
  8
0
 62
     7
 10
68.701499999999996
 20
165.48599999999999
 30
0.0
 11
70.243200000000002
 21
163.25899999999999
 31
0.0
  0
LINE
  5
667
  8
0
 62
     7
 10
70.5184
 20
169.215
 30
0.0
 11
70.5184
 21
167.72200000000001
 31
0.0
  0
LINE
  5
668
  8
0
 62
     7
 10
68.018299999999996
 20
169.215
 30
0.0
 11
68.018299999999996
 21
167.72200000000001
 31
0.0
  0
LINE
  5
669
  8
0
 62
     7
 10
72.999600000000001
 20
162.41999999999999
 30
0.0
 11
72.999600000000001
 21
157.946
 31
0.0
  0
LINE
  5
66A
  8
0
 62
     7
 10
70.499200000000002
 20
162.41999999999999
 30
0.0
 11
70.499200000000002
 21
157.946
 31
0.0
  0
ARC
  5
66B
  8
0
 62
     7
 10
72.375212000000005
 20
157.368786
 30
0.0
 40
0.875787
 50
90.079932000000014
 51
123.209328
  0
ARC
  5
66C
  8
0
 62
     7
 10
72.196336000000002
 20
157.67227399999999
 30
0.0
 40
0.524157
 50
125.019769
 51
148.57816500000001
  0
ARC
  5
66D
  8
0
 62
     7
 10
72.372765000000001
 20
157.367783
 30
0.0
 40
0.8767889999999999
 50
56.810198999999997
 51
89.919950000000014
  0
ARC
  5
66E
  8
0
 62
     7
 10
72.554586999999998
 20
157.675603
 30
0.0
 40
0.5199120000000002
 50
31.277805000000001
 51
55.00854799999999
  0
ARC
  5
66F
  8
0
 62
     7
 10
72.372764000000004
 20
158.52251699999999
 30
0.0
 40
0.8760190000000001
 50
270.08016199999997
 51
303.22280699999999
  0
ARC
  5
670
  8
0
 62
     7
 10
72.553882999999985
 20
158.21653900000001
 30
0.0
 40
0.52107
 50
304.99675400000001
 51
328.66162300000002
  0
ARC
  5
671
  8
0
 62
     7
 10
72.375213000000002
 20
158.52151599999999
 30
0.0
 40
0.875017
 50
236.75764899999999
 51
269.91995600000001
  0
ARC
  5
672
  8
0
 62
     7
 10
72.197052999999997
 20
158.219885
 30
0.0
 40
0.5253370000000001
 50
211.482429
 51
234.9749140000001
  0
ARC
  5
673
  8
0
 62
     7
 10
71.122876000000005
 20
158.52251699999999
 30
0.0
 40
0.8760190000000001
 50
270.08016199999997
 51
303.22280699999999
  0
ARC
  5
674
  8
0
 62
     7
 10
71.303993999999989
 20
158.21653900000001
 30
0.0
 40
0.52107
 50
304.99675400000001
 51
328.66162300000002
  0
ARC
  5
675
  8
0
 62
     7
 10
71.125323999999992
 20
158.52151599999999
 30
0.0
 40
0.875017
 50
236.75764899999999
 51
269.91995600000001
  0
ARC
  5
676
  8
0
 62
     7
 10
70.947164999999998
 20
158.219885
 30
0.0
 40
0.5253370000000001
 50
211.482429
 51
234.9749140000001
  0
LINE
  5
677
  8
0
  6
AIGENLINE001
 62
     7
 10
71.748999999999995
 20
162.39500000000001
 30
0.0
 11
71.748999999999995
 21
73.798500000000004
 31
0.0
  0
ARC
  5
678
  8
0
  6
AIGENLINE001
 62
     7
 10
62.709527000000001
 20
167.728341
 30
0.0
 40
2.7707899999999999
 50
326.31948899999998
 51
359.877838
  0
LINE
  5
679
  8
0
  6
AIGENLINE001
 62
     7
 10
65.4803
 20
170.56800000000001
 30
0.0
 11
65.4803
 21
167.72200000000001
 31
0.0
  0
ARC
  5
67A
  8
0
 62
     7
 10
62.721530999999999
 20
167.72532799999999
 30
0.0
 40
1.5088939999999991
 50
326.72678500000001
 51
359.89009800000002
  0
ARC
  5
67B
  8
0
 62
     7
 10
62.697223999999999
 20
167.73135099999999
 30
0.0
 40
4.032985
 50
326.16949799999998
 51
359.87330299999991
  0
ARC
  5
67C
  8
0
 62
     7
 10
65.761006000000009
 20
162.41729799999999
 30
0.0
 40
1.5116389999999991
 50
146.16698
 51
179.88901100000001
  0
ARC
  5
67D
  8
0
  6
AIGENLINE001
 62
     7
 10
65.853211000000002
 20
162.38905700000001
 30
0.0
 40
2.853734999999999
 50
146.487154
 51
179.88258400000001
  0
ARC
  5
67E
  8
0
 62
     7
 10
65.781701999999996
 20
162.411002
 30
0.0
 40
4.032464
 50
145.47881799999999
 51
179.87137200000001
  0
LINE
  5
67F
  8
0
 62
     7
 10
63.9831
 20
166.898
 30
0.0
 11
62.459299999999999
 21
164.696
 31
0.0
  0
LINE
  5
680
  8
0
  6
AIGENLINE001
 62
     7
 10
65.015199999999993
 20
166.19200000000001
 30
0.0
 11
63.4739
 21
163.965
 31
0.0
  0
LINE
  5
681
  8
0
 62
     7
 10
66.047399999999996
 20
165.48599999999999
 30
0.0
 11
64.505300000000005
 21
163.25899999999999
 31
0.0
  0
LINE
  5
682
  8
0
 62
     7
 10
64.230400000000003
 20
169.215
 30
0.0
 11
64.230400000000003
 21
167.72200000000001
 31
0.0
  0
LINE
  5
683
  8
0
 62
     7
 10
66.730199999999996
 20
169.215
 30
0.0
 11
66.730199999999996
 21
167.72200000000001
 31
0.0
  0
LINE
  5
684
  8
0
 62
     7
 10
61.749200000000002
 20
162.41999999999999
 30
0.0
 11
61.749200000000002
 21
157.946
 31
0.0
  0
LINE
  5
685
  8
0
 62
     7
 10
64.249399999999994
 20
162.41999999999999
 30
0.0
 11
64.249399999999994
 21
157.946
 31
0.0
  0
LINE
  5
686
  8
0
 62
     7
 10
161.94300000000001
 20
240.83600000000001
 30
0.0
 11
151.34399999999999
 21
240.83600000000001
 31
0.0
  0
ARC
  5
687
  8
0
 62
     7
 10
145.83749800000001
 20
247.398695
 30
0.0
 40
3.9999539999999998
 50
270.00248699999997
 51
0.002457
  0
ARC
  5
688
  8
0
 62
     7
 10
145.83749800000001
 20
247.39903799999999
 30
0.0
 40
4.0002969999999989
 50
180.002477
 51
270.00248699999997
  0
ARC
  5
689
  8
0
 62
     7
 10
145.83749900000001
 20
247.39869300000001
 30
0.0
 40
4.000299
 50
89.997533000000004
 51
179.99750299999999
  0
ARC
  5
68A
  8
0
 62
     7
 10
145.83749800000001
 20
247.39903799999999
 30
0.0
 40
3.9999539999999998
 50
359.99754300000001
 51
89.997512999999984
  0
LINE
  5
68B
  8
0
  6
AIGENLINE001
 62
     7
 10
145.83799999999999
 20
253.636
 30
0.0
 11
145.83799999999999
 21
240.70500000000001
 31
0.0
  0
ARC
  5
68C
  8
0
 62
     7
 10
73.790655000000001
 20
146.895633
 30
0.0
 40
0.5839590000000001
 50
272.09296000000001
 51
357.90705000000003
  0
ARC
  5
68D
  8
0
 62
     7
 10
73.656565999999998
 20
147.765266
 30
0.0
 40
0.5470350000000001
 50
90.176119000000014
 51
124.949046
  0
ARC
  5
68E
  8
0
 62
     7
 10
73.769795000000002
 20
147.58351200000001
 30
0.0
 40
0.7609580000000001
 50
124.09756899999999
 51
146.62575100000001
  0
ARC
  5
68F
  8
0
 62
     7
 10
74.053155000000004
 20
147.37807900000001
 30
0.0
 40
1.110711
 50
145.816956
 51
171.73252500000001
  0
ARC
  5
690
  8
0
 62
     7
 10
74.307497999999995
 20
147.313591
 30
0.0
 40
1.371955
 50
170.59464399999999
 51
180.07329999999999
  0
ARC
  5
691
  8
0
 62
     7
 10
74.261729000000003
 20
147.312849
 30
0.0
 40
1.3261849999999991
 50
180.043769
 51
206.855109
  0
ARC
  5
692
  8
0
 62
     7
 10
73.863332999999997
 20
147.13290699999999
 30
0.0
 40
0.8896809999999998
 50
208.106774
 51
234.84672
  0
ARC
  5
693
  8
0
 62
     7
 10
73.665458000000001
 20
146.88709600000001
 30
0.0
 40
0.5751300000000001
 50
236.865081
 51
268.94660699999997
  0
ARC
  5
694
  8
0
 62
     7
 10
73.653211999999996
 20
146.86012299999999
 30
0.0
 40
0.548063
 50
270.17486600000001
 51
304.911294
  0
ARC
  5
695
  8
0
 62
     7
 10
73.540308999999993
 20
147.04078200000001
 30
0.0
 40
0.7609020000000001
 50
304.09743300000002
 51
326.62027799999998
  0
ARC
  5
696
  8
0
 62
     7
 10
73.257646999999992
 20
147.24550199999999
 30
0.0
 40
1.1096779999999999
 50
325.82339000000002
 51
351.74246900000003
  0
ARC
  5
697
  8
0
 62
     7
 10
73.000575999999995
 20
147.31023999999999
 30
0.0
 40
1.37365
 50
350.61016000000001
 51
0.066596
  0
ARC
  5
698
  8
0
 62
     7
 10
73.044029000000009
 20
147.31082000000001
 30
0.0
 40
1.330196999999999
 50
0.043749
 51
26.794267999999999
  0
ARC
  5
699
  8
0
 62
     7
 10
73.446939999999998
 20
147.49204499999999
 30
0.0
 40
0.8890729999999999
 50
28.074335000000001
 51
54.835075000000003
  0
ARC
  5
69A
  8
0
 62
     7
 10
73.644435000000001
 20
147.73670999999999
 30
0.0
 40
0.5756829999999999
 50
56.879893000000003
 51
88.959964999999997
  0
LINE
  5
69B
  8
0
 62
     7
 10
73.624600000000001
 20
149.56200000000001
 30
0.0
 11
74.173699999999997
 21
148.38999999999999
 31
0.0
  0
LINE
  5
69C
  8
0
 62
     7
 10
74.374200000000002
 20
146.874
 30
0.0
 11
74.374200000000002
 21
147.66499999999999
 31
0.0
  0
ARC
  5
69D
  8
0
 62
     7
 10
71.957132999999999
 20
147.32501099999999
 30
0.0
 40
2.4592259999999988
 50
14.568697999999999
 51
25.66591
  0
ARC
  5
69E
  8
0
 62
     7
 10
73.099927000000008
 20
147.6378399999999
 30
0.0
 40
1.2745789999999999
 50
1.2037489999999991
 51
13.880380000000001
  0
LINE
  5
69F
  8
0
 62
     7
 10
69.874200000000002
 20
149.56200000000001
 30
0.0
 11
69.325800000000001
 21
148.38999999999999
 31
0.0
  0
LINE
  5
6A0
  8
0
 62
     7
 10
69.124600000000001
 20
146.874
 30
0.0
 11
69.124600000000001
 21
147.66499999999999
 31
0.0
  0
ARC
  5
6A1
  8
0
 62
     7
 10
71.514627000000004
 20
147.33175700000001
 30
0.0
 40
2.4313359999999991
 50
154.19454099999999
 51
165.42472699999999
  0
ARC
  5
6A2
  8
0
 62
     7
 10
70.395855000000012
 20
147.638047
 30
0.0
 40
1.2715769999999991
 50
166.095753
 51
178.802695
  0
LINE
  5
6A3
  8
0
 62
     7
 10
69.686800000000005
 20
146.31200000000001
 30
0.0
 11
73.811999999999983
 21
146.31200000000001
 31
0.0
  0
ARC
  5
6A4
  8
0
 62
     7
 10
69.708522000000002
 20
146.89603
 30
0.0
 40
0.584371
 50
182.13043300000001
 51
267.869597
  0
ARC
  5
6A5
  8
0
 62
     7
 10
69.845568
 20
147.7643379999999
 30
0.0
 40
0.5479630000000001
 50
90.174839999999989
 51
124.91847
  0
ARC
  5
6A6
  8
0
 62
     7
 10
69.958099000000004
 20
147.58407399999999
 30
0.0
 40
0.760265
 50
124.096006
 51
146.64208099999999
  0
ARC
  5
6A7
  8
0
 62
     7
 10
70.241764000000003
 20
147.378636
 30
0.0
 40
1.110271
 50
145.83624699999999
 51
171.75826000000001
  0
ARC
  5
6A8
  8
0
 62
     7
 10
70.500587999999993
 20
147.31348399999999
 30
0.0
 40
1.3760330000000001
 50
170.618279
 51
180.06864899999999
  0
ARC
  5
6A9
  8
0
 62
     7
 10
70.452450999999996
 20
147.31285299999999
 30
0.0
 40
1.3278959999999991
 50
180.04387700000001
 51
206.817926
  0
ARC
  5
6AA
  8
0
 62
     7
 10
70.05154499999999
 20
147.13222099999999
 30
0.0
 40
0.8888339999999999
 50
208.08580900000001
 51
234.847463
  0
ARC
  5
6AB
  8
0
 62
     7
 10
69.854303000000002
 20
146.88757100000001
 30
0.0
 40
0.5756020000000001
 50
236.87962300000001
 51
268.96398199999999
  0
ARC
  5
6AC
  8
0
 62
     7
 10
69.842213999999998
 20
146.859195
 30
0.0
 40
0.547134
 50
270.17614500000002
 51
304.94186500000001
  0
ARC
  5
6AD
  8
0
 62
     7
 10
69.728612999999996
 20
147.04134500000001
 30
0.0
 40
0.7615960000000001
 50
304.098997
 51
326.603948
  0
ARC
  5
6AE
  8
0
 62
     7
 10
69.446256000000005
 20
147.246059
 30
0.0
 40
1.1101199999999991
 50
325.80409700000001
 51
351.71671199999997
  0
ARC
  5
6AF
  8
0
 62
     7
 10
69.193658999999997
 20
147.31013300000001
 30
0.0
 40
1.3695779999999991
 50
350.58650499999999
 51
0.071247
  0
ARC
  5
6B0
  8
0
 62
     7
 10
69.234753999999995
 20
147.310824
 30
0.0
 40
1.3284830000000001
 50
0.043642
 51
26.831420999999999
  0
ARC
  5
6B1
  8
0
 62
     7
 10
69.635153000000003
 20
147.49135899999999
 30
0.0
 40
0.88992
 50
28.095295
 51
54.834335000000003
  0
ARC
  5
6B2
  8
0
 62
     7
 10
69.833280999999999
 20
147.73718500000001
 30
0.0
 40
0.575211
 50
56.865352000000001
 51
88.942586000000006
  0
ARC
  5
6B3
  8
0
 62
     7
 10
71.788403000000002
 20
147.27388400000001
 30
0.0
 40
1.039134
 50
92.132551000000007
 51
177.906893
  0
ARC
  5
6B4
  8
0
 62
     7
 10
71.787971999999996
 20
147.35007300000001
 30
0.0
 40
1.038713999999999
 50
182.10967400000001
 51
267.890356
  0
ARC
  5
6B5
  8
0
 62
     7
 10
71.711100000000002
 20
147.350471
 30
0.0
 40
1.0391259999999991
 50
272.13077099999998
 51
357.86923899999999
  0
ARC
  5
6B6
  8
0
 62
     7
 10
71.710809999999995
 20
147.273627
 30
0.0
 40
1.039401
 50
2.1067269999999998
 51
87.853789000000035
  0
LINE
  5
6B7
  8
0
 62
     7
 10
69.874200000000002
 20
149.56200000000001
 30
0.0
 11
73.624600000000001
 21
149.56200000000001
 31
0.0
  0
ARC
  5
6B8
  8
0
 62
     7
 10
72.375212000000005
 20
157.181445
 30
0.0
 40
0.875787
 50
236.790672
 51
269.92006800000001
  0
ARC
  5
6B9
  8
0
 62
     7
 10
72.196336000000002
 20
156.87795700000001
 30
0.0
 40
0.524157
 50
211.42183499999999
 51
234.980231
  0
ARC
  5
6BA
  8
0
 62
     7
 10
72.372765000000001
 20
157.18244799999999
 30
0.0
 40
0.8767889999999999
 50
270.08005000000003
 51
303.18980099999999
  0
ARC
  5
6BB
  8
0
 62
     7
 10
72.554586999999998
 20
156.874627
 30
0.0
 40
0.5199120000000002
 50
304.99145199999998
 51
328.722195
  0
ARC
  5
6BC
  8
0
 62
     7
 10
72.372765000000001
 20
156.02694299999999
 30
0.0
 40
0.8767889999999999
 50
56.810198999999997
 51
89.919950000000014
  0
ARC
  5
6BD
  8
0
 62
     7
 10
72.554586999999998
 20
156.33476400000001
 30
0.0
 40
0.5199120000000002
 50
31.277805000000001
 51
55.00854799999999
  0
ARC
  5
6BE
  8
0
 62
     7
 10
72.375212000000005
 20
156.02794599999999
 30
0.0
 40
0.875787
 50
90.079932000000014
 51
123.209328
  0
ARC
  5
6BF
  8
0
 62
     7
 10
72.196336000000002
 20
156.331434
 30
0.0
 40
0.524157
 50
125.019769
 51
148.57816500000001
  0
ARC
  5
6C0
  8
0
 62
     7
 10
71.122877000000003
 20
156.02694299999999
 30
0.0
 40
0.8767889999999999
 50
56.810198999999997
 51
89.919950000000014
  0
ARC
  5
6C1
  8
0
 62
     7
 10
71.304698000000002
 20
156.33476400000001
 30
0.0
 40
0.5199120000000002
 50
31.277805000000001
 51
55.00854799999999
  0
ARC
  5
6C2
  8
0
 62
     7
 10
71.125322999999995
 20
156.02794599999999
 30
0.0
 40
0.875787
 50
90.079932000000014
 51
123.209328
  0
ARC
  5
6C3
  8
0
 62
     7
 10
70.946448000000004
 20
156.331434
 30
0.0
 40
0.524157
 50
125.019769
 51
148.57816500000001
  0
LINE
  5
6C4
  8
0
 62
     7
 10
72.999600000000001
 20
154.65299999999999
 30
0.0
 11
72.999600000000001
 21
156.60499999999999
 31
0.0
  0
LINE
  5
6C5
  8
0
 62
     7
 10
70.499200000000002
 20
154.65299999999999
 30
0.0
 11
70.499200000000002
 21
156.60499999999999
 31
0.0
  0
LINE
  5
6C6
  8
0
 62
     7
 10
69.874200000000002
 20
146.31200000000001
 30
0.0
 11
73.624600000000001
 21
146.31200000000001
 31
0.0
  0
ARC
  5
6C7
  8
0
 62
     7
 10
65.040745999999999
 20
146.895633
 30
0.0
 40
0.5839590000000001
 50
272.09296000000001
 51
357.90705000000003
  0
ARC
  5
6C8
  8
0
 62
     7
 10
64.906649999999985
 20
147.76481100000001
 30
0.0
 40
0.5474899999999999
 50
90.175181999999992
 51
124.934049
  0
ARC
  5
6C9
  8
0
 62
     7
 10
65.019531999999984
 20
147.58379299999999
 30
0.0
 40
0.760612
 50
124.096788
 51
146.633915
  0
ARC
  5
6CA
  8
0
 62
     7
 10
65.303068999999994
 20
147.378342
 30
0.0
 40
1.11052
 50
145.82663199999999
 51
171.74478199999999
  0
ARC
  5
6CB
  8
0
 62
     7
 10
65.561324999999997
 20
147.31341499999999
 30
0.0
 40
1.375689999999999
 50
170.61300299999999
 51
180.065789
  0
ARC
  5
6CC
  8
0
 62
     7
 10
65.512675000000002
 20
147.31285099999999
 30
0.0
 40
1.3270399999999991
 50
180.043823
 51
206.83651900000001
  0
ARC
  5
6CD
  8
0
 62
     7
 10
65.113024999999993
 20
147.132564
 30
0.0
 40
0.889258
 50
208.096293
 51
234.84709100000001
  0
ARC
  5
6CE
  8
0
 62
     7
 10
64.915466000000009
 20
146.88733400000001
 30
0.0
 40
0.5753659999999999
 50
236.872353
 51
268.95530100000002
  0
ARC
  5
6CF
  8
0
 62
     7
 10
64.903302999999994
 20
146.86012299999999
 30
0.0
 40
0.548063
 50
270.17486600000001
 51
304.911294
  0
ARC
  5
6D0
  8
0
 62
     7
 10
64.790400000000005
 20
147.04078200000001
 30
0.0
 40
0.7609020000000001
 50
304.09743300000002
 51
326.62027799999998
  0
ARC
  5
6D1
  8
0
 62
     7
 10
64.507738000000003
 20
147.24550199999999
 30
0.0
 40
1.1096779999999999
 50
325.82339000000002
 51
351.74246900000003
  0
ARC
  5
6D2
  8
0
 62
     7
 10
64.250667000000007
 20
147.31023999999999
 30
0.0
 40
1.37365
 50
350.61016000000001
 51
0.066596
  0
ARC
  5
6D3
  8
0
 62
     7
 10
64.294119999999992
 20
147.31082000000001
 30
0.0
 40
1.330196999999999
 50
0.043749
 51
26.794267999999999
  0
ARC
  5
6D4
  8
0
 62
     7
 10
64.697031999999993
 20
147.49204499999999
 30
0.0
 40
0.8890729999999999
 50
28.074335000000001
 51
54.835075000000003
  0
ARC
  5
6D5
  8
0
 62
     7
 10
64.894526999999997
 20
147.73670999999999
 30
0.0
 40
0.5756829999999999
 50
56.879893000000003
 51
88.959964999999997
  0
LINE
  5
6D6
  8
0
 62
     7
 10
64.874300000000005
 20
149.56200000000001
 30
0.0
 11
65.423500000000004
 21
148.38999999999999
 31
0.0
  0
LINE
  5
6D7
  8
0
 62
     7
 10
65.624300000000005
 20
146.874
 30
0.0
 11
65.624300000000005
 21
147.66499999999999
 31
0.0
  0
ARC
  5
6D8
  8
0
 62
     7
 10
63.230420000000002
 20
147.331929
 30
0.0
 40
2.4350160000000001
 50
14.54857
 51
25.759097000000001
  0
ARC
  5
6D9
  8
0
 62
     7
 10
64.350979000000009
 20
147.63787199999999
 30
0.0
 40
1.2736179999999999
 50
1.2032249999999991
 51
13.88959599999999
  0
LINE
  5
6DA
  8
0
 62
     7
 10
61.124299999999991
 20
149.56200000000001
 30
0.0
 11
60.575499999999991
 21
148.38999999999999
 31
0.0
  0
LINE
  5
6DB
  8
0
 62
     7
 10
60.374299999999998
 20
146.874
 30
0.0
 11
60.374299999999998
 21
147.66499999999999
 31
0.0
  0
ARC
  5
6DC
  8
0
 62
     7
 10
62.779282999999992
 20
147.32676000000001
 30
0.0
 40
2.446934999999999
 50
154.24116599999999
 51
165.39878999999999
  0
ARC
  5
6DD
  8
0
 62
     7
 10
61.645302000000001
 20
147.63768099999999
 30
0.0
 40
1.2712849999999991
 50
166.075548
 51
178.78596400000001
  0
LINE
  5
6DE
  8
0
 62
     7
 10
60.936500000000002
 20
146.31200000000001
 30
0.0
 11
65.062100000000001
 21
146.31200000000001
 31
0.0
  0
ARC
  5
6DF
  8
0
 62
     7
 10
60.958268999999987
 20
146.89603
 30
0.0
 40
0.584371
 50
182.13043300000001
 51
267.869597
  0
ARC
  5
6E0
  8
0
 62
     7
 10
61.095317000000001
 20
147.76481100000001
 30
0.0
 40
0.5474899999999999
 50
90.175181999999992
 51
124.934049
  0
ARC
  5
6E1
  8
0
 62
     7
 10
61.208199
 20
147.58379299999999
 30
0.0
 40
0.760612
 50
124.096788
 51
146.633915
  0
ARC
  5
6E2
  8
0
 62
     7
 10
61.491736000000003
 20
147.378342
 30
0.0
 40
1.11052
 50
145.82663199999999
 51
171.74478199999999
  0
ARC
  5
6E3
  8
0
 62
     7
 10
61.749991000000001
 20
147.31341499999999
 30
0.0
 40
1.375689999999999
 50
170.61300299999999
 51
180.065789
  0
ARC
  5
6E4
  8
0
 62
     7
 10
61.701341000000014
 20
147.31285099999999
 30
0.0
 40
1.3270399999999991
 50
180.043823
 51
206.83651900000001
  0
ARC
  5
6E5
  8
0
 62
     7
 10
61.301690999999998
 20
147.132564
 30
0.0
 40
0.889258
 50
208.096293
 51
234.84709100000001
  0
ARC
  5
6E6
  8
0
 62
     7
 10
61.104132999999997
 20
146.88733400000001
 30
0.0
 40
0.5753659999999999
 50
236.872353
 51
268.95530100000002
  0
ARC
  5
6E7
  8
0
 62
     7
 10
61.091968000000008
 20
146.85964999999999
 30
0.0
 40
0.547589
 50
270.175208
 51
304.92687000000001
  0
ARC
  5
6E8
  8
0
 62
     7
 10
60.978712999999999
 20
147.04106400000001
 30
0.0
 40
0.761249
 50
304.09821499999998
 51
326.61211300000002
  0
ARC
  5
6E9
  8
0
 62
     7
 10
60.696179000000001
 20
147.24579700000001
 30
0.0
 40
1.109928
 50
325.81377500000002
 51
351.72897999999998
  0
ARC
  5
6EA
  8
0
 62
     7
 10
60.439675999999999
 20
147.31030899999999
 30
0.0
 40
1.3733079999999991
 50
350.60487999999998
 51
0.063732
  0
ARC
  5
6EB
  8
0
 62
     7
 10
60.483643999999991
 20
147.310822
 30
0.0
 40
1.329339
 50
0.043695
 51
26.812844999999999
  0
ARC
  5
6EC
  8
0
 62
     7
 10
60.885299000000003
 20
147.491702
 30
0.0
 40
0.889497
 50
28.084816
 51
54.834704000000002
  0
ARC
  5
6ED
  8
0
 62
     7
 10
61.083109999999998
 20
147.73694800000001
 30
0.0
 40
0.5754470000000002
 50
56.872624000000002
 51
88.951282000000006
  0
ARC
  5
6EE
  8
0
 62
     7
 10
63.038154000000013
 20
147.27387899999999
 30
0.0
 40
1.0391399999999991
 50
92.132824000000014
 51
177.90662
  0
ARC
  5
6EF
  8
0
 62
     7
 10
63.037719000000003
 20
147.35007300000001
 30
0.0
 40
1.038713999999999
 50
182.10967400000001
 51
267.890356
  0
ARC
  5
6F0
  8
0
 62
     7
 10
62.960866000000003
 20
147.35081
 30
0.0
 40
1.0394639999999991
 50
272.12901799999997
 51
357.85125199999999
  0
ARC
  5
6F1
  8
0
 62
     7
 10
62.99930899999999
 20
147.31200799999999
 30
0.0
 40
1.000289999999999
 50
359.99014299999999
 51
89.990113000000008
  0
LINE
  5
6F2
  8
0
 62
     7
 10
61.124299999999991
 20
149.56200000000001
 30
0.0
 11
64.874300000000005
 21
149.56200000000001
 31
0.0
  0
ARC
  5
6F3
  8
0
 62
     7
 10
62.373314000000001
 20
157.36829299999999
 30
0.0
 40
0.876279
 50
56.800250999999989
 51
89.920000000000002
  0
ARC
  5
6F4
  8
0
 62
     7
 10
62.553643000000001
 20
157.67391699999999
 30
0.0
 40
0.5220620000000001
 50
31.351054999999999
 51
54.994213000000002
  0
ARC
  5
6F5
  8
0
 62
     7
 10
62.375762000000002
 20
157.367783
 30
0.0
 40
0.8767889999999999
 50
90.080029999999994
 51
123.189781
  0
ARC
  5
6F6
  8
0
 62
     7
 10
62.193940000000012
 20
157.675603
 30
0.0
 40
0.5199120000000002
 50
124.991432
 51
148.72217499999999
  0
ARC
  5
6F7
  8
0
 62
     7
 10
62.375762999999999
 20
158.52251699999999
 30
0.0
 40
0.8760190000000001
 50
236.77721299999999
 51
269.91985799999998
  0
ARC
  5
6F8
  8
0
 62
     7
 10
62.19464399999999
 20
158.21653900000001
 30
0.0
 40
0.52107
 50
211.33839699999999
 51
235.003266
  0
ARC
  5
6F9
  8
0
 62
     7
 10
62.37331300000001
 20
158.522007
 30
0.0
 40
0.8755089999999999
 50
270.08011199999999
 51
303.23276399999997
  0
ARC
  5
6FA
  8
0
 62
     7
 10
62.552932999999989
 20
158.218234
 30
0.0
 40
0.523231
 50
305.01109600000001
 51
328.58836200000002
  0
ARC
  5
6FB
  8
0
 62
     7
 10
63.625650999999998
 20
158.52251699999999
 30
0.0
 40
0.8760190000000001
 50
236.77721299999999
 51
269.91985799999998
  0
ARC
  5
6FC
  8
0
 62
     7
 10
63.444532999999993
 20
158.21653900000001
 30
0.0
 40
0.52107
 50
211.33839699999999
 51
235.003266
  0
ARC
  5
6FD
  8
0
 62
     7
 10
63.623201999999999
 20
158.522007
 30
0.0
 40
0.8755089999999999
 50
270.08011199999999
 51
303.23276399999997
  0
ARC
  5
6FE
  8
0
 62
     7
 10
63.802820999999987
 20
158.218234
 30
0.0
 40
0.523231
 50
305.01109600000001
 51
328.58836200000002
  0
ARC
  5
6FF
  8
0
 62
     7
 10
63.625304
 20
157.181937
 30
0.0
 40
0.876279
 50
236.80027100000001
 51
269.92002000000002
  0
ARC
  5
700
  8
0
 62
     7
 10
63.444974999999999
 20
156.87631399999989
 30
0.0
 40
0.5220620000000001
 50
211.35107500000001
 51
234.99423300000001
  0
ARC
  5
701
  8
0
 62
     7
 10
63.622855999999999
 20
157.18244799999999
 30
0.0
 40
0.8767889999999999
 50
270.08005000000003
 51
303.18980099999999
  0
ARC
  5
702
  8
0
 62
     7
 10
63.804678000000003
 20
156.874627
 30
0.0
 40
0.5199120000000002
 50
304.99145199999998
 51
328.722195
  0
ARC
  5
703
  8
0
 62
     7
 10
63.622855999999999
 20
156.02694299999999
 30
0.0
 40
0.8767889999999999
 50
56.810198999999997
 51
89.919950000000014
  0
ARC
  5
704
  8
0
 62
     7
 10
63.804678000000003
 20
156.33476400000001
 30
0.0
 40
0.5199120000000002
 50
31.277805000000001
 51
55.00854799999999
  0
ARC
  5
705
  8
0
 62
     7
 10
63.625304
 20
156.02745400000001
 30
0.0
 40
0.876279
 50
90.079980000000006
 51
123.199729
  0
ARC
  5
706
  8
0
 62
     7
 10
63.444974999999999
 20
156.333077
 30
0.0
 40
0.5220620000000001
 50
125.00576700000001
 51
148.64892499999999
  0
ARC
  5
707
  8
0
 62
     7
 10
62.372968000000007
 20
156.02694299999999
 30
0.0
 40
0.8767889999999999
 50
56.810198999999997
 51
89.919950000000014
  0
ARC
  5
708
  8
0
 62
     7
 10
62.554788999999992
 20
156.33476400000001
 30
0.0
 40
0.5199120000000002
 50
31.277805000000001
 51
55.00854799999999
  0
ARC
  5
709
  8
0
 62
     7
 10
62.375416000000001
 20
156.02745400000001
 30
0.0
 40
0.876279
 50
90.079980000000006
 51
123.199729
  0
ARC
  5
70A
  8
0
 62
     7
 10
62.195087000000001
 20
156.333077
 30
0.0
 40
0.5220620000000001
 50
125.00576700000001
 51
148.64892499999999
  0
LINE
  5
70B
  8
0
 62
     7
 10
64.249399999999994
 20
154.65299999999999
 30
0.0
 11
64.249399999999994
 21
156.60499999999999
 31
0.0
  0
LINE
  5
70C
  8
0
 62
     7
 10
61.749200000000002
 20
154.65299999999999
 30
0.0
 11
61.749200000000002
 21
156.60499999999999
 31
0.0
  0
LINE
  5
70D
  8
0
 62
     7
 10
61.1539
 20
154.65299999999999
 30
0.0
 11
61.1539
 21
152.964
 31
0.0
  0
LINE
  5
70E
  8
0
 62
     7
 10
61.1539
 20
154.65299999999999
 30
0.0
 11
62.999499999999991
 21
154.65299999999999
 31
0.0
  0
LINE
  5
70F
  8
0
 62
     7
 10
61.427500000000002
 20
152.69
 30
0.0
 11
61.427500000000002
 21
150.464
 31
0.0
  0
LINE
  5
710
  8
0
 62
     7
 10
61.427500000000002
 20
152.69
 30
0.0
 11
61.1539
 21
152.964
 31
0.0
  0
LINE
  5
711
  8
0
 62
     7
 10
62.508200000000002
 20
152.69
 30
0.0
 11
62.508200000000002
 21
150.464
 31
0.0
  0
LINE
  5
712
  8
0
 62
     7
 10
62.1175
 20
152.69
 30
0.0
 11
62.1175
 21
150.464
 31
0.0
  0
LINE
  5
713
  8
0
 62
     7
 10
62.1175
 20
152.69
 30
0.0
 11
61.427500000000002
 21
152.69
 31
0.0
  0
LINE
  5
714
  8
0
 62
     7
 10
62.999499999999991
 20
152.69
 30
0.0
 11
62.508200000000002
 21
152.69
 31
0.0
  0
ARC
  5
715
  8
0
 62
     7
 10
61.444443999999997
 20
150.03011000000001
 30
0.0
 40
0.4682300000000001
 50
182.03326399999989
 51
267.92301200000003
  0
ARC
  5
716
  8
0
 62
     7
 10
61.444468000000001
 20
149.99614600000001
 30
0.0
 40
0.4682810000000001
 50
92.079687000000007
 51
177.87649500000001
  0
LINE
  5
717
  8
0
 62
     7
 10
62.1175
 20
150.464
 30
0.0
 11
61.427500000000002
 21
150.464
 31
0.0
  0
LINE
  5
718
  8
0
 62
     7
 10
62.999499999999991
 20
150.464
 30
0.0
 11
62.508200000000002
 21
150.464
 31
0.0
  0
LINE
  5
719
  8
0
 62
     7
 10
62.999499999999991
 20
149.56200000000001
 30
0.0
 11
61.427500000000002
 21
149.56200000000001
 31
0.0
  0
LINE
  5
71A
  8
0
 62
     7
 10
64.844700000000003
 20
154.65299999999999
 30
0.0
 11
64.844700000000003
 21
152.964
 31
0.0
  0
LINE
  5
71B
  8
0
 62
     7
 10
64.844700000000003
 20
154.65299999999999
 30
0.0
 11
62.999499999999991
 21
154.65299999999999
 31
0.0
  0
LINE
  5
71C
  8
0
 62
     7
 10
64.5715
 20
152.69
 30
0.0
 11
64.5715
 21
150.464
 31
0.0
  0
LINE
  5
71D
  8
0
 62
     7
 10
64.5715
 20
152.69
 30
0.0
 11
64.844700000000003
 21
152.964
 31
0.0
  0
LINE
  5
71E
  8
0
 62
     7
 10
63.4908
 20
152.69
 30
0.0
 11
63.4908
 21
150.464
 31
0.0
  0
LINE
  5
71F
  8
0
 62
     7
 10
63.881399999999992
 20
152.69
 30
0.0
 11
63.881399999999992
 21
150.464
 31
0.0
  0
LINE
  5
720
  8
0
 62
     7
 10
63.881399999999992
 20
152.69
 30
0.0
 11
64.5715
 21
152.69
 31
0.0
  0
LINE
  5
721
  8
0
 62
     7
 10
62.999499999999991
 20
152.69
 30
0.0
 11
63.4908
 21
152.69
 31
0.0
  0
ARC
  5
722
  8
0
 62
     7
 10
64.554558
 20
149.99620899999999
 30
0.0
 40
0.468216
 50
2.1160509999999988
 51
87.927726000000007
  0
ARC
  5
723
  8
0
 62
     7
 10
64.553806999999992
 20
150.03082000000001
 30
0.0
 40
0.4689670000000001
 50
272.16070100000002
 51
357.88306299999999
  0
LINE
  5
724
  8
0
 62
     7
 10
63.881399999999992
 20
150.464
 30
0.0
 11
64.5715
 21
150.464
 31
0.0
  0
LINE
  5
725
  8
0
 62
     7
 10
62.999499999999991
 20
150.464
 30
0.0
 11
63.4908
 21
150.464
 31
0.0
  0
LINE
  5
726
  8
0
 62
     7
 10
62.999499999999991
 20
149.56200000000001
 30
0.0
 11
64.5715
 21
149.56200000000001
 31
0.0
  0
LINE
  5
727
  8
0
 62
     7
 10
69.749499999999983
 20
199.84399999999999
 30
0.0
 11
69.749499999999983
 21
208.09100000000001
 31
0.0
  0
LINE
  5
728
  8
0
 62
     7
 10
64.999399999999994
 20
199.84399999999999
 30
0.0
 11
64.999399999999994
 21
208.09100000000001
 31
0.0
  0
LINE
  5
729
  8
0
  6
AIGENLINE001
 62
     7
 10
139.77199999999999
 20
247.399
 30
0.0
 11
151.768
 21
247.399
 31
0.0
  0
LINE
  5
72A
  8
0
 62
     7
 10
33.531700000000001
 20
165.49299999999999
 30
0.0
 11
58.0685
 21
165.49299999999999
 31
0.0
  0
LINE
  5
72B
  8
0
 62
     7
 10
60.854900000000001
 20
162.88900000000001
 30
0.0
 11
61.749200000000002
 21
160.78100000000001
 31
0.0
  0
LINE
  5
72C
  8
0
 62
     7
 10
61.749200000000002
 20
160.78100000000001
 30
0.0
 11
59.9206
 21
162.15899999999999
 31
0.0
  0
LINE
  5
72D
  8
0
 62
     7
 10
59.9206
 20
162.15899999999999
 30
0.0
 11
60.854900000000001
 21
162.88900000000001
 31
0.0
  0
LINE
  5
72E
  8
0
 62
     7
 10
61.749200000000002
 20
160.78100000000001
 30
0.0
 11
58.0685
 21
165.49299999999999
 31
0.0
  0
LINE
  5
72F
  8
0
 62
     7
 10
93.042999999999992
 20
163.24000000000001
 30
0.0
 11
78.189300000000003
 21
163.24000000000001
 31
0.0
  0
LINE
  5
730
  8
0
 62
     7
 10
75.402900000000002
 20
160.636
 30
0.0
 11
74.508600000000001
 21
158.52799999999999
 31
0.0
  0
LINE
  5
731
  8
0
 62
     7
 10
74.508600000000001
 20
158.52799999999999
 30
0.0
 11
76.337299999999985
 21
159.90600000000001
 31
0.0
  0
LINE
  5
732
  8
0
 62
     7
 10
76.337299999999985
 20
159.90600000000001
 30
0.0
 11
75.402900000000002
 21
160.636
 31
0.0
  0
LINE
  5
733
  8
0
 62
     7
 10
74.508600000000001
 20
158.52799999999999
 30
0.0
 11
78.189300000000003
 21
163.24000000000001
 31
0.0
  0
LINE
  5
734
  8
0
 62
     7
 10
119.008
 20
127.351
 30
0.0
 11
104.411
 21
127.351
 31
0.0
  0
LINE
  5
735
  8
0
 62
     7
 10
101.937
 20
129.60599999999999
 30
0.0
 11
99.749200000000002
 21
130.28100000000001
 31
0.0
  0
LINE
  5
736
  8
0
 62
     7
 10
99.749200000000002
 20
130.28100000000001
 30
0.0
 11
101.306
 21
128.602
 31
0.0
  0
LINE
  5
737
  8
0
 62
     7
 10
101.306
 20
128.602
 30
0.0
 11
101.937
 21
129.60599999999999
 31
0.0
  0
LINE
  5
738
  8
0
 62
     7
 10
99.749200000000002
 20
130.28100000000001
 30
0.0
 11
104.411
 21
127.351
 31
0.0
  0
LINE
  5
739
  8
0
 62
     7
 10
65.211200000000005
 20
129.166
 30
0.0
 11
62.999499999999991
 21
128.57400000000001
 31
0.0
  0
LINE
  5
73A
  8
0
 62
     7
 10
62.999499999999991
 20
128.57400000000001
 30
0.0
 11
65.211200000000005
 21
127.98099999999999
 31
0.0
  0
LINE
  5
73B
  8
0
 62
     7
 10
65.211200000000005
 20
127.98099999999999
 30
0.0
 11
65.211200000000005
 21
129.166
 31
0.0
  0
LINE
  5
73C
  8
0
 62
     7
 10
73.961500000000001
 20
129.166
 30
0.0
 11
71.749700000000004
 21
128.57400000000001
 31
0.0
  0
LINE
  5
73D
  8
0
 62
     7
 10
71.749700000000004
 20
128.57400000000001
 30
0.0
 11
73.961500000000001
 21
127.98099999999999
 31
0.0
  0
LINE
  5
73E
  8
0
 62
     7
 10
73.961500000000001
 20
127.98099999999999
 30
0.0
 11
73.961500000000001
 21
129.166
 31
0.0
  0
LINE
  5
73F
  8
0
 62
     7
 10
56.960500000000003
 20
129.166
 30
0.0
 11
54.748800000000003
 21
128.57400000000001
 31
0.0
  0
LINE
  5
740
  8
0
 62
     7
 10
54.748800000000003
 20
128.57400000000001
 30
0.0
 11
56.960500000000003
 21
127.98099999999999
 31
0.0
  0
LINE
  5
741
  8
0
 62
     7
 10
56.960500000000003
 20
127.98099999999999
 30
0.0
 11
56.960500000000003
 21
129.166
 31
0.0
  0
LINE
  5
742
  8
0
 62
     7
 10
60.787700000000001
 20
127.996
 30
0.0
 11
62.999499999999991
 21
128.58799999999999
 31
0.0
  0
LINE
  5
743
  8
0
 62
     7
 10
62.999499999999991
 20
128.58799999999999
 30
0.0
 11
60.787700000000001
 21
129.18100000000001
 31
0.0
  0
LINE
  5
744
  8
0
 62
     7
 10
60.787700000000001
 20
129.18100000000001
 30
0.0
 11
60.787700000000001
 21
127.996
 31
0.0
  0
LINE
  5
745
  8
0
 62
     7
 10
69.537999999999997
 20
127.996
 30
0.0
 11
71.749700000000004
 21
128.58799999999999
 31
0.0
  0
LINE
  5
746
  8
0
 62
     7
 10
71.749700000000004
 20
128.58799999999999
 30
0.0
 11
69.537999999999997
 21
129.18100000000001
 31
0.0
  0
LINE
  5
747
  8
0
 62
     7
 10
69.537999999999997
 20
129.18100000000001
 30
0.0
 11
69.537999999999997
 21
127.996
 31
0.0
  0
LINE
  5
748
  8
0
 62
     7
 10
97.537499999999994
 20
127.996
 30
0.0
 11
99.749200000000002
 21
128.58799999999999
 31
0.0
  0
LINE
  5
749
  8
0
 62
     7
 10
99.749200000000002
 20
128.58799999999999
 30
0.0
 11
97.537499999999994
 21
129.18100000000001
 31
0.0
  0
LINE
  5
74A
  8
0
 62
     7
 10
97.537499999999994
 20
129.18100000000001
 30
0.0
 11
97.537499999999994
 21
127.996
 31
0.0
  0
LINE
  5
74B
  8
0
 62
     7
 10
54.7498
 20
128.58099999999999
 30
0.0
 11
99.747900000000001
 21
128.58099999999999
 31
0.0
  0
LINE
  5
74C
  8
0
 62
     7
 10
48.781500000000001
 20
140.352
 30
0.0
 11
48.18889999999999
 21
142.56299999999999
 31
0.0
  0
LINE
  5
74D
  8
0
 62
     7
 10
48.18889999999999
 20
142.56299999999999
 30
0.0
 11
47.595700000000001
 21
140.352
 31
0.0
  0
LINE
  5
74E
  8
0
 62
     7
 10
47.595700000000001
 20
140.352
 30
0.0
 11
48.781500000000001
 21
140.352
 31
0.0
  0
LINE
  5
74F
  8
0
 62
     7
 10
47.61079999999999
 20
128.523
 30
0.0
 11
48.203400000000002
 21
126.31100000000001
 31
0.0
  0
LINE
  5
750
  8
0
 62
     7
 10
48.203400000000002
 20
126.31100000000001
 30
0.0
 11
48.795999999999999
 21
128.523
 31
0.0
  0
LINE
  5
751
  8
0
 62
     7
 10
48.795999999999999
 20
128.523
 30
0.0
 11
47.61079999999999
 21
128.523
 31
0.0
  0
LINE
  5
752
  8
0
 62
     7
 10
48.195799999999998
 20
142.56200000000001
 30
0.0
 11
48.195799999999998
 21
126.312
 31
0.0
  0
LINE
  5
753
  8
0
 62
     7
 10
52.9422
 20
126.312
 30
0.0
 11
47.495800000000003
 21
126.312
 31
0.0
  0
LINE
  5
754
  8
0
 62
     7
 10
52.9422
 20
142.56200000000001
 30
0.0
 11
47.495800000000003
 21
142.56200000000001
 31
0.0
  0
LINE
  5
755
  8
0
 62
     7
 10
150.28399999999999
 20
243.02099999999999
 30
0.0
 11
148.40799999999999
 21
244.33500000000001
 31
0.0
  0
LINE
  5
756
  8
0
 62
     7
 10
148.40799999999999
 20
244.33500000000001
 30
0.0
 11
149.375
 21
242.25899999999999
 31
0.0
  0
LINE
  5
757
  8
0
 62
     7
 10
149.375
 20
242.25899999999999
 30
0.0
 11
150.28399999999999
 21
243.02099999999999
 31
0.0
  0
LINE
  5
758
  8
0
 62
     7
 10
141.39599999999999
 20
251.78100000000001
 30
0.0
 11
143.27099999999999
 21
250.46799999999999
 31
0.0
  0
LINE
  5
759
  8
0
 62
     7
 10
143.27099999999999
 20
250.46799999999999
 30
0.0
 11
142.304
 21
252.54300000000001
 31
0.0
  0
LINE
  5
75A
  8
0
 62
     7
 10
142.304
 20
252.54300000000001
 30
0.0
 11
141.39599999999999
 21
251.78100000000001
 31
0.0
  0
LINE
  5
75B
  8
0
 62
     7
 10
141.30699999999999
 20
252.798
 30
0.0
 11
151.34399999999999
 21
240.83600000000001
 31
0.0
  0
LINE
  5
75C
  8
0
 62
     7
 10
61.124299999999991
 20
146.31200000000001
 30
0.0
 11
64.874300000000005
 21
146.31200000000001
 31
0.0
  0
ARC
  5
75D
  8
0
 62
     7
 10
68.886624999999995
 20
203.912711
 30
0.0
 40
0.862878
 50
0.159466
 51
34.795847999999999
  0
ARC
  5
75E
  8
0
 62
     7
 10
68.517640999999998
 20
203.69436400000001
 30
0.0
 40
1.290862999999999
 50
33.408347999999997
 51
50.205675999999997
  0
ARC
  5
75F
  8
0
 62
     7
 10
68.070441000000002
 20
203.19367500000001
 30
0.0
 40
1.9619259999999989
 50
49.52966
 51
64.059078
  0
ARC
  5
760
  8
0
 62
     7
 10
67.607536999999994
 20
202.31133199999999
 30
0.0
 40
2.9580189999999988
 50
63.472386
 51
79.706040000000002
  0
ARC
  5
761
  8
0
 62
     7
 10
67.388294999999999
 20
201.39996099999999
 30
0.0
 40
3.8942569999999992
 50
78.928409000000002
 51
90.203901999999985
  0
ARC
  5
762
  8
0
 62
     7
 10
67.373743999999988
 20
201.34037799999999
 30
0.0
 40
3.9538150000000001
 50
89.989959999999996
 51
105.475025
  0
ARC
  5
763
  8
0
 62
     7
 10
67.129618000000008
 20
202.321923
 30
0.0
 40
2.9428380000000001
 50
105.99329
 51
117.814745
  0
ARC
  5
764
  8
0
 62
     7
 10
66.714141999999995
 20
203.141211
 30
0.0
 40
2.024397
 50
118.234183
 51
132.051975
  0
ARC
  5
765
  8
0
 62
     7
 10
66.209620000000001
 20
203.720088
 30
0.0
 40
1.2566959999999989
 50
132.649619
 51
155.400442
  0
ARC
  5
766
  8
0
 62
     7
 10
65.859049999999996
 20
203.90898300000001
 30
0.0
 40
0.8596999999999999
 50
157.12133499999999
 51
179.5914149999999
  0
ARC
  5
767
  8
0
 62
     7
 10
68.886057999999991
 20
199.84195500000001
 30
0.0
 40
0.8634450000000001
 50
0.159721
 51
34.784056
  0
ARC
  5
768
  8
0
 62
     7
 10
68.517856999999992
 20
199.62428199999999
 30
0.0
 40
1.2904100000000001
 50
33.395212000000001
 51
50.201368000000002
  0
ARC
  5
769
  8
0
 62
     7
 10
68.063597999999999
 20
199.115354
 30
0.0
 40
1.972323
 50
49.52605100000001
 51
64.682891999999995
  0
ARC
  5
76A
  8
0
 62
     7
 10
67.595429999999993
 20
198.20811499999999
 30
0.0
 40
2.992834999999999
 50
64.008193000000006
 51
80.12961700000001
  0
ARC
  5
76B
  8
0
 62
     7
 10
67.387028999999984
 20
197.315247
 30
0.0
 40
3.9085610000000002
 50
79.363493000000005
 51
90.184593000000007
  0
ARC
  5
76C
  8
0
 62
     7
 10
67.373743999999988
 20
197.269972
 30
0.0
 40
3.9538150000000001
 50
89.989959999999996
 51
105.475025
  0
ARC
  5
76D
  8
0
 62
     7
 10
67.131783999999996
 20
198.246377
 30
0.0
 40
2.948375
 50
106.006241
 51
117.805571
  0
ARC
  5
76E
  8
0
 62
     7
 10
66.715490000000003
 20
199.06921500000001
 30
0.0
 40
2.0264159999999989
 50
118.246785
 51
132.05179999999999
  0
ARC
  5
76F
  8
0
 62
     7
 10
66.210253000000009
 20
199.64927599999999
 30
0.0
 40
1.25736
 50
132.66098799999989
 51
155.40369000000001
  0
ARC
  5
770
  8
0
 62
     7
 10
65.860386000000005
 20
199.83811
 30
0.0
 40
0.8610369999999999
 50
157.13919899999999
 51
179.58395200000001
  0
ARC
  5
771
  8
0
 62
     7
 10
65.862448000000001
 20
199.846765
 30
0.0
 40
0.8630790000000002
 50
180.15951999999999
 51
214.78667100000001
  0
ARC
  5
772
  8
0
 62
     7
 10
66.231218999999996
 20
200.06501299999999
 30
0.0
 40
1.2908349999999991
 50
213.40395000000001
 51
230.20035799999999
  0
ARC
  5
773
  8
0
 62
     7
 10
66.686013000000003
 20
200.57501500000001
 30
0.0
 40
1.9739129999999989
 50
229.53397699999999
 51
244.67653100000001
  0
ARC
  5
774
  8
0
 62
     7
 10
67.153925999999998
 20
201.48334299999999
 30
0.0
 40
2.995295
 50
244.017865
 51
260.12580500000001
  0
ARC
  5
775
  8
0
 62
     7
 10
67.361812
 20
202.37493000000001
 30
0.0
 40
3.909667999999999
 50
259.36501600000003
 51
270.18501500000002
  0
ARC
  5
776
  8
0
 62
     7
 10
67.375127000000006
 20
202.41799800000001
 30
0.0
 40
3.9527160000000001
 50
269.98999700000002
 51
285.47721000000001
  0
ARC
  5
777
  8
0
 62
     7
 10
67.618977000000001
 20
201.437963
 30
0.0
 40
2.9432669999999992
 50
285.99345899999997
 51
297.81347699999998
  0
ARC
  5
778
  8
0
 62
     7
 10
68.034265000000005
 20
200.618967
 30
0.0
 40
2.0251719999999991
 50
298.23301600000002
 51
312.04662200000001
  0
ARC
  5
779
  8
0
 62
     7
 10
68.539411000000001
 20
200.03939299999999
 30
0.0
 40
1.256534
 50
312.64122700000001
 51
335.39679100000001
  0
ARC
  5
77A
  8
0
 62
     7
 10
68.889968999999994
 20
199.85051399999989
 30
0.0
 40
0.859552
 50
337.11564800000002
 51
359.58992799999999
  0
ARC
  5
77B
  8
0
 62
     7
 10
67.374607999999995
 20
208.09042199999999
 30
0.0
 40
2.374892
 50
0.004166
 51
90.004135999999988
  0
ARC
  5
77C
  8
0
 62
     7
 10
67.374263999999997
 20
208.09042199999999
 30
0.0
 40
2.374892
 50
89.995843999999991
 51
179.995814
  0
LINE
  5
77D
  8
0
 62
     7
 10
71.999200000000002
 20
213.715
 30
0.0
 11
71.999200000000002
 21
213.21600000000001
 31
0.0
  0
LINE
  5
77E
  8
0
 62
     7
 10
62.749400000000001
 20
213.21600000000001
 30
0.0
 11
62.749400000000001
 21
213.715
 31
0.0
  0
ARC
  5
77F
  8
0
 62
     7
 10
67.359953000000004
 20
191.950897
 30
0.0
 40
0.38958
 50
2.130412999999999
 51
87.869577000000007
  0
ARC
  5
780
  8
0
 62
     7
 10
67.388126
 20
191.95133200000001
 30
0.0
 40
0.389117
 50
92.016165000000001
 51
177.93116800000001
  0
ARC
  5
781
  8
0
 62
     7
 10
67.388933999999992
 20
191.97987699999999
 30
0.0
 40
0.3899409999999999
 50
182.13073
 51
267.86930000000001
  0
ARC
  5
782
  8
0
 62
     7
 10
67.360712000000007
 20
191.978746
 30
0.0
 40
0.388783
 50
272.02297099999998
 51
358.02967699999999
  0
ARC
  5
783
  8
0
 62
     7
 10
67.359604000000004
 20
190.32584399999999
 30
0.0
 40
0.389929
 50
2.1271969999999998
 51
87.820156000000011
  0
ARC
  5
784
  8
0
 62
     7
 10
67.388149999999996
 20
190.32660300000001
 30
0.0
 40
0.389129
 50
92.019695999999996
 51
177.98027400000001
  0
ARC
  5
785
  8
0
 62
     7
 10
67.388584999999992
 20
190.35482400000001
 30
0.0
 40
0.389592
 50
182.13394999999991
 51
267.91871700000002
  0
ARC
  5
786
  8
0
 62
     7
 10
67.360736000000003
 20
190.354017
 30
0.0
 40
0.38877
 50
272.01943599999998
 51
357.9805740000001
  0
ARC
  5
787
  8
0
 62
     7
 10
67.359604000000004
 20
188.700782
 30
0.0
 40
0.389929
 50
2.1271969999999998
 51
87.820156000000011
  0
ARC
  5
788
  8
0
 62
     7
 10
67.388149999999996
 20
188.70154099999999
 30
0.0
 40
0.389129
 50
92.019695999999996
 51
177.98027400000001
  0
ARC
  5
789
  8
0
 62
     7
 10
67.388584999999992
 20
188.72976199999999
 30
0.0
 40
0.389592
 50
182.13394999999991
 51
267.91871700000002
  0
ARC
  5
78A
  8
0
 62
     7
 10
67.360736000000003
 20
188.72895500000001
 30
0.0
 40
0.38877
 50
272.01943599999998
 51
357.9805740000001
  0
LINE
  5
78B
  8
0
 62
     7
 10
63.374299999999998
 20
182.715
 30
0.0
 11
62.999099999999999
 21
183.965
 31
0.0
  0
LINE
  5
78C
  8
0
 62
     7
 10
67.124300000000005
 20
182.715
 30
0.0
 11
67.124300000000005
 21
183.965
 31
0.0
  0
LINE
  5
78D
  8
0
 62
     7
 10
67.624600000000001
 20
182.715
 30
0.0
 11
67.624600000000001
 21
183.965
 31
0.0
  0
LINE
  5
78E
  8
0
 62
     7
 10
67.124300000000005
 20
182.715
 30
0.0
 11
67.624600000000001
 21
182.715
 31
0.0
  0
LINE
  5
78F
  8
0
 62
     7
 10
71.749399999999994
 20
183.965
 30
0.0
 11
71.374200000000002
 21
182.715
 31
0.0
  0
LINE
  5
790
  8
0
 62
     7
 10
71.374200000000002
 20
181.965
 30
0.0
 11
71.374200000000002
 21
183.965
 31
0.0
  0
LINE
  5
791
  8
0
 62
     7
 10
63.374299999999998
 20
181.965
 30
0.0
 11
63.374299999999998
 21
183.965
 31
0.0
  0
LINE
  5
792
  8
0
 62
     7
 10
63.374299999999998
 20
181.965
 30
0.0
 11
71.374200000000002
 21
181.965
 31
0.0
  0
LINE
  5
793
  8
0
 62
     7
 10
72.499399999999994
 20
183.965
 30
0.0
 11
72.499399999999994
 21
184.215
 31
0.0
  0
LINE
  5
794
  8
0
 62
     7
 10
62.249499999999991
 20
184.215
 30
0.0
 11
62.249499999999991
 21
183.965
 31
0.0
  0
LINE
  5
795
  8
0
 62
     7
 10
62.249499999999991
 20
183.965
 30
0.0
 11
72.499399999999994
 21
183.965
 31
0.0
  0
LINE
  5
796
  8
0
 62
     7
 10
72.374300000000005
 20
213.21600000000001
 30
0.0
 11
72.374300000000005
 21
184.215
 31
0.0
  0
LINE
  5
797
  8
0
 62
     7
 10
62.374200000000002
 20
213.21600000000001
 30
0.0
 11
62.374200000000002
 21
184.215
 31
0.0
  0
LINE
  5
798
  8
0
 62
     7
 10
62.249499999999991
 20
184.215
 30
0.0
 11
72.499399999999994
 21
184.215
 31
0.0
  0
LINE
  5
799
  8
0
 62
     7
 10
62.374200000000002
 20
213.21600000000001
 30
0.0
 11
72.374300000000005
 21
213.21600000000001
 31
0.0
  0
LINE
  5
79A
  8
0
 62
     7
 10
72.374300000000005
 20
221.46600000000001
 30
0.0
 11
72.374300000000005
 21
213.715
 31
0.0
  0
LINE
  5
79B
  8
0
 62
     7
 10
62.624299999999998
 20
221.71600000000001
 30
0.0
 11
72.124600000000001
 21
221.71600000000001
 31
0.0
  0
ARC
  5
79C
  8
0
 62
     7
 10
72.114739
 20
221.455928
 30
0.0
 40
0.259774
 50
2.1278509999999988
 51
87.832638000000003
  0
LINE
  5
79D
  8
0
 62
     7
 10
62.374200000000002
 20
221.46600000000001
 30
0.0
 11
62.374200000000002
 21
213.715
 31
0.0
  0
ARC
  5
79E
  8
0
 62
     7
 10
62.633955999999998
 20
221.455747
 30
0.0
 40
0.259949
 50
92.126972999999978
 51
177.83352400000001
  0
LINE
  5
79F
  8
0
 62
     7
 10
62.374200000000002
 20
213.715
 30
0.0
 11
72.374300000000005
 21
213.715
 31
0.0
  0
LINE
  5
7A0
  8
0
  6
AIGENLINE001
 62
     7
 10
62.999499999999991
 20
162.39500000000001
 30
0.0
 11
62.999499999999991
 21
73.798500000000004
 31
0.0
  0
LINE
  5
7A1
  8
0
  6
AIGENLINE001
 62
     7
 10
67.374399999999994
 20
224.02500000000001
 30
0.0
 11
67.374399999999994
 21
134.51499999999999
 31
0.0
  0
LINE
  5
7A2
  8
0
  6
AIGENLINE001
 62
     7
 10
67.374399999999994
 20
128.13300000000001
 30
0.0
 11
67.374399999999994
 21
124.264
 31
0.0
  0
TEXT
  5
7A3
  8
_________2
 62
     7
 10
114.11799999999999
 20
45.7453
 30
0.0
 40
3.9357000000000002
  1
ボラ 自動水栓（湯水混合栓）
 41
0.5
  0
LINE
  5
7A4
  8
_________2
 62
     7
 10
210.24000000000001
 20
148.93100000000001
 30
0.0
 11
188.49000000000001
 21
148.93100000000001
 31
0.0
  0
LINE
  5
7A5
  8
_________2
 62
     7
 10
105.239
 20
17.4285
 30
0.0
 11
105.239
 21
0.4482100000000001
 31
0.0
  0
LINE
  5
7A6
  8
_________2
 62
     7
 10
105.239
 20
297.44999999999999
 30
0.0
 11
105.239
 21
280.43000000000001
 31
0.0
  0
LINE
  5
7A7
  8
_________2
 62
     7
 10
21.988499999999998
 20
148.93100000000001
 30
0.0
 11
0.238058
 21
148.93100000000001
 31
0.0
  0
LINE
  5
7A8
  8
_________2
 62
     7
 10
81.679900000000004
 20
51.324300000000001
 30
0.0
 11
79.493700000000004
 21
51.324300000000001
 31
0.0
  0
LINE
  5
7A9
  8
_________2
 62
     7
 10
82.172600000000017
 20
51.324300000000001
 30
0.0
 11
81.920400000000001
 21
51.324300000000001
 31
0.0
  0
LINE
  5
7AA
  8
_________2
 62
     7
 10
82.665199999999984
 20
51.324300000000001
 30
0.0
 11
85.590100000000007
 21
51.324300000000001
 31
0.0
  0
LINE
  5
7AB
  8
_________2
 62
     7
 10
82.172600000000017
 20
51.324300000000001
 30
0.0
 11
82.424800000000005
 21
51.324300000000001
 31
0.0
  0
LINE
  5
7AC
  8
_________2
 62
     7
 10
75.776399999999995
 20
51.324300000000001
 30
0.0
 11
73.589399999999998
 21
51.324300000000001
 31
0.0
  0
LINE
  5
7AD
  8
_________2
 62
     7
 10
76.2684
 20
51.324300000000001
 30
0.0
 11
76.016900000000007
 21
51.324300000000001
 31
0.0
  0
LINE
  5
7AE
  8
_________2
 62
     7
 10
76.2684
 20
51.817
 30
0.0
 11
76.2684
 21
54.003900000000002
 31
0.0
  0
LINE
  5
7AF
  8
_________2
 62
     7
 10
76.2684
 20
51.324300000000001
 30
0.0
 11
76.2684
 21
51.576500000000003
 31
0.0
  0
LINE
  5
7B0
  8
_________2
 62
     7
 10
76.76100000000001
 20
51.324300000000001
 30
0.0
 11
78.947999999999993
 21
51.324300000000001
 31
0.0
  0
LINE
  5
7B1
  8
_________2
 62
     7
 10
76.2684
 20
51.324300000000001
 30
0.0
 11
76.520499999999998
 21
51.324300000000001
 31
0.0
  0
LINE
  5
7B2
  8
_________2
 62
     7
 10
76.2684
 20
50.832399999999993
 30
0.0
 11
76.2684
 21
48.645400000000002
 31
0.0
  0
LINE
  5
7B3
  8
_________2
 62
     7
 10
76.2684
 20
51.324300000000001
 30
0.0
 11
76.2684
 21
51.072800000000001
 31
0.0
  0
LINE
  5
7B4
  8
_________2
 62
     7
 10
79.979399999999984
 20
50.104799999999997
 30
0.0
 11
85.157399999999996
 21
49.240000000000002
 31
0.0
  0
LINE
  5
7B5
  8
_________2
 62
     7
 10
79.979399999999984
 20
52.543900000000001
 30
0.0
 11
85.157399999999996
 21
53.409300000000002
 31
0.0
  0
LINE
  5
7B6
  8
_________2
 62
     7
 10
85.157399999999996
 20
49.240000000000002
 30
0.0
 11
85.157399999999996
 21
53.409300000000002
 31
0.0
  0
LINE
  5
7B7
  8
_________2
 62
     7
 10
79.979399999999984
 20
50.104799999999997
 30
0.0
 11
79.979399999999984
 21
52.543900000000001
 31
0.0
  0
ARC
  5
7B8
  8
_________2
 62
     7
 10
76.222110000000001
 20
51.277366999999991
 30
0.0
 40
1.2673709999999989
 50
2.1232950000000002
 51
87.909056000000007
  0
ARC
  5
7B9
  8
_________2
 62
     7
 10
76.315273000000005
 20
51.277400999999998
 30
0.0
 40
1.267363
 50
92.121785999999986
 51
177.878185
  0
ARC
  5
7BA
  8
_________2
 62
     7
 10
76.315273000000005
 20
51.371245999999992
 30
0.0
 40
1.267363
 50
182.121815
 51
267.87821400000001
  0
ARC
  5
7BB
  8
_________2
 62
     7
 10
76.221461000000005
 20
51.371928999999987
 30
0.0
 40
1.2680439999999991
 50
272.11916400000001
 51
357.84848499999998
  0
ARC
  5
7BC
  8
_________2
 62
     7
 10
76.268349999999984
 20
51.324323
 30
0.0
 40
2.0849849999999992
 50
0.00001
 51
89.999980000000008
  0
ARC
  5
7BD
  8
_________2
 62
     7
 10
76.348388
 20
51.245001999999992
 30
0.0
 40
2.1657860000000002
 50
92.117855000000034
 51
177.90105299999999
  0
ARC
  5
7BE
  8
_________2
 62
     7
 10
76.348354
 20
51.404327000000002
 30
0.0
 40
2.1657779999999991
 50
182.11700400000001
 51
267.88302499999998
  0
ARC
  5
7BF
  8
_________2
 62
     7
 10
76.188378999999983
 20
51.405009999999997
 30
0.0
 40
2.1664590000000001
 50
272.11546800000002
 51
357.86560400000002
  0
TEXT
  5
7C0
  8
_________2
 62
     7
 10
109.544
 20
23.199100000000001
 30
0.0
 40
3.0923400000000001
  1
図番
 41
0.5
  0
LINE
  5
7C1
  8
_________2
 62
     7
 10
108.489
 20
27.4283
 30
0.0
 11
188.49000000000001
 21
27.4283
 31
0.0
  0
TEXT
  5
7C2
  8
_________2
 62
     7
 10
109.544
 20
33.198900000000002
 30
0.0
 40
3.0923400000000001
  1
品番
 41
0.5
  0
TEXT
  5
7C3
  8
_________2
 62
     7
 10
109.544
 20
53.337699999999998
 30
0.0
 40
3.0923400000000001
  1
名称
 41
0.5
  0
TEXT
  5
7C4
  8
_________2
 62
     7
 10
96.784058333333334
 20
48.341500000000011
 30
0.0
 40
3.6545800000000002
  1
mm
 41
0.5
 72
     1
 11
98.306799999999996
 21
48.341500000000011
 31
0.0
  0
TEXT
  5
7C5
  8
_________2
 62
     7
 10
90.582099999999997
 20
53.337699999999998
 30
0.0
 40
3.0923400000000001
  1
単位
 41
0.5
  0
TEXT
  5
7C6
  8
_________2
 62
     7
 10
90.582099999999997
 20
40.930399999999999
 30
0.0
 40
3.0923400000000001
  1
尺度
 41
0.5
  0
TEXT
  5
7C7
  8
_________2
 62
     7
 10
95.487658666666675
 20
34.737499999999997
 30
0.0
 40
3.6545800000000002
  1
1 ： 4
 41
0.5
 72
     1
 11
98.898600000000002
 21
34.737499999999997
 31
0.0
  0
TEXT
  5
7C8
  8
_________2
 62
     7
 10
141.60152500000001
 20
30.627400000000002
 30
0.0
 40
3.9357000000000002
  1
図中の表参照
 41
0.5
 72
     1
 11
148.489
 21
30.627400000000002
 31
0.0
  0
TEXT
  5
7C9
  8
_________2
 62
     7
 10
141.60152500000001
 20
20.626999999999999
 30
0.0
 40
3.9357000000000002
  1
VLHV1ET
 41
0.5
 72
     1
 11
148.489
 21
20.626999999999999
 31
0.0
  0
LINE
  5
7CA
  8
_________2
 62
     7
 10
145.76900000000001
 20
280.43000000000001
 30
0.0
 11
145.76900000000001
 21
259.43000000000001
 31
0.0
  0
LINE
  5
7CB
  8
_________2
 62
     7
 10
170.12
 20
280.43000000000001
 30
0.0
 11
170.12
 21
259.43000000000001
 31
0.0
  0
TEXT
  5
7CC
  8
_________2
 62
     7
 10
174.19370733333329
 20
261.58100000000002
 30
0.0
 40
3.3734599999999988
  1
ステンレス
 41
0.5
 72
     1
 11
179.029
 21
261.58100000000002
 31
0.0
  0
TEXT
  5
7CD
  8
_________2
 62
     7
 10
176.10533466666669
 20
268.58100000000002
 30
0.0
 40
3.3734599999999988
  1
クロム
 41
0.5
 72
     1
 11
179.029
 21
268.58100000000002
 31
0.0
  0
TEXT
  5
7CE
  8
_________2
 62
     7
 10
177.22982133333329
 20
275.58100000000002
 30
0.0
 40
3.3734599999999988
  1
仕上
 41
0.5
 72
     1
 11
179.029
 21
275.58100000000002
 31
0.0
  0
TEXT
  5
7CF
  8
_________2
 62
     7
 10
149.4929108333333
 20
261.58100000000002
 30
0.0
 40
3.3734599999999988
  1
VLHV1ET-40
 41
0.5
 72
     1
 11
157.786
 21
261.58100000000002
 31
0.0
  0
TEXT
  5
7D0
  8
_________2
 62
     7
 10
149.63347166666659
 20
268.58100000000002
 30
0.0
 40
3.3734599999999988
  1
VLHV1ET-16
 41
0.5
 72
     1
 11
157.786
 21
268.58100000000002
 31
0.0
  0
TEXT
  5
7D1
  8
_________2
 62
     7
 10
155.9868213333333
 20
275.58100000000002
 30
0.0
 40
3.3734599999999988
  1
品番
 41
0.5
 72
     1
 11
157.786
 21
275.58100000000002
 31
0.0
  0
LINE
  5
7D2
  8
_________2
 62
     7
 10
145.76900000000001
 20
259.43000000000001
 30
0.0
 11
188.49000000000001
 21
259.43000000000001
 31
0.0
  0
LINE
  5
7D3
  8
_________2
 62
     7
 10
145.76900000000001
 20
266.43000000000001
 30
0.0
 11
188.49000000000001
 21
266.43000000000001
 31
0.0
  0
LINE
  5
7D4
  8
_________2
 62
     7
 10
145.76900000000001
 20
273.43000000000001
 30
0.0
 11
188.49000000000001
 21
273.43000000000001
 31
0.0
  0
TEXT
  5
7D5
  8
_________2
 62
     7
 10
23.272600000000001
 20
60.274000000000001
 30
0.0
 40
4.2168199999999993
  1
〈注意〉センサーがリムを感知して誤作動するため、セルフリミングタイプの洗面器にはセットできません。
 41
0.5
  0
TEXT
  5
7D6
  8
_________2
 62
     7
 10
32.070599999999999
 20
25.284700000000001
 30
0.0
 40
3.9357000000000002
  1
・電源：単3乾電池\U+00D72本、逆止弁付
 41
0.5
  0
TEXT
  5
7D7
  8
_________2
 62
     7
 10
32.070599999999999
 20
20.365100000000002
 30
0.0
 40
3.9357000000000002
  1
・（社）日本水道協会認証品
 41
0.5
  0
TEXT
  5
7D8
  8
_________2
 62
     7
 10
44.364200333333329
 20
35.122599999999998
 30
0.0
 40
3.6545800000000002
  1
早川
 41
0.5
 72
     1
 11
46.252400000000002
 21
35.122599999999998
 31
0.0
  0
TEXT
  5
7D9
  8
_________2
 62
     7
 10
25.729290666666671
 20
35.122599999999998
 30
0.0
 40
3.6545800000000002
  1
石原
 41
0.5
 72
     1
 11
27.6784
 21
35.122599999999998
 31
0.0
  0
TEXT
  5
7DA
  8
_________2
 62
     7
 10
72.724699999999999
 20
34.737499999999997
 30
0.0
 40
3.6545800000000002
  1
16.02.01
 41
0.5
  0
TEXT
  5
7DB
  8
_________2
 62
     7
 10
71.531999999999996
 20
40.930399999999999
 30
0.0
 40
3.0923400000000001
  1
日付
 41
0.5
  0
TEXT
  5
7DC
  8
_________2
 62
     7
 10
34.578299999999999
 20
40.930399999999999
 30
0.0
 40
3.0923400000000001
  1
検図
 41
0.5
  0
TEXT
  5
7DD
  8
_________2
 62
     7
 10
22.960000000000001
 20
26.731000000000002
 30
0.0
 40
3.0923400000000001
  1
備考
 41
0.5
  0
TEXT
  5
7DE
  8
_________2
 62
     7
 10
22.960000000000001
 20
40.930399999999999
 30
0.0
 40
3.0923400000000001
  1
製図
 41
0.5
  0
TEXT
  5
7DF
  8
_________2
 62
     7
 10
28.727365333333339
 20
49.456400000000002
 30
0.0
 40
4.4979399999999989
  1
セラトレーディング株式会社
 41
0.5
 72
     1
 11
46.119399999999992
 21
49.456400000000002
 31
0.0
  0
LINE
  5
7E0
  8
_________2
 62
     7
 10
188.49000000000001
 20
17.4285
 30
0.0
 11
21.988499999999998
 21
17.4285
 31
0.0
  0
LINE
  5
7E1
  8
_________2
 62
     7
 10
21.988499999999998
 20
17.4285
 30
0.0
 11
21.988499999999998
 21
280.43000000000001
 31
0.0
  0
LINE
  5
7E2
  8
_________2
 62
     7
 10
21.988499999999998
 20
280.43000000000001
 30
0.0
 11
188.49000000000001
 21
280.43000000000001
 31
0.0
  0
LINE
  5
7E3
  8
_________2
 62
     7
 10
188.49000000000001
 20
280.43000000000001
 30
0.0
 11
188.49000000000001
 21
17.4285
 31
0.0
  0
LINE
  5
7E4
  8
_________2
 62
     7
 10
70.488799999999998
 20
30.9285
 30
0.0
 11
70.488799999999998
 21
57.428400000000011
 31
0.0
  0
LINE
  5
7E5
  8
_________2
 62
     7
 10
89.488600000000005
 20
30.9285
 30
0.0
 11
89.488600000000005
 21
57.428400000000011
 31
0.0
  0
LINE
  5
7E6
  8
_________2
 62
     7
 10
108.489
 20
17.4285
 30
0.0
 11
108.489
 21
57.428400000000011
 31
0.0
  0
LINE
  5
7E7
  8
_________2
 62
     7
 10
33.488300000000002
 20
30.9285
 30
0.0
 11
33.488300000000002
 21
44.928800000000003
 31
0.0
  0
LINE
  5
7E8
  8
_________2
 62
     7
 10
21.988499999999998
 20
30.9285
 30
0.0
 11
108.489
 21
30.9285
 31
0.0
  0
LINE
  5
7E9
  8
_________2
 62
     7
 10
21.988499999999998
 20
44.928800000000003
 30
0.0
 11
108.489
 21
44.928800000000003
 31
0.0
  0
LINE
  5
7EA
  8
_________2
 62
     7
 10
108.489
 20
37.428100000000001
 30
0.0
 11
188.49000000000001
 21
37.428100000000001
 31
0.0
  0
LINE
  5
7EB
  8
_________2
 62
     7
 10
21.988499999999998
 20
57.428400000000011
 30
0.0
 11
188.49000000000001
 21
57.428400000000011
 31
0.0
  0
ENDSEC
  0
EOF
