  0
SECTION
  2
HEADER
  9
$ACADVER
  1
AC1009
  9
$INSBASE
 10
0.0
 20
0.0
 30
0.0
  9
$EXTMIN
 10
-4.70052
 20
-21.071400000000001
 30
0.0
  9
$EXTMAX
 10
205.30099999999999
 20
275.93099999999998
 30
0.0
  9
$LIMMIN
 10
0.0
 20
0.0
  9
$LIMMAX
 10
12.0
 20
9.0
  9
$ORTHOMODE
 70
     0
  9
$REGENMODE
 70
     1
  9
$FILLMODE
 70
     1
  9
$QTEXTMODE
 70
     0
  9
$MIRRTEXT
 70
     1
  9
$DRAGMODE
 70
     2
  9
$LTSCALE
 40
1.0
  9
$OSMODE
 70
    37
  9
$ATTMODE
 70
     1
  9
$TEXTSIZE
 40
0.0
  9
$TRACEWID
 40
0.05
  9
$TEXTSTYLE
  7
STANDARD
  9
$CLAYER
  8
0
  9
$CELTYPE
  6
CONTINUOUS
  9
$CECOLOR
 62
   256
  9
$DIMSCALE
 40
1.0
  9
$DIMASZ
 40
0.18
  9
$DIMEXO
 40
0.0625
  9
$DIMDLI
 40
0.38
  9
$DIMRND
 40
0.0
  9
$DIMDLE
 40
0.0
  9
$DIMEXE
 40
0.18
  9
$DIMTP
 40
0.0
  9
$DIMTM
 40
0.0
  9
$DIMTXT
 40
0.18
  9
$DIMCEN
 40
0.09
  9
$DIMTSZ
 40
0.0
  9
$DIMTOL
 70
     0
  9
$DIMLIM
 70
     0
  9
$DIMTIH
 70
     1
  9
$DIMTOH
 70
     1
  9
$DIMSE1
 70
     0
  9
$DIMSE2
 70
     0
  9
$DIMTAD
 70
     0
  9
$DIMZIN
 70
     0
  9
$DIMBLK
  1

  9
$DIMASO
 70
     1
  9
$DIMSHO
 70
     1
  9
$DIMPOST
  1

  9
$DIMAPOST
  1

  9
$DIMALT
 70
     0
  9
$DIMALTD
 70
     2
  9
$DIMALTF
 40
25.399999999999999
  9
$DIMLFAC
 40
1.0
  9
$DIMTOFL
 70
     0
  9
$DIMTVP
 40
0.0
  9
$DIMTIX
 70
     0
  9
$DIMSOXD
 70
     0
  9
$DIMSAH
 70
     0
  9
$DIMBLK1
  1

  9
$DIMBLK2
  1

  9
$DIMSTYLE
  2
STANDARD
  9
$DIMCLRD
 70
     0
  9
$DIMCLRE
 70
     0
  9
$DIMCLRT
 70
     0
  9
$DIMTFAC
 40
1.0
  9
$DIMGAP
 40
0.09
  9
$LUNITS
 70
     2
  9
$LUPREC
 70
     4
  9
$SKETCHINC
 40
0.1
  9
$FILLETRAD
 40
0.0
  9
$AUNITS
 70
     0
  9
$AUPREC
 70
     0
  9
$MENU
  1
.
  9
$ELEVATION
 40
0.0
  9
$PELEVATION
 40
0.0
  9
$THICKNESS
 40
0.0
  9
$LIMCHECK
 70
     0
  9
$BLIPMODE
 70
     0
  9
$CHAMFERA
 40
0.0
  9
$CHAMFERB
 40
0.0
  9
$SKPOLY
 70
     0
  9
$TDCREATE
 40
2444972.375
  9
$TDUPDATE
 40
2459329.332714757
  9
$TDINDWG
 40
0.0000333102
  9
$TDUSRTIMER
 40
0.0000333102
  9
$USRTIMER
 70
     1
  9
$ANGBASE
 50
0.0
  9
$ANGDIR
 70
     0
  9
$PDMODE
 70
     0
  9
$PDSIZE
 40
0.0
  9
$PLINEWID
 40
0.0
  9
$COORDS
 70
     1
  9
$SPLFRAME
 70
     0
  9
$SPLINETYPE
 70
     6
  9
$SPLINESEGS
 70
     8
  9
$ATTDIA
 70
     1
  9
$ATTREQ
 70
     1
  9
$HANDLING
 70
     1
  9
$HANDSEED
  5
5A4
  9
$SURFTAB1
 70
     6
  9
$SURFTAB2
 70
     6
  9
$SURFTYPE
 70
     6
  9
$SURFU
 70
     6
  9
$SURFV
 70
     6
  9
$UCSNAME
  2

  9
$UCSORG
 10
0.0
 20
0.0
 30
0.0
  9
$UCSXDIR
 10
1.0
 20
0.0
 30
0.0
  9
$UCSYDIR
 10
0.0
 20
1.0
 30
0.0
  9
$PUCSNAME
  2

  9
$PUCSORG
 10
0.0
 20
0.0
 30
0.0
  9
$PUCSXDIR
 10
1.0
 20
0.0
 30
0.0
  9
$PUCSYDIR
 10
0.0
 20
1.0
 30
0.0
  9
$USERI1
 70
     0
  9
$USERI2
 70
     0
  9
$USERI3
 70
     0
  9
$USERI4
 70
     0
  9
$USERI5
 70
     0
  9
$USERR1
 40
0.0
  9
$USERR2
 40
0.0
  9
$USERR3
 40
0.0
  9
$USERR4
 40
0.0
  9
$USERR5
 40
0.0
  9
$WORLDVIEW
 70
     1
  9
$SHADEDGE
 70
     3
  9
$SHADEDIF
 70
    70
  9
$TILEMODE
 70
     1
  9
$MAXACTVP
 70
    48
  9
$PLIMCHECK
 70
     0
  9
$PEXTMIN
 10
1.0000000000000000E+020
 20
1.0000000000000000E+020
 30
1.0000000000000000E+020
  9
$PEXTMAX
 10
-1.0000000000000000E+020
 20
-1.0000000000000000E+020
 30
-1.0000000000000000E+020
  9
$PLIMMIN
 10
0.0
 20
0.0
  9
$PLIMMAX
 10
12.0
 20
9.0
  9
$UNITMODE
 70
     0
  9
$VISRETAIN
 70
     1
  9
$PLINEGEN
 70
     0
  9
$PSLTSCALE
 70
     1
  0
ENDSEC
  0
SECTION
  2
TABLES
  0
TABLE
  2
VPORT
 70
     1
  0
VPORT
  2
*ACTIVE
 70
     0
 10
0.0
 20
0.0
 11
1.0
 21
1.0
 12
160.69134016008601
 22
127.4298
 13
0.0
 23
0.0
 14
1.0
 24
1.0
 15
0.0
 25
0.0
 16
0.0
 26
0.0
 36
1.0
 17
0.0
 27
0.0
 37
0.0
 40
279.0110506481771
 41
2.0982367758186391
 42
50.0
 43
0.0
 44
0.0
 50
0.0
 51
0.0
 71
     0
 72
   100
 73
     1
 74
     1
 75
     0
 76
     0
 77
     0
 78
     0
  0
ENDTAB
  0
TABLE
  2
LTYPE
 70
     3
  0
LTYPE
  2
CONTINUOUS
 70
     0
  3
Solid line
 72
    65
 73
     0
 40
0.0
  0
LTYPE
  2
AIGENLINE001
 70
     0
  3
generate AI->DXF Converter
 72
    65
 73
     4
 40
5.8561449999999988
 49
3.5278
 49
-0.776115
 49
0.776115
 49
-0.776115
  0
LTYPE
  2
AIGENLINE002
 70
     0
  3
generate AI->DXF Converter
 72
    65
 73
     6
 40
7.4083750000000004
 49
3.5278
 49
-0.776115
 49
0.776115
 49
-0.776115
 49
0.776115
 49
-0.776115
  0
ENDTAB
  0
TABLE
  2
LAYER
 70
     5
  0
LAYER
  2
0
 70
     0
 62
     7
  6
CONTINUOUS
  0
LAYER
  2
____
 70
     0
 62
     7
  6
CONTINUOUS
  0
LAYER
  2
_________4
 70
     0
 62
     7
  6
CONTINUOUS
  0
LAYER
  2
_________1
 70
     0
 62
     7
  6
CONTINUOUS
  0
LAYER
  2
_________2
 70
     0
 62
     7
  6
CONTINUOUS
  0
ENDTAB
  0
TABLE
  2
STYLE
 70
     1
  0
STYLE
  2
STANDARD
 70
     0
 40
0.0
 41
0.0
 50
0.0
 71
     0
 42
0.0
  3
TXT
  4
EXTFONT.SHX
  0
ENDTAB
  0
TABLE
  2
VIEW
 70
     0
  0
ENDTAB
  0
TABLE
  2
UCS
 70
     0
  0
ENDTAB
  0
TABLE
  2
APPID
 70
     3
  0
APPID
  2
ACAD
 70
     0
  0
APPID
  2
ACAD_NAV_VCDISPLAY
 70
     0
  0
APPID
  2
ACAD_MLEADERVER
 70
     0
  0
ENDTAB
  0
TABLE
  2
DIMSTYLE
 70
     1
  0
DIMSTYLE
  2
STANDARD
 70
     0
  3

  4

  5

  6

  7

 40
1.0
 41
0.18
 42
0.0625
 43
0.38
 44
0.18
 45
0.0
 46
0.0
 47
0.0
 48
0.0
140
0.18
141
0.09
142
0.0
143
25.399999999999999
144
1.0
145
0.0
146
1.0
147
0.09
 71
     0
 72
     0
 73
     1
 74
     1
 75
     0
 76
     0
 77
     0
 78
     0
170
     0
171
     2
172
     0
173
     0
174
     0
175
     0
176
     0
177
     0
178
     0
  0
ENDTAB
  0
ENDSEC
  0
SECTION
  2
BLOCKS
  0
BLOCK
  8
0
  2
$MODEL_SPACE
 70
     0
 10
0.0
 20
0.0
 30
0.0
  3
$MODEL_SPACE
  1

  0
ENDBLK
  5
1A
  8
0
  0
BLOCK
 67
     1
  8
0
  2
$PAPER_SPACE
 70
     0
 10
0.0
 20
0.0
 30
0.0
  3
$PAPER_SPACE
  1

  0
ENDBLK
  5
17
 67
     1
  8
0
  0
BLOCK
  8
_________1
  2
AIGNBL03030017
 70
     0
 10
0.0
 20
0.0
 30
0.0
  3
AIGNBL03030017
  1

  0
LINE
  5
28
  8
_________1
 62
     7
 10
67.1708
 20
83.336699999999993
 30
0.0
 11
64.960400000000007
 21
82.744100000000003
 31
0.0
  0
LINE
  5
29
  8
_________1
 62
     7
 10
64.960400000000007
 20
82.744100000000003
 30
0.0
 11
67.1708
 21
82.152299999999997
 31
0.0
  0
LINE
  5
2A
  8
_________1
 62
     7
 10
67.1708
 20
82.152299999999997
 30
0.0
 11
67.1708
 21
83.336699999999993
 31
0.0
  0
LINE
  5
2B
  8
_________1
 62
     7
 10
60.250100000000003
 20
82.166700000000006
 30
0.0
 11
62.460700000000003
 21
82.758599999999987
 31
0.0
  0
LINE
  5
2C
  8
_________1
 62
     7
 10
62.460700000000003
 20
82.758599999999987
 30
0.0
 11
60.250100000000003
 21
83.351200000000006
 31
0.0
  0
LINE
  5
2D
  8
_________1
 62
     7
 10
60.250100000000003
 20
83.351200000000006
 30
0.0
 11
60.250100000000003
 21
82.166700000000006
 31
0.0
  0
LINE
  5
2E
  8
_________1
 62
     7
 10
54.704999999999998
 20
82.744100000000003
 30
0.0
 11
68.880300000000005
 21
82.744100000000003
 31
0.0
  0
ENDBLK
  5
2F
  8
_________1
  0
BLOCK
  8
_________1
  2
AIGNBL0303002B
 70
     0
 10
0.0
 20
0.0
 30
0.0
  3
AIGNBL0303002B
  1

  0
LINE
  5
32
  8
_________1
 62
     7
 10
126.35299999999999
 20
164.69300000000001
 30
0.0
 11
124.142
 21
164.101
 31
0.0
  0
LINE
  5
33
  8
_________1
 62
     7
 10
124.142
 20
164.101
 30
0.0
 11
126.35299999999999
 21
163.50800000000001
 31
0.0
  0
LINE
  5
34
  8
_________1
 62
     7
 10
126.35299999999999
 20
163.50800000000001
 30
0.0
 11
126.35299999999999
 21
164.69300000000001
 31
0.0
  0
LINE
  5
35
  8
_________1
 62
     7
 10
129.40299999999999
 20
163.523
 30
0.0
 11
131.614
 21
164.11500000000001
 31
0.0
  0
LINE
  5
36
  8
_________1
 62
     7
 10
131.614
 20
164.11500000000001
 30
0.0
 11
129.40299999999999
 21
164.708
 31
0.0
  0
LINE
  5
37
  8
_________1
 62
     7
 10
129.40299999999999
 20
164.708
 30
0.0
 11
129.40299999999999
 21
163.523
 31
0.0
  0
LINE
  5
38
  8
_________1
 62
     7
 10
124.142
 20
164.101
 30
0.0
 11
131.61500000000001
 21
164.101
 31
0.0
  0
ENDBLK
  5
39
  8
_________1
  0
BLOCK
  8
_________4
  2
AIGNBL02020003
 70
     0
 10
0.0
 20
0.0
 30
0.0
  3
AIGNBL02020003
  1

  0
ARC
  5
3C
  8
_________4
 62
     7
 10
67.600122999999996
 20
125.187015
 30
0.0
 40
1.064263999999999
 50
240.313177
 51
269.92409300000003
  0
ARC
  5
3D
  8
_________4
 62
     7
 10
67.424309999999991
 20
124.84525499999999
 30
0.0
 40
0.6804899999999999
 50
212.29017200000001
 51
238.92186899999999
  0
ARC
  5
3E
  8
_________4
 62
     7
 10
67.597301000000002
 20
125.187551
 30
0.0
 40
1.0647999999999991
 50
270.07599399999998
 51
299.67920400000003
  0
ARC
  5
3F
  8
_________4
 62
     7
 10
67.774119999999996
 20
124.844007
 30
0.0
 40
0.678974
 50
301.07012099999997
 51
327.75368300000008
  0
ARC
  5
40
  8
_________4
 62
     7
 10
67.597301000000002
 20
123.775915
 30
0.0
 40
1.0647999999999991
 50
60.320795999999987
 51
89.924006000000006
  0
ARC
  5
41
  8
_________4
 62
     7
 10
67.774119999999996
 20
124.11946
 30
0.0
 40
0.678974
 50
32.246316999999998
 51
58.929879000000007
  0
ARC
  5
42
  8
_________4
 62
     7
 10
67.600122999999996
 20
123.77645099999999
 30
0.0
 40
1.064263999999999
 50
90.075906999999987
 51
119.686823
  0
ARC
  5
43
  8
_________4
 62
     7
 10
67.424309999999991
 20
124.118211
 30
0.0
 40
0.6804899999999999
 50
121.0781309999999
 51
147.70982799999999
  0
ARC
  5
44
  8
_________4
 62
     7
 10
66.097298999999992
 20
123.775091
 30
0.0
 40
1.065625
 50
60.332545000000003
 51
89.924186999999989
  0
ARC
  5
45
  8
_________4
 62
     7
 10
66.272661999999997
 20
124.11651999999999
 30
0.0
 40
0.6823560000000001
 50
32.359071999999998
 51
58.936844999999998
  0
ARC
  5
46
  8
_________4
 62
     7
 10
66.100118999999992
 20
123.77645099999999
 30
0.0
 40
1.064263999999999
 50
90.075906999999987
 51
119.686823
  0
ARC
  5
47
  8
_________4
 62
     7
 10
65.924306000000001
 20
124.118211
 30
0.0
 40
0.6804899999999999
 50
121.0781309999999
 51
147.70982799999999
  0
ARC
  5
48
  8
_________4
 62
     7
 10
66.097988000000001
 20
125.628546
 30
0.0
 40
1.064263999999999
 50
60.313157999999987
 51
89.924072999999993
  0
ARC
  5
49
  8
_________4
 62
     7
 10
66.273801000000006
 20
125.97030599999999
 30
0.0
 40
0.6804899999999999
 50
32.290152999999997
 51
58.921849000000009
  0
ARC
  5
4A
  8
_________4
 62
     7
 10
66.100813000000002
 20
125.627289
 30
0.0
 40
1.0655209999999991
 50
90.076064999999986
 51
119.668908
  0
ARC
  5
4B
  8
_________4
 62
     7
 10
65.923727999999997
 20
125.971222
 30
0.0
 40
0.6792200000000001
 50
121.050224
 51
147.73360500000001
  0
ARC
  5
4C
  8
_________4
 62
     7
 10
66.100813000000002
 20
127.040367
 30
0.0
 40
1.0655209999999991
 50
240.33109200000001
 51
269.92393499999997
  0
ARC
  5
4D
  8
_________4
 62
     7
 10
65.923727999999997
 20
126.696434
 30
0.0
 40
0.6792200000000001
 50
212.26639499999999
 51
238.94977600000001
  0
ARC
  5
4E
  8
_________4
 62
     7
 10
66.097988000000001
 20
127.03910999999999
 30
0.0
 40
1.064263999999999
 50
270.07592699999998
 51
299.68684200000001
  0
ARC
  5
4F
  8
_________4
 62
     7
 10
66.273801000000006
 20
126.697351
 30
0.0
 40
0.6804899999999999
 50
301.07815099999999
 51
327.70984700000008
  0
ARC
  5
50
  8
_________4
 62
     7
 10
67.600467000000009
 20
127.040285
 30
0.0
 40
1.065439
 50
240.32992400000001
 51
269.92423000000002
  0
ARC
  5
51
  8
_________4
 62
     7
 10
67.424215000000004
 20
126.697306
 30
0.0
 40
0.6803860000000001
 50
212.29124200000001
 51
238.929059
  0
ARC
  5
52
  8
_________4
 62
     7
 10
67.597645
 20
127.03983100000001
 30
0.0
 40
1.0649850000000001
 50
270.07601799999998
 51
299.67656099999999
  0
ARC
  5
53
  8
_________4
 62
     7
 10
67.773724000000001
 20
126.697683
 30
0.0
 40
0.6807350000000002
 50
301.058269
 51
327.68982
  0
LINE
  5
54
  8
_________4
 62
     7
 10
68.0989
 20
93.062299999999993
 30
0.0
 11
65.599199999999996
 21
93.062299999999993
 31
0.0
  0
LINE
  5
55
  8
_________4
 62
     7
 10
68.0989
 20
90.561800000000005
 30
0.0
 11
65.599199999999996
 21
90.561800000000005
 31
0.0
  0
LINE
  5
56
  8
_________4
 62
     7
 10
65.555800000000005
 20
102.15300000000001
 30
0.0
 11
66.849100000000007
 21
102.15300000000001
 31
0.0
  0
LINE
  5
57
  8
_________4
 62
     7
 10
66.357799999999997
 20
100.19
 30
0.0
 11
66.357799999999997
 21
97.963999999999999
 31
0.0
  0
LINE
  5
58
  8
_________4
 62
     7
 10
65.967100000000002
 20
100.19
 30
0.0
 11
65.967100000000002
 21
97.963999999999999
 31
0.0
  0
LINE
  5
59
  8
_________4
 62
     7
 10
65.967100000000002
 20
100.19
 30
0.0
 11
65.277000000000001
 21
100.19
 31
0.0
  0
LINE
  5
5A
  8
_________4
 62
     7
 10
66.849100000000007
 20
100.19
 30
0.0
 11
66.357799999999997
 21
100.19
 31
0.0
  0
LINE
  5
5B
  8
_________4
 62
     7
 10
65.967100000000002
 20
97.963999999999999
 30
0.0
 11
65.277000000000001
 21
97.963999999999999
 31
0.0
  0
LINE
  5
5C
  8
_________4
 62
     7
 10
66.849100000000007
 20
97.963999999999999
 30
0.0
 11
66.357799999999997
 21
97.963999999999999
 31
0.0
  0
LINE
  5
5D
  8
_________4
 62
     7
 10
65.599199999999996
 20
90.561800000000005
 30
0.0
 11
65.599199999999996
 21
97.062000000000026
 31
0.0
  0
LINE
  5
5E
  8
_________4
 62
     7
 10
66.849100000000007
 20
97.062000000000026
 30
0.0
 11
65.277000000000001
 21
97.062000000000026
 31
0.0
  0
LINE
  5
5F
  8
_________4
 62
     7
 10
68.694299999999998
 20
102.15300000000001
 30
0.0
 11
68.694299999999998
 21
100.464
 31
0.0
  0
LINE
  5
60
  8
_________4
 62
     7
 10
68.694299999999998
 20
102.15300000000001
 30
0.0
 11
66.849100000000007
 21
102.15300000000001
 31
0.0
  0
LINE
  5
61
  8
_________4
 62
     7
 10
68.421099999999996
 20
100.19
 30
0.0
 11
68.421099999999996
 21
97.963999999999999
 31
0.0
  0
LINE
  5
62
  8
_________4
 62
     7
 10
68.421099999999996
 20
100.19
 30
0.0
 11
68.694299999999998
 21
100.464
 31
0.0
  0
LINE
  5
63
  8
_________4
 62
     7
 10
67.340299999999999
 20
100.19
 30
0.0
 11
67.340299999999999
 21
97.963999999999999
 31
0.0
  0
LINE
  5
64
  8
_________4
 62
     7
 10
67.731000000000009
 20
100.19
 30
0.0
 11
67.731000000000009
 21
97.963999999999999
 31
0.0
  0
LINE
  5
65
  8
_________4
 62
     7
 10
67.731000000000009
 20
100.19
 30
0.0
 11
68.421099999999996
 21
100.19
 31
0.0
  0
LINE
  5
66
  8
_________4
 62
     7
 10
66.849100000000007
 20
100.19
 30
0.0
 11
67.340299999999999
 21
100.19
 31
0.0
  0
ARC
  5
67
  8
_________4
 62
     7
 10
68.404082999999986
 20
97.496043999999998
 30
0.0
 40
0.46824
 50
2.03437
 51
87.921865999999994
  0
ARC
  5
68
  8
_________4
 62
     7
 10
68.404068999999993
 20
97.530017000000001
 30
0.0
 40
0.4682810000000001
 50
272.07970699999998
 51
357.8765150000001
  0
LINE
  5
69
  8
_________4
 62
     7
 10
67.731000000000009
 20
97.963999999999999
 30
0.0
 11
68.421099999999996
 21
97.963999999999999
 31
0.0
  0
LINE
  5
6A
  8
_________4
 62
     7
 10
66.849100000000007
 20
97.963999999999999
 30
0.0
 11
67.340299999999999
 21
97.963999999999999
 31
0.0
  0
LINE
  5
6B
  8
_________4
 62
     7
 10
68.0989
 20
90.561800000000005
 30
0.0
 11
68.0989
 21
97.062000000000026
 31
0.0
  0
LINE
  5
6C
  8
_________4
 62
     7
 10
66.849100000000007
 20
97.062000000000026
 30
0.0
 11
68.421099999999996
 21
97.062000000000026
 31
0.0
  0
LINE
  5
6D
  8
_________4
 62
     7
 10
68.349100000000007
 20
102.15300000000001
 30
0.0
 11
68.349100000000007
 21
124.482
 31
0.0
  0
LINE
  5
6E
  8
_________4
 62
     7
 10
65.349100000000007
 20
102.15300000000001
 30
0.0
 11
65.349100000000007
 21
124.482
 31
0.0
  0
ENDBLK
  5
6F
  8
_________4
  0
BLOCK
  8
_________1
  2
AIGNBL03020004
 70
     0
 10
0.0
 20
0.0
 30
0.0
  3
AIGNBL03020004
  1

  0
LINE
  5
72
  8
_________1
 62
     7
 10
110.508
 20
175.63
 30
0.0
 11
109.916
 21
177.84
 31
0.0
  0
LINE
  5
73
  8
_________1
 62
     7
 10
109.916
 20
177.84
 30
0.0
 11
109.324
 21
175.63
 31
0.0
  0
LINE
  5
74
  8
_________1
 62
     7
 10
109.324
 20
175.63
 30
0.0
 11
110.508
 21
175.63
 31
0.0
  0
LINE
  5
75
  8
_________1
 62
     7
 10
109.33799999999999
 20
172.869
 30
0.0
 11
109.931
 21
170.65799999999999
 31
0.0
  0
LINE
  5
76
  8
_________1
 62
     7
 10
109.931
 20
170.65799999999999
 30
0.0
 11
110.523
 21
172.869
 31
0.0
  0
LINE
  5
77
  8
_________1
 62
     7
 10
110.523
 20
172.869
 30
0.0
 11
109.33799999999999
 21
172.869
 31
0.0
  0
LINE
  5
78
  8
_________1
 62
     7
 10
109.916
 20
177.84100000000001
 30
0.0
 11
109.916
 21
170.65700000000001
 31
0.0
  0
ENDBLK
  5
79
  8
_________1
  0
BLOCK
  8
_________1
  2
AIGNBL03020006
 70
     0
 10
0.0
 20
0.0
 30
0.0
  3
AIGNBL03020006
  1

  0
LINE
  5
7C
  8
_________1
 62
     7
 10
90.944900000000004
 20
176.90700000000001
 30
0.0
 11
90.352699999999999
 21
179.11699999999999
 31
0.0
  0
LINE
  5
7D
  8
_________1
 62
     7
 10
90.352699999999999
 20
179.11699999999999
 30
0.0
 11
89.760499999999979
 21
176.90700000000001
 31
0.0
  0
LINE
  5
7E
  8
_________1
 62
     7
 10
89.760499999999979
 20
176.90700000000001
 30
0.0
 11
90.944900000000004
 21
176.90700000000001
 31
0.0
  0
LINE
  5
7F
  8
_________1
 62
     7
 10
89.774900000000017
 20
172.869
 30
0.0
 11
90.367099999999994
 21
170.65799999999999
 31
0.0
  0
LINE
  5
80
  8
_________1
 62
     7
 10
90.367099999999994
 20
170.65799999999999
 30
0.0
 11
90.959400000000002
 21
172.869
 31
0.0
  0
LINE
  5
81
  8
_________1
 62
     7
 10
90.959400000000002
 20
172.869
 30
0.0
 11
89.774900000000017
 21
172.869
 31
0.0
  0
LINE
  5
82
  8
_________1
 62
     7
 10
90.352699999999999
 20
179.11799999999999
 30
0.0
 11
90.352699999999999
 21
170.65700000000001
 31
0.0
  0
ENDBLK
  5
83
  8
_________1
  0
BLOCK
  8
_________1
  2
AIGNBL03020009
 70
     0
 10
0.0
 20
0.0
 30
0.0
  3
AIGNBL03020009
  1

  0
LINE
  5
86
  8
_________1
 62
     7
 10
109.33799999999999
 20
172.869
 30
0.0
 11
109.931
 21
170.65799999999999
 31
0.0
  0
LINE
  5
87
  8
_________1
 62
     7
 10
109.931
 20
170.65799999999999
 30
0.0
 11
110.523
 21
172.869
 31
0.0
  0
LINE
  5
88
  8
_________1
 62
     7
 10
110.523
 20
172.869
 30
0.0
 11
109.33799999999999
 21
172.869
 31
0.0
  0
ENDBLK
  5
89
  8
_________1
  0
BLOCK
  8
_________1
  2
AIGNBL0302000B
 70
     0
 10
0.0
 20
0.0
 30
0.0
  3
AIGNBL0302000B
  1

  0
LINE
  5
8C
  8
_________1
 62
     7
 10
89.774900000000017
 20
172.869
 30
0.0
 11
90.367099999999994
 21
170.65799999999999
 31
0.0
  0
LINE
  5
8D
  8
_________1
 62
     7
 10
90.367099999999994
 20
170.65799999999999
 30
0.0
 11
90.959400000000002
 21
172.869
 31
0.0
  0
LINE
  5
8E
  8
_________1
 62
     7
 10
90.959400000000002
 20
172.869
 30
0.0
 11
89.774900000000017
 21
172.869
 31
0.0
  0
ENDBLK
  5
8F
  8
_________1
  0
BLOCK
  8
_________1
  2
AIGNBL0302000D
 70
     0
 10
0.0
 20
0.0
 30
0.0
  3
AIGNBL0302000D
  1

  0
LINE
  5
92
  8
_________1
 62
     7
 10
125.062
 20
181.21600000000001
 30
0.0
 11
122.851
 21
180.624
 31
0.0
  0
LINE
  5
93
  8
_________1
 62
     7
 10
122.851
 20
180.624
 30
0.0
 11
125.062
 21
180.03200000000001
 31
0.0
  0
LINE
  5
94
  8
_________1
 62
     7
 10
125.062
 20
180.03200000000001
 30
0.0
 11
125.062
 21
181.21600000000001
 31
0.0
  0
LINE
  5
95
  8
_________1
 62
     7
 10
135.06100000000001
 20
181.21600000000001
 30
0.0
 11
132.851
 21
180.624
 31
0.0
  0
LINE
  5
96
  8
_________1
 62
     7
 10
132.851
 20
180.624
 30
0.0
 11
135.06100000000001
 21
180.03200000000001
 31
0.0
  0
LINE
  5
97
  8
_________1
 62
     7
 10
135.06100000000001
 20
180.03200000000001
 30
0.0
 11
135.06100000000001
 21
181.21600000000001
 31
0.0
  0
LINE
  5
98
  8
_________1
 62
     7
 10
130.63999999999999
 20
180.03200000000001
 30
0.0
 11
132.851
 21
180.624
 31
0.0
  0
LINE
  5
99
  8
_________1
 62
     7
 10
132.851
 20
180.624
 30
0.0
 11
130.63999999999999
 21
181.21700000000001
 31
0.0
  0
LINE
  5
9A
  8
_________1
 62
     7
 10
130.63999999999999
 20
181.21700000000001
 30
0.0
 11
130.63999999999999
 21
180.03200000000001
 31
0.0
  0
LINE
  5
9B
  8
_________1
 62
     7
 10
135.88900000000001
 20
180.03200000000001
 30
0.0
 11
138.09999999999999
 21
180.624
 31
0.0
  0
LINE
  5
9C
  8
_________1
 62
     7
 10
138.09999999999999
 20
180.624
 30
0.0
 11
135.88900000000001
 21
181.21700000000001
 31
0.0
  0
LINE
  5
9D
  8
_________1
 62
     7
 10
135.88900000000001
 20
181.21700000000001
 30
0.0
 11
135.88900000000001
 21
180.03200000000001
 31
0.0
  0
LINE
  5
9E
  8
_________1
 62
     7
 10
122.851
 20
180.624
 30
0.0
 11
138.09999999999999
 21
180.624
 31
0.0
  0
ENDBLK
  5
9F
  8
_________1
  0
BLOCK
  8
_________1
  2
AIGNBL03020011
 70
     0
 10
0.0
 20
0.0
 30
0.0
  3
AIGNBL03020011
  1

  0
LINE
  5
A2
  8
_________1
 62
     7
 10
126.88800000000001
 20
111.672
 30
0.0
 11
129.09899999999999
 21
112.264
 31
0.0
  0
LINE
  5
A3
  8
_________1
 62
     7
 10
129.09899999999999
 20
112.264
 30
0.0
 11
126.88800000000001
 21
112.857
 31
0.0
  0
LINE
  5
A4
  8
_________1
 62
     7
 10
126.88800000000001
 20
112.857
 30
0.0
 11
126.88800000000001
 21
111.672
 31
0.0
  0
LINE
  5
A5
  8
_________1
 62
     7
 10
132.81
 20
112.857
 30
0.0
 11
130.59899999999999
 21
112.264
 31
0.0
  0
LINE
  5
A6
  8
_________1
 62
     7
 10
130.59899999999999
 20
112.264
 30
0.0
 11
132.81
 21
111.672
 31
0.0
  0
LINE
  5
A7
  8
_________1
 62
     7
 10
132.81
 20
111.672
 30
0.0
 11
132.81
 21
112.857
 31
0.0
  0
LINE
  5
A8
  8
_________1
 62
     7
 10
136.892
 20
112.264
 30
0.0
 11
125.857
 21
112.264
 31
0.0
  0
ENDBLK
  5
A9
  8
_________1
  0
BLOCK
  8
_________1
  2
AIGNBL03020014
 70
     0
 10
0.0
 20
0.0
 30
0.0
  3
AIGNBL03020014
  1

  0
ARC
  5
AC
  8
_________1
 62
     7
 10
64.461620999999994
 20
125.187015
 30
0.0
 40
1.064263999999999
 50
240.313177
 51
269.92409300000003
  0
ARC
  5
AD
  8
_________1
 62
     7
 10
64.285807999999975
 20
124.84525499999999
 30
0.0
 40
0.6804899999999999
 50
212.29017200000001
 51
238.92186899999999
  0
ARC
  5
AE
  8
_________1
 62
     7
 10
64.458798999999999
 20
125.187551
 30
0.0
 40
1.0647999999999991
 50
270.07599399999998
 51
299.67920400000003
  0
ARC
  5
AF
  8
_________1
 62
     7
 10
64.635617999999994
 20
124.844007
 30
0.0
 40
0.678974
 50
301.07012099999997
 51
327.75368300000008
  0
ARC
  5
B0
  8
_________1
 62
     7
 10
64.458798999999999
 20
123.775915
 30
0.0
 40
1.0647999999999991
 50
60.320795999999987
 51
89.924006000000006
  0
ARC
  5
B1
  8
_________1
 62
     7
 10
64.635617999999994
 20
124.11946
 30
0.0
 40
0.678974
 50
32.246316999999998
 51
58.929879000000007
  0
ARC
  5
B2
  8
_________1
 62
     7
 10
64.461620999999994
 20
123.77645099999999
 30
0.0
 40
1.064263999999999
 50
90.075906999999987
 51
119.686823
  0
ARC
  5
B3
  8
_________1
 62
     7
 10
64.285807999999975
 20
124.118211
 30
0.0
 40
0.6804899999999999
 50
121.0781309999999
 51
147.70982799999999
  0
ARC
  5
B4
  8
_________1
 62
     7
 10
62.958796999999997
 20
123.775091
 30
0.0
 40
1.065625
 50
60.332545000000003
 51
89.924186999999989
  0
ARC
  5
B5
  8
_________1
 62
     7
 10
63.134160000000001
 20
124.11651999999999
 30
0.0
 40
0.6823560000000001
 50
32.359071999999998
 51
58.936844999999998
  0
ARC
  5
B6
  8
_________1
 62
     7
 10
62.961616999999997
 20
123.77645099999999
 30
0.0
 40
1.064263999999999
 50
90.075906999999987
 51
119.686823
  0
ARC
  5
B7
  8
_________1
 62
     7
 10
62.785803999999999
 20
124.118211
 30
0.0
 40
0.6804899999999999
 50
121.0781309999999
 51
147.70982799999999
  0
ARC
  5
B8
  8
_________1
 62
     7
 10
62.959485999999998
 20
125.628546
 30
0.0
 40
1.064263999999999
 50
60.313157999999987
 51
89.924072999999993
  0
ARC
  5
B9
  8
_________1
 62
     7
 10
63.135298999999989
 20
125.97030599999999
 30
0.0
 40
0.6804899999999999
 50
32.290152999999997
 51
58.921849000000009
  0
ARC
  5
BA
  8
_________1
 62
     7
 10
62.962310999999993
 20
125.627289
 30
0.0
 40
1.0655209999999991
 50
90.076064999999986
 51
119.668908
  0
ARC
  5
BB
  8
_________1
 62
     7
 10
62.785226000000002
 20
125.971222
 30
0.0
 40
0.6792200000000001
 50
121.050224
 51
147.73360500000001
  0
ARC
  5
BC
  8
_________1
 62
     7
 10
62.962310999999993
 20
127.040367
 30
0.0
 40
1.0655209999999991
 50
240.33109200000001
 51
269.92393499999997
  0
ARC
  5
BD
  8
_________1
 62
     7
 10
62.785226000000002
 20
126.696434
 30
0.0
 40
0.6792200000000001
 50
212.26639499999999
 51
238.94977600000001
  0
ARC
  5
BE
  8
_________1
 62
     7
 10
62.959485999999998
 20
127.03910999999999
 30
0.0
 40
1.064263999999999
 50
270.07592699999998
 51
299.68684200000001
  0
ARC
  5
BF
  8
_________1
 62
     7
 10
63.135298999999989
 20
126.697351
 30
0.0
 40
0.6804899999999999
 50
301.07815099999999
 51
327.70984700000008
  0
ARC
  5
C0
  8
_________1
 62
     7
 10
64.461965000000006
 20
127.040285
 30
0.0
 40
1.065439
 50
240.32992400000001
 51
269.92423000000002
  0
ARC
  5
C1
  8
_________1
 62
     7
 10
64.285713999999999
 20
126.697306
 30
0.0
 40
0.6803860000000001
 50
212.29124200000001
 51
238.929059
  0
ARC
  5
C2
  8
_________1
 62
     7
 10
64.459143000000012
 20
127.03983100000001
 30
0.0
 40
1.0649850000000001
 50
270.07601799999998
 51
299.67656099999999
  0
ARC
  5
C3
  8
_________1
 62
     7
 10
64.635222999999996
 20
126.697683
 30
0.0
 40
0.6807350000000002
 50
301.058269
 51
327.68982
  0
LINE
  5
C4
  8
_________1
 62
     7
 10
64.960400000000007
 20
93.062299999999993
 30
0.0
 11
62.460700000000003
 21
93.062299999999993
 31
0.0
  0
LINE
  5
C5
  8
_________1
 62
     7
 10
64.960400000000007
 20
90.561800000000005
 30
0.0
 11
62.460700000000003
 21
90.561800000000005
 31
0.0
  0
LINE
  5
C6
  8
_________1
 62
     7
 10
61.865000000000002
 20
102.15300000000001
 30
0.0
 11
61.865000000000002
 21
100.464
 31
0.0
  0
LINE
  5
C7
  8
_________1
 62
     7
 10
61.865000000000002
 20
102.15300000000001
 30
0.0
 11
63.710599999999992
 21
102.15300000000001
 31
0.0
  0
LINE
  5
C8
  8
_________1
 62
     7
 10
62.138500000000001
 20
100.19
 30
0.0
 11
62.138500000000001
 21
97.963999999999999
 31
0.0
  0
LINE
  5
C9
  8
_________1
 62
     7
 10
62.138500000000001
 20
100.19
 30
0.0
 11
61.865000000000002
 21
100.464
 31
0.0
  0
LINE
  5
CA
  8
_________1
 62
     7
 10
63.219299999999997
 20
100.19
 30
0.0
 11
63.219299999999997
 21
97.963999999999999
 31
0.0
  0
LINE
  5
CB
  8
_________1
 62
     7
 10
62.828600000000002
 20
100.19
 30
0.0
 11
62.828600000000002
 21
97.963999999999999
 31
0.0
  0
LINE
  5
CC
  8
_________1
 62
     7
 10
62.828600000000002
 20
100.19
 30
0.0
 11
62.138500000000001
 21
100.19
 31
0.0
  0
LINE
  5
CD
  8
_________1
 62
     7
 10
63.710599999999992
 20
100.19
 30
0.0
 11
63.219299999999997
 21
100.19
 31
0.0
  0
ARC
  5
CE
  8
_________1
 62
     7
 10
62.155468000000013
 20
97.529944999999984
 30
0.0
 40
0.4682060000000001
 50
182.11494500000001
 51
267.92887200000001
  0
ARC
  5
CF
  8
_________1
 62
     7
 10
62.156228000000013
 20
97.495343000000005
 30
0.0
 40
0.4689670000000001
 50
92.160663999999997
 51
177.88306
  0
LINE
  5
D0
  8
_________1
 62
     7
 10
62.828600000000002
 20
97.963999999999999
 30
0.0
 11
62.138500000000001
 21
97.963999999999999
 31
0.0
  0
LINE
  5
D1
  8
_________1
 62
     7
 10
63.710599999999992
 20
97.963999999999999
 30
0.0
 11
63.219299999999997
 21
97.963999999999999
 31
0.0
  0
LINE
  5
D2
  8
_________1
 62
     7
 10
62.460700000000003
 20
90.561800000000005
 30
0.0
 11
62.460700000000003
 21
97.062000000000026
 31
0.0
  0
LINE
  5
D3
  8
_________1
 62
     7
 10
63.710599999999992
 20
97.062000000000026
 30
0.0
 11
62.138500000000001
 21
97.062000000000026
 31
0.0
  0
LINE
  5
D4
  8
_________1
 62
     7
 10
65.555800000000005
 20
102.15300000000001
 30
0.0
 11
65.555800000000005
 21
100.464
 31
0.0
  0
LINE
  5
D5
  8
_________1
 62
     7
 10
65.555800000000005
 20
102.15300000000001
 30
0.0
 11
63.710599999999992
 21
102.15300000000001
 31
0.0
  0
LINE
  5
D6
  8
_________1
 62
     7
 10
65.282600000000002
 20
100.19
 30
0.0
 11
65.282600000000002
 21
97.963999999999999
 31
0.0
  0
LINE
  5
D7
  8
_________1
 62
     7
 10
65.282600000000002
 20
100.19
 30
0.0
 11
65.555800000000005
 21
100.464
 31
0.0
  0
LINE
  5
D8
  8
_________1
 62
     7
 10
64.201800000000006
 20
100.19
 30
0.0
 11
64.201800000000006
 21
97.963999999999999
 31
0.0
  0
LINE
  5
D9
  8
_________1
 62
     7
 10
64.592500000000001
 20
100.19
 30
0.0
 11
64.592500000000001
 21
97.963999999999999
 31
0.0
  0
LINE
  5
DA
  8
_________1
 62
     7
 10
64.592500000000001
 20
100.19
 30
0.0
 11
65.282600000000002
 21
100.19
 31
0.0
  0
LINE
  5
DB
  8
_________1
 62
     7
 10
63.710599999999992
 20
100.19
 30
0.0
 11
64.201800000000006
 21
100.19
 31
0.0
  0
ARC
  5
DC
  8
_________1
 62
     7
 10
65.265581000000012
 20
97.496043999999998
 30
0.0
 40
0.46824
 50
2.03437
 51
87.921865999999994
  0
ARC
  5
DD
  8
_________1
 62
     7
 10
65.265567000000004
 20
97.530017000000001
 30
0.0
 40
0.4682810000000001
 50
272.07970699999998
 51
357.8765150000001
  0
LINE
  5
DE
  8
_________1
 62
     7
 10
64.592500000000001
 20
97.963999999999999
 30
0.0
 11
65.282600000000002
 21
97.963999999999999
 31
0.0
  0
LINE
  5
DF
  8
_________1
 62
     7
 10
63.710599999999992
 20
97.963999999999999
 30
0.0
 11
64.201800000000006
 21
97.963999999999999
 31
0.0
  0
LINE
  5
E0
  8
_________1
 62
     7
 10
64.960400000000007
 20
90.561800000000005
 30
0.0
 11
64.960400000000007
 21
97.062000000000026
 31
0.0
  0
LINE
  5
E1
  8
_________1
 62
     7
 10
63.710599999999992
 20
97.062000000000026
 30
0.0
 11
65.282600000000002
 21
97.062000000000026
 31
0.0
  0
LINE
  5
E2
  8
_________1
 62
     7
 10
65.210599999999999
 20
102.15300000000001
 30
0.0
 11
65.210599999999999
 21
124.482
 31
0.0
  0
LINE
  5
E3
  8
_________1
 62
     7
 10
62.210500000000003
 20
102.15300000000001
 30
0.0
 11
62.210500000000003
 21
124.482
 31
0.0
  0
ENDBLK
  5
E4
  8
_________1
  0
BLOCK
  8
_________1
  2
AIGNBL03020016
 70
     0
 10
0.0
 20
0.0
 30
0.0
  3
AIGNBL03020016
  1

  0
INSERT
  5
E7
  8
_________1
 62
     7
  2
AIGNBL03030017
 10
0.0
 20
0.0
 30
0.0
  0
ENDBLK
  5
E8
  8
_________1
  0
BLOCK
  8
_________1
  2
AIGNBL03020019
 70
     0
 10
0.0
 20
0.0
 30
0.0
  3
AIGNBL03020019
  1

  0
LINE
  5
EB
  8
_________1
 62
     7
 10
50.129899999999999
 20
198.41999999999999
 30
0.0
 11
49.537700000000001
 21
200.63
 31
0.0
  0
LINE
  5
EC
  8
_________1
 62
     7
 10
49.537700000000001
 20
200.63
 30
0.0
 11
48.945300000000003
 21
198.41999999999999
 31
0.0
  0
LINE
  5
ED
  8
_________1
 62
     7
 10
48.945300000000003
 20
198.41999999999999
 30
0.0
 11
50.129899999999999
 21
198.41999999999999
 31
0.0
  0
LINE
  5
EE
  8
_________1
 62
     7
 10
48.959899999999998
 20
172.85400000000001
 30
0.0
 11
49.552199999999999
 21
170.64400000000001
 31
0.0
  0
LINE
  5
EF
  8
_________1
 62
     7
 10
49.552199999999999
 20
170.64400000000001
 30
0.0
 11
50.144500000000001
 21
172.85400000000001
 31
0.0
  0
LINE
  5
F0
  8
_________1
 62
     7
 10
50.144500000000001
 20
172.85400000000001
 30
0.0
 11
48.959899999999998
 21
172.85400000000001
 31
0.0
  0
ENDBLK
  5
F1
  8
_________1
  0
BLOCK
  8
_________1
  2
AIGNBL0302001B
 70
     0
 10
0.0
 20
0.0
 30
0.0
  3
AIGNBL0302001B
  1

  0
LINE
  5
F4
  8
_________1
 62
     7
 10
154.029
 20
62.168500000000002
 30
0.0
 11
154.62100000000001
 21
59.957799999999992
 31
0.0
  0
LINE
  5
F5
  8
_________1
 62
     7
 10
154.62100000000001
 20
59.957799999999992
 30
0.0
 11
155.214
 21
62.168500000000002
 31
0.0
  0
LINE
  5
F6
  8
_________1
 62
     7
 10
155.214
 20
62.168500000000002
 30
0.0
 11
154.029
 21
62.168500000000002
 31
0.0
  0
LINE
  5
F7
  8
_________1
 62
     7
 10
155.19900000000001
 20
56.4968
 30
0.0
 11
154.607
 21
58.707599999999999
 31
0.0
  0
LINE
  5
F8
  8
_________1
 62
     7
 10
154.607
 20
58.707599999999999
 30
0.0
 11
154.01499999999999
 21
56.4968
 31
0.0
  0
LINE
  5
F9
  8
_________1
 62
     7
 10
154.01499999999999
 20
56.4968
 30
0.0
 11
155.19900000000001
 21
56.4968
 31
0.0
  0
LINE
  5
FA
  8
_________1
 62
     7
 10
154.607
 20
54.941400000000002
 30
0.0
 11
154.607
 21
66.668499999999995
 31
0.0
  0
ENDBLK
  5
FB
  8
_________1
  0
BLOCK
  8
_________1
  2
AIGNBL0302001D
 70
     0
 10
0.0
 20
0.0
 30
0.0
  3
AIGNBL0302001D
  1

  0
ARC
  5
FE
  8
_________1
 62
     7
 10
165.00486000000001
 20
58.432056999999993
 30
0.0
 40
0.4126630000000001
 50
162.60341500000001
 51
179.776343
  0
ARC
  5
FF
  8
_________1
 62
     7
 10
164.88809800000001
 20
58.459921000000001
 30
0.0
 40
0.293029
 50
109.223181
 51
160.97631000000001
  0
ARC
  5
100
  8
_________1
 62
     7
 10
165.00573700000001
 20
58.178969999999993
 30
0.0
 40
0.597336
 50
87.565715999999995
 51
111.00537199999999
  0
ARC
  5
101
  8
_________1
 62
     7
 10
165.03426200000001
 20
58.102666000000013
 30
0.0
 40
0.6731090000000001
 50
76.611519999999999
 51
90.268450999999999
  0
ARC
  5
102
  8
_________1
 62
     7
 10
165.09247500000001
 20
58.368659999999998
 30
0.0
 40
0.4008950000000001
 50
44.606532000000001
 51
75.902631
  0
ARC
  5
103
  8
_________1
 62
     7
 10
165.141381
 20
58.433484999999997
 30
0.0
 40
0.320772
 50
23.182237000000001
 51
42.496901000000001
  0
ARC
  5
104
  8
_________1
 62
     7
 10
164.98493400000001
 20
60.193922999999991
 30
0.0
 40
0.394797
 50
183.37295499999999
 51
201.32405900000001
  0
ARC
  5
105
  8
_________1
 62
     7
 10
164.87327400000001
 20
60.158516000000013
 30
0.0
 40
0.278009
 50
202.89501100000001
 51
241.75738000000001
  0
ARC
  5
106
  8
_________1
 62
     7
 10
164.95177200000001
 20
60.29956
 30
0.0
 40
0.4394140000000001
 50
241.44313500000001
 51
262.14528999999999
  0
ARC
  5
107
  8
_________1
 62
     7
 10
165.024056
 20
60.688701999999999
 30
0.0
 40
0.8349870000000002
 50
260.88084400000002
 51
270.48388399999999
  0
ARC
  5
108
  8
_________1
 62
     7
 10
165.03142800000001
 20
60.557907999999998
 30
0.0
 40
0.7041640000000001
 50
269.97395799999998
 51
283.3995450000001
  0
ARC
  5
109
  8
_________1
 62
     7
 10
165.09804
 20
60.261825999999999
 30
0.0
 40
0.400723
 50
283.94515000000001
 51
314.98192400000011
  0
ARC
  5
10A
  8
_________1
 62
     7
 10
165.15474900000001
 20
60.185428000000002
 30
0.0
 40
0.306912
 50
317.57626599999998
 51
337.51074599999998
  0
ARC
  5
10B
  8
_________1
 62
     7
 10
165.001848
 20
59.511066000000007
 30
0.0
 40
0.4096510000000001
 50
162.5390669999999
 51
179.774508
  0
ARC
  5
10C
  8
_________1
 62
     7
 10
164.887484
 20
59.538282999999993
 30
0.0
 40
0.292509
 50
109.131332
 51
160.902794
  0
ARC
  5
10D
  8
_________1
 62
     7
 10
165.00573299999999
 20
59.256282999999989
 30
0.0
 40
0.598
 50
87.568007999999978
 51
110.980502
  0
ARC
  5
10E
  8
_________1
 62
     7
 10
165.036427
 20
59.185791999999999
 30
0.0
 40
0.667974
 50
76.584649000000013
 51
90.456265999999985
  0
ARC
  5
10F
  8
_________1
 62
     7
 10
165.09761700000001
 20
59.464624000000001
 30
0.0
 40
0.382588
 50
34.467252999999999
 51
75.810237000000001
  0
ARC
  5
110
  8
_________1
 62
     7
 10
165.12226200000001
 20
59.503911000000002
 30
0.0
 40
0.340536
 50
7.7590000000000003
 51
31.362769
  0
ARC
  5
111
  8
_________1
 62
     7
 10
164.988114
 20
59.116337000000001
 30
0.0
 40
0.397973
 50
183.352631
 51
201.23669000000001
  0
ARC
  5
112
  8
_________1
 62
     7
 10
164.872929
 20
59.079795999999988
 30
0.0
 40
0.2774809999999999
 50
202.81909999999999
 51
241.77942799999991
  0
ARC
  5
113
  8
_________1
 62
     7
 10
164.95080200000001
 20
59.220247999999991
 30
0.0
 40
0.4380670000000001
 50
241.49162000000001
 51
262.24901599999998
  0
ARC
  5
114
  8
_________1
 62
     7
 10
165.02388099999999
 20
59.616894999999992
 30
0.0
 40
0.8411579999999999
 50
260.96043400000002
 51
270.49230599999999
  0
ARC
  5
115
  8
_________1
 62
     7
 10
165.03113999999999
 20
59.424593000000009
 30
0.0
 40
0.648825
 50
269.997142
 51
291.22474699999998
  0
ARC
  5
116
  8
_________1
 62
     7
 10
165.130504
 20
59.124912999999999
 30
0.0
 40
0.333878
 50
293.948936
 51
349.69000499999999
  0
LINE
  5
117
  8
_________1
 62
     7
 10
165.15000000000001
 20
58.368899999999996
 30
0.0
 11
164.59099999999989
 21
58.368899999999996
 31
0.0
  0
LINE
  5
118
  8
_________1
 62
     7
 10
165.46000000000001
 20
59.954000000000001
 30
0.0
 11
165.46000000000001
 21
58.677599999999998
 31
0.0
  0
ARC
  5
119
  8
_________1
 62
     7
 10
165.13942499999999
 20
58.68918
 30
0.0
 40
0.320466
 50
271.94635299999999
 51
357.92590799999999
  0
LINE
  5
11A
  8
_________1
 62
     7
 10
165.15000000000001
 20
60.265099999999997
 30
0.0
 11
164.59099999999989
 21
60.265099999999997
 31
0.0
  0
ARC
  5
11B
  8
_________1
 62
     7
 10
165.13821100000001
 20
59.94368399999999
 30
0.0
 40
0.321635
 50
1.8375419999999989
 51
87.844316000000006
  0
LINE
  5
11C
  8
_________1
 62
     7
 10
164.59099999999989
 20
60.265099999999997
 30
0.0
 11
164.59099999999989
 21
58.368899999999996
 31
0.0
  0
ENDBLK
  5
11D
  8
_________1
  0
BLOCK
  8
_________1
  2
AIGNBL0302001F
 70
     0
 10
0.0
 20
0.0
 30
0.0
  3
AIGNBL0302001F
  1

  0
LINE
  5
120
  8
_________1
 62
     7
 10
130.06
 20
43.835700000000003
 30
0.0
 11
127.849
 21
43.24349999999999
 31
0.0
  0
LINE
  5
121
  8
_________1
 62
     7
 10
127.849
 20
43.24349999999999
 30
0.0
 11
130.06
 21
42.651200000000003
 31
0.0
  0
LINE
  5
122
  8
_________1
 62
     7
 10
130.06
 20
42.651200000000003
 30
0.0
 11
130.06
 21
43.835700000000003
 31
0.0
  0
LINE
  5
123
  8
_________1
 62
     7
 10
165.06200000000001
 20
42.665700000000001
 30
0.0
 11
167.273
 21
43.257899999999999
 31
0.0
  0
LINE
  5
124
  8
_________1
 62
     7
 10
167.273
 20
43.257899999999999
 30
0.0
 11
165.06200000000001
 21
43.850099999999998
 31
0.0
  0
LINE
  5
125
  8
_________1
 62
     7
 10
165.06200000000001
 20
43.850099999999998
 30
0.0
 11
165.06200000000001
 21
42.665700000000001
 31
0.0
  0
LINE
  5
126
  8
_________1
 62
     7
 10
127.849
 20
43.24349999999999
 30
0.0
 11
167.274
 21
43.24349999999999
 31
0.0
  0
ENDBLK
  5
127
  8
_________1
  0
BLOCK
  8
_________1
  2
AIGNBL03020021
 70
     0
 10
0.0
 20
0.0
 30
0.0
  3
AIGNBL03020021
  1

  0
LINE
  5
12A
  8
_________1
 62
     7
 10
130.887
 20
47.306999999999988
 30
0.0
 11
133.09800000000001
 21
47.8992
 31
0.0
  0
LINE
  5
12B
  8
_________1
 62
     7
 10
133.09800000000001
 20
47.8992
 30
0.0
 11
130.887
 21
48.491399999999999
 31
0.0
  0
LINE
  5
12C
  8
_________1
 62
     7
 10
130.887
 20
48.491399999999999
 30
0.0
 11
130.887
 21
47.306999999999988
 31
0.0
  0
LINE
  5
12D
  8
_________1
 62
     7
 10
124.81
 20
48.476900000000001
 30
0.0
 11
122.59999999999999
 21
47.884700000000002
 31
0.0
  0
LINE
  5
12E
  8
_________1
 62
     7
 10
122.59999999999999
 20
47.884700000000002
 30
0.0
 11
124.81
 21
47.29249999999999
 31
0.0
  0
LINE
  5
12F
  8
_________1
 62
     7
 10
124.81
 20
47.29249999999999
 30
0.0
 11
124.81
 21
48.476900000000001
 31
0.0
  0
LINE
  5
130
  8
_________1
 62
     7
 10
133.09800000000001
 20
47.884700000000002
 30
0.0
 11
122.599
 21
47.884700000000002
 31
0.0
  0
ENDBLK
  5
131
  8
_________1
  0
BLOCK
  8
_________1
  2
AIGNBL03020023
 70
     0
 10
0.0
 20
0.0
 30
0.0
  3
AIGNBL03020023
  1

  0
LINE
  5
134
  8
_________1
 62
     7
 10
116.321
 20
63.121400000000001
 30
0.0
 11
115.72799999999999
 21
65.3322
 31
0.0
  0
LINE
  5
135
  8
_________1
 62
     7
 10
115.72799999999999
 20
65.3322
 30
0.0
 11
115.136
 21
63.121400000000001
 31
0.0
  0
LINE
  5
136
  8
_________1
 62
     7
 10
115.136
 20
63.121400000000001
 30
0.0
 11
116.321
 21
63.121400000000001
 31
0.0
  0
LINE
  5
137
  8
_________1
 62
     7
 10
115.151
 20
56.54399999999999
 30
0.0
 11
115.74299999999999
 21
54.333300000000001
 31
0.0
  0
LINE
  5
138
  8
_________1
 62
     7
 10
115.74299999999999
 20
54.333300000000001
 30
0.0
 11
116.33499999999999
 21
56.54399999999999
 31
0.0
  0
LINE
  5
139
  8
_________1
 62
     7
 10
116.33499999999999
 20
56.54399999999999
 30
0.0
 11
115.151
 21
56.54399999999999
 31
0.0
  0
LINE
  5
13A
  8
_________1
 62
     7
 10
115.72799999999999
 20
65.332899999999995
 30
0.0
 11
115.72799999999999
 21
54.332599999999999
 31
0.0
  0
ENDBLK
  5
13B
  8
_________1
  0
BLOCK
  8
_________1
  2
AIGNBL03020025
 70
     0
 10
0.0
 20
0.0
 30
0.0
  3
AIGNBL03020025
  1

  0
LINE
  5
13E
  8
_________1
 62
     7
 10
116.31
 20
74.371099999999998
 30
0.0
 11
115.718
 21
76.581900000000005
 31
0.0
  0
LINE
  5
13F
  8
_________1
 62
     7
 10
115.718
 20
76.581900000000005
 30
0.0
 11
115.126
 21
74.371099999999998
 31
0.0
  0
LINE
  5
140
  8
_________1
 62
     7
 10
115.126
 20
74.371099999999998
 30
0.0
 11
116.31
 21
74.371099999999998
 31
0.0
  0
LINE
  5
141
  8
_________1
 62
     7
 10
115.14
 20
67.543599999999998
 30
0.0
 11
115.733
 21
65.332899999999995
 31
0.0
  0
LINE
  5
142
  8
_________1
 62
     7
 10
115.733
 20
65.332899999999995
 30
0.0
 11
116.325
 21
67.543599999999998
 31
0.0
  0
LINE
  5
143
  8
_________1
 62
     7
 10
116.325
 20
67.543599999999998
 30
0.0
 11
115.14
 21
67.543599999999998
 31
0.0
  0
LINE
  5
144
  8
_________1
 62
     7
 10
115.718
 20
76.582499999999996
 30
0.0
 11
115.718
 21
65.3322
 31
0.0
  0
ENDBLK
  5
145
  8
_________1
  0
BLOCK
  8
_________1
  2
AIGNBL03020027
 70
     0
 10
0.0
 20
0.0
 30
0.0
  3
AIGNBL03020027
  1

  0
LINE
  5
148
  8
_________1
 62
     7
 10
122.06
 20
83.522400000000005
 30
0.0
 11
119.849
 21
82.930199999999999
 31
0.0
  0
LINE
  5
149
  8
_________1
 62
     7
 10
119.849
 20
82.930199999999999
 30
0.0
 11
122.06
 21
82.337999999999994
 31
0.0
  0
LINE
  5
14A
  8
_________1
 62
     7
 10
122.06
 20
82.337999999999994
 30
0.0
 11
122.06
 21
83.522400000000005
 31
0.0
  0
LINE
  5
14B
  8
_________1
 62
     7
 10
133.637
 20
82.352400000000003
 30
0.0
 11
135.84800000000001
 21
82.944599999999994
 31
0.0
  0
LINE
  5
14C
  8
_________1
 62
     7
 10
135.84800000000001
 20
82.944599999999994
 30
0.0
 11
133.637
 21
83.536900000000003
 31
0.0
  0
LINE
  5
14D
  8
_________1
 62
     7
 10
133.637
 20
83.536900000000003
 30
0.0
 11
133.637
 21
82.352400000000003
 31
0.0
  0
LINE
  5
14E
  8
_________1
 62
     7
 10
119.848
 20
82.930199999999999
 30
0.0
 11
135.84899999999999
 21
82.930199999999999
 31
0.0
  0
ENDBLK
  5
14F
  8
_________1
  0
BLOCK
  8
_________1
  2
AIGNBL0302002A
 70
     0
 10
0.0
 20
0.0
 30
0.0
  3
AIGNBL0302002A
  1

  0
INSERT
  5
152
  8
_________1
 62
     7
  2
AIGNBL0303002B
 10
0.0
 20
0.0
 30
0.0
  0
ENDBLK
  5
153
  8
_________1
  0
BLOCK
  8
_________1
  2
AIGNBL0302002F
 70
     0
 10
0.0
 20
0.0
 30
0.0
  3
AIGNBL0302002F
  1

  0
LINE
  5
156
  8
_________1
 62
     7
 10
121.723
 20
247.93899999999999
 30
0.0
 11
125.011
 21
244.65100000000001
 31
0.0
  0
ENDBLK
  5
157
  8
_________1
  0
BLOCK
  8
_________1
  2
AIGNBL03020032
 70
     0
 10
0.0
 20
0.0
 30
0.0
  3
AIGNBL03020032
  1

  0
LINE
  5
15A
  8
_________1
 62
     7
 10
130.67699999999999
 20
238.98400000000001
 30
0.0
 11
133.73699999999999
 21
235.92400000000001
 31
0.0
  0
ENDBLK
  5
15B
  8
_________1
  0
BLOCK
  8
_________1
  2
AIGNBL03020034
 70
     0
 10
0.0
 20
0.0
 30
0.0
  3
AIGNBL03020034
  1

  0
LINE
  5
15E
  8
_________1
 62
     7
 10
145.78200000000001
 20
172.85499999999999
 30
0.0
 11
146.374
 21
170.64500000000001
 31
0.0
  0
LINE
  5
15F
  8
_________1
 62
     7
 10
146.374
 20
170.64500000000001
 30
0.0
 11
146.96600000000001
 21
172.85499999999999
 31
0.0
  0
LINE
  5
160
  8
_________1
 62
     7
 10
146.96600000000001
 20
172.85499999999999
 30
0.0
 11
145.78200000000001
 21
172.85499999999999
 31
0.0
  0
LINE
  5
161
  8
_________1
 62
     7
 10
146.952
 20
209.41999999999999
 30
0.0
 11
146.36000000000001
 21
211.63
 31
0.0
  0
LINE
  5
162
  8
_________1
 62
     7
 10
146.36000000000001
 20
211.63
 30
0.0
 11
145.767
 21
209.41999999999999
 31
0.0
  0
LINE
  5
163
  8
_________1
 62
     7
 10
145.767
 20
209.41999999999999
 30
0.0
 11
146.952
 21
209.41999999999999
 31
0.0
  0
LINE
  5
164
  8
_________1
 62
     7
 10
146.36000000000001
 20
170.64400000000001
 30
0.0
 11
146.36000000000001
 21
211.631
 31
0.0
  0
ENDBLK
  5
165
  8
_________1
  0
BLOCK
  8
_________1
  2
AIGNBL03020036
 70
     0
 10
0.0
 20
0.0
 30
0.0
  3
AIGNBL03020036
  1

  0
LINE
  5
168
  8
_________1
 62
     7
 10
125.624
 20
216.102
 30
0.0
 11
127.83499999999999
 21
216.69399999999999
 31
0.0
  0
LINE
  5
169
  8
_________1
 62
     7
 10
127.83499999999999
 20
216.69399999999999
 30
0.0
 11
125.624
 21
217.286
 31
0.0
  0
LINE
  5
16A
  8
_________1
 62
     7
 10
125.624
 20
217.286
 30
0.0
 11
125.624
 21
216.102
 31
0.0
  0
LINE
  5
16B
  8
_________1
 62
     7
 10
110.56
 20
217.27199999999999
 30
0.0
 11
108.349
 21
216.68000000000001
 31
0.0
  0
LINE
  5
16C
  8
_________1
 62
     7
 10
108.349
 20
216.68000000000001
 30
0.0
 11
110.56
 21
216.08699999999999
 31
0.0
  0
LINE
  5
16D
  8
_________1
 62
     7
 10
110.56
 20
216.08699999999999
 30
0.0
 11
110.56
 21
217.27199999999999
 31
0.0
  0
LINE
  5
16E
  8
_________1
 62
     7
 10
127.83499999999999
 20
216.68000000000001
 30
0.0
 11
108.348
 21
216.68000000000001
 31
0.0
  0
ENDBLK
  5
16F
  8
_________1
  0
BLOCK
  8
_________1
  2
AIGNBL03020038
 70
     0
 10
0.0
 20
0.0
 30
0.0
  3
AIGNBL03020038
  1

  0
LINE
  5
172
  8
_________1
 62
     7
 10
125.637
 20
220.91399999999999
 30
0.0
 11
127.848
 21
221.50700000000001
 31
0.0
  0
LINE
  5
173
  8
_________1
 62
     7
 10
127.848
 20
221.50700000000001
 30
0.0
 11
125.637
 21
222.09899999999999
 31
0.0
  0
LINE
  5
174
  8
_________1
 62
     7
 10
125.637
 20
222.09899999999999
 30
0.0
 11
125.637
 21
220.91399999999999
 31
0.0
  0
LINE
  5
175
  8
_________1
 62
     7
 10
103.31
 20
222.084
 30
0.0
 11
101.099
 21
221.49199999999999
 31
0.0
  0
LINE
  5
176
  8
_________1
 62
     7
 10
101.099
 20
221.49199999999999
 30
0.0
 11
103.31
 21
220.90000000000001
 31
0.0
  0
LINE
  5
177
  8
_________1
 62
     7
 10
103.31
 20
220.90000000000001
 30
0.0
 11
103.31
 21
222.084
 31
0.0
  0
LINE
  5
178
  8
_________1
 62
     7
 10
127.849
 20
221.49199999999999
 30
0.0
 11
101.098
 21
221.49199999999999
 31
0.0
  0
ENDBLK
  5
179
  8
_________1
  0
BLOCK
  8
_________1
  2
AIGNBL0302003A
 70
     0
 10
0.0
 20
0.0
 30
0.0
  3
AIGNBL0302003A
  1

  0
LINE
  5
17C
  8
_________1
 62
     7
 10
77.636899999999997
 20
92.854900000000015
 30
0.0
 11
78.229100000000003
 21
90.644099999999995
 31
0.0
  0
LINE
  5
17D
  8
_________1
 62
     7
 10
78.229100000000003
 20
90.644099999999995
 30
0.0
 11
78.8215
 21
92.854900000000015
 31
0.0
  0
LINE
  5
17E
  8
_________1
 62
     7
 10
78.8215
 20
92.854900000000015
 30
0.0
 11
77.636899999999997
 21
92.854900000000015
 31
0.0
  0
LINE
  5
17F
  8
_________1
 62
     7
 10
78.806899999999999
 20
168.41900000000001
 30
0.0
 11
78.214699999999993
 21
170.63
 31
0.0
  0
LINE
  5
180
  8
_________1
 62
     7
 10
78.214699999999993
 20
170.63
 30
0.0
 11
77.622299999999996
 21
168.41900000000001
 31
0.0
  0
LINE
  5
181
  8
_________1
 62
     7
 10
77.622299999999996
 20
168.41900000000001
 30
0.0
 11
78.806899999999999
 21
168.41900000000001
 31
0.0
  0
LINE
  5
182
  8
_________1
 62
     7
 10
78.214699999999993
 20
90.643399999999986
 30
0.0
 11
78.214699999999993
 21
170.63
 31
0.0
  0
ENDBLK
  5
183
  8
_________1
  0
BLOCK
  8
_________1
  2
AIGNBL0302003C
 70
     0
 10
0.0
 20
0.0
 30
0.0
  3
AIGNBL0302003C
  1

  0
LINE
  5
186
  8
_________1
 62
     7
 10
145.78899999999999
 20
95.355000000000004
 30
0.0
 11
146.381
 21
93.144299999999987
 31
0.0
  0
LINE
  5
187
  8
_________1
 62
     7
 10
146.381
 20
93.144299999999987
 30
0.0
 11
146.97399999999999
 21
95.355000000000004
 31
0.0
  0
LINE
  5
188
  8
_________1
 62
     7
 10
146.97399999999999
 20
95.355000000000004
 30
0.0
 11
145.78899999999999
 21
95.355000000000004
 31
0.0
  0
LINE
  5
189
  8
_________1
 62
     7
 10
146.959
 20
168.41900000000001
 30
0.0
 11
146.36699999999999
 21
170.63
 31
0.0
  0
LINE
  5
18A
  8
_________1
 62
     7
 10
146.36699999999999
 20
170.63
 30
0.0
 11
145.77500000000001
 21
168.41900000000001
 31
0.0
  0
LINE
  5
18B
  8
_________1
 62
     7
 10
145.77500000000001
 20
168.41900000000001
 30
0.0
 11
146.959
 21
168.41900000000001
 31
0.0
  0
LINE
  5
18C
  8
_________1
 62
     7
 10
146.36699999999999
 20
93.143600000000006
 30
0.0
 11
146.36699999999999
 21
170.63
 31
0.0
  0
ENDBLK
  5
18D
  8
_________1
  0
BLOCK
  8
____
  2
AIGNBL01010002
 70
     0
 10
0.0
 20
0.0
 30
0.0
  3
AIGNBL01010002
  1

  0
TEXT
  5
190
  8
____
 62
     7
 10
124.29280900000001
 20
49.285200000000003
 30
0.0
 40
3.0923400000000001
  1
G1 1/4
 41
0.5
 72
     1
 11
127.849
 21
49.285200000000003
 31
0.0
  0
ENDBLK
  5
191
  8
____
  0
BLOCK
  8
_________4
  2
AIGNBL02010002
 70
     0
 10
0.0
 20
0.0
 30
0.0
  3
AIGNBL02010002
  1

  0
INSERT
  5
194
  8
_________4
 62
     7
  2
AIGNBL02020003
 10
0.0
 20
0.0
 30
0.0
  0
ENDBLK
  5
195
  8
_________4
  0
BLOCK
  8
_________1
  2
AIGNBL03010002
 70
     0
 10
0.0
 20
0.0
 30
0.0
  3
AIGNBL03010002
  1

  0
LINE
  5
198
  8
_________1
 62
     7
 10
90.162899999999993
 20
167.702
 30
0.0
 11
92.168299999999988
 21
166.59899999999999
 31
0.0
  0
LINE
  5
199
  8
_________1
 62
     7
 10
92.168299999999988
 20
166.59899999999999
 30
0.0
 11
90.983000000000004
 21
168.55799999999999
 31
0.0
  0
LINE
  5
19A
  8
_________1
 62
     7
 10
90.983000000000004
 20
168.55799999999999
 30
0.0
 11
90.162899999999993
 21
167.702
 31
0.0
  0
ENDBLK
  5
19B
  8
_________1
  0
BLOCK
  8
_________1
  2
AIGNBL03010003
 70
     0
 10
0.0
 20
0.0
 30
0.0
  3
AIGNBL03010003
  1

  0
INSERT
  5
19E
  8
_________1
 62
     7
  2
AIGNBL03020004
 10
0.0
 20
0.0
 30
0.0
  0
ENDBLK
  5
19F
  8
_________1
  0
BLOCK
  8
_________1
  2
AIGNBL03010005
 70
     0
 10
0.0
 20
0.0
 30
0.0
  3
AIGNBL03010005
  1

  0
INSERT
  5
1A2
  8
_________1
 62
     7
  2
AIGNBL03020006
 10
0.0
 20
0.0
 30
0.0
  0
ENDBLK
  5
1A3
  8
_________1
  0
BLOCK
  8
_________1
  2
AIGNBL03010007
 70
     0
 10
0.0
 20
0.0
 30
0.0
  3
AIGNBL03010007
  1

  0
LINE
  5
1A6
  8
_________1
 62
     7
 10
103.295
 20
163.43000000000001
 30
0.0
 11
101.081
 21
162.84899999999999
 31
0.0
  0
LINE
  5
1A7
  8
_________1
 62
     7
 10
101.081
 20
162.84899999999999
 30
0.0
 11
103.288
 21
162.245
 31
0.0
  0
LINE
  5
1A8
  8
_________1
 62
     7
 10
103.288
 20
162.245
 30
0.0
 11
103.295
 21
163.43000000000001
 31
0.0
  0
ENDBLK
  5
1A9
  8
_________1
  0
BLOCK
  8
_________1
  2
AIGNBL03010008
 70
     0
 10
0.0
 20
0.0
 30
0.0
  3
AIGNBL03010008
  1

  0
INSERT
  5
1AC
  8
_________1
 62
     7
  2
AIGNBL03020009
 10
0.0
 20
0.0
 30
0.0
  0
ENDBLK
  5
1AD
  8
_________1
  0
BLOCK
  8
_________1
  2
AIGNBL0301000A
 70
     0
 10
0.0
 20
0.0
 30
0.0
  3
AIGNBL0301000A
  1

  0
INSERT
  5
1B0
  8
_________1
 62
     7
  2
AIGNBL0302000B
 10
0.0
 20
0.0
 30
0.0
  0
ENDBLK
  5
1B1
  8
_________1
  0
BLOCK
  8
_________1
  2
AIGNBL0301000C
 70
     0
 10
0.0
 20
0.0
 30
0.0
  3
AIGNBL0301000C
  1

  0
INSERT
  5
1B4
  8
_________1
 62
     7
  2
AIGNBL0302000D
 10
0.0
 20
0.0
 30
0.0
  0
ENDBLK
  5
1B5
  8
_________1
  0
BLOCK
  8
_________1
  2
AIGNBL0301000E
 70
     0
 10
0.0
 20
0.0
 30
0.0
  3
AIGNBL0301000E
  1

  0
LINE
  5
1B8
  8
_________1
 62
     7
 10
66.212699999999984
 20
246.74700000000001
 30
0.0
 11
66.212699999999984
 21
251.74799999999999
 31
0.0
  0
ARC
  5
1B9
  8
_________1
 62
     7
 10
65.886544000000001
 20
251.73679300000001
 30
0.0
 40
0.326409
 50
2.0552019999999991
 51
86.802717000000001
  0
LINE
  5
1BA
  8
_________1
 62
     7
 10
65.904700000000005
 20
252.06299999999999
 30
0.0
 11
64.892899999999997
 21
252.06299999999999
 31
0.0
  0
ARC
  5
1BB
  8
_________1
 62
     7
 10
64.904935999999992
 20
251.743559
 30
0.0
 40
0.319361
 50
92.156655000000001
 51
179.11367899999999
  0
LINE
  5
1BC
  8
_________1
 62
     7
 10
64.585599999999999
 20
251.74799999999999
 30
0.0
 11
64.585599999999999
 21
246.74700000000001
 31
0.0
  0
ENDBLK
  5
1BD
  8
_________1
  0
BLOCK
  8
_________1
  2
AIGNBL0301000F
 70
     0
 10
0.0
 20
0.0
 30
0.0
  3
AIGNBL0301000F
  1

  0
LINE
  5
1C0
  8
_________1
 62
     7
 10
132.84999999999999
 20
174.83000000000001
 30
0.0
 11
137.78399999999999
 21
174.83000000000001
 31
0.0
  0
ARC
  5
1C1
  8
_________1
 62
     7
 10
137.773053
 20
175.15585200000001
 30
0.0
 40
0.325993
 50
271.98855500000002
 51
356.86938500000002
  0
LINE
  5
1C2
  8
_________1
 62
     7
 10
138.09899999999999
 20
175.13800000000001
 30
0.0
 11
138.09899999999999
 21
176.15000000000001
 31
0.0
  0
ARC
  5
1C3
  8
_________1
 62
     7
 10
137.77942899999999
 20
176.137866
 30
0.0
 40
0.319356
 50
2.1558790000000001
 51
89.114475999999996
  0
LINE
  5
1C4
  8
_________1
 62
     7
 10
137.78399999999999
 20
176.45699999999999
 30
0.0
 11
132.84999999999999
 21
176.45699999999999
 31
0.0
  0
ENDBLK
  5
1C5
  8
_________1
  0
BLOCK
  8
_________1
  2
AIGNBL03010010
 70
     0
 10
0.0
 20
0.0
 30
0.0
  3
AIGNBL03010010
  1

  0
INSERT
  5
1C8
  8
_________1
 62
     7
  2
AIGNBL03020011
 10
0.0
 20
0.0
 30
0.0
  0
ENDBLK
  5
1C9
  8
_________1
  0
BLOCK
  8
_________1
  2
AIGNBL03010012
 70
     0
 10
0.0
 20
0.0
 30
0.0
  3
AIGNBL03010012
  1

  0
LINE
  5
1CC
  8
_________1
 62
     7
 10
55.900300000000001
 20
168.41900000000001
 30
0.0
 11
55.308100000000003
 21
170.63
 31
0.0
  0
LINE
  5
1CD
  8
_________1
 62
     7
 10
55.308100000000003
 20
170.63
 30
0.0
 11
54.715699999999991
 21
168.41900000000001
 31
0.0
  0
LINE
  5
1CE
  8
_________1
 62
     7
 10
54.715699999999991
 20
168.41900000000001
 30
0.0
 11
55.900300000000001
 21
168.41900000000001
 31
0.0
  0
LINE
  5
1CF
  8
_________1
 62
     7
 10
54.7303
 20
165.35400000000001
 30
0.0
 11
55.322600000000001
 21
163.14400000000001
 31
0.0
  0
LINE
  5
1D0
  8
_________1
 62
     7
 10
55.322600000000001
 20
163.14400000000001
 30
0.0
 11
55.914900000000003
 21
165.35400000000001
 31
0.0
  0
LINE
  5
1D1
  8
_________1
 62
     7
 10
55.914900000000003
 20
165.35400000000001
 30
0.0
 11
54.7303
 21
165.35400000000001
 31
0.0
  0
LINE
  5
1D2
  8
_________1
 62
     7
 10
55.308100000000003
 20
170.63
 30
0.0
 11
55.308100000000003
 21
163.143
 31
0.0
  0
ENDBLK
  5
1D3
  8
_________1
  0
BLOCK
  8
_________1
  2
AIGNBL03010013
 70
     0
 10
0.0
 20
0.0
 30
0.0
  3
AIGNBL03010013
  1

  0
INSERT
  5
1D6
  8
_________1
 62
     7
  2
AIGNBL03020014
 10
0.0
 20
0.0
 30
0.0
  0
ENDBLK
  5
1D7
  8
_________1
  0
BLOCK
  8
_________1
  2
AIGNBL03010015
 70
     0
 10
0.0
 20
0.0
 30
0.0
  3
AIGNBL03010015
  1

  0
INSERT
  5
1DA
  8
_________1
 62
     7
  2
AIGNBL03020016
 10
0.0
 20
0.0
 30
0.0
  0
ENDBLK
  5
1DB
  8
_________1
  0
BLOCK
  8
_________1
  2
AIGNBL03010018
 70
     0
 10
0.0
 20
0.0
 30
0.0
  3
AIGNBL03010018
  1

  0
INSERT
  5
1DE
  8
_________1
 62
     7
  2
AIGNBL03020019
 10
0.0
 20
0.0
 30
0.0
  0
ENDBLK
  5
1DF
  8
_________1
  0
BLOCK
  8
_________1
  2
AIGNBL0301001A
 70
     0
 10
0.0
 20
0.0
 30
0.0
  3
AIGNBL0301001A
  1

  0
INSERT
  5
1E2
  8
_________1
 62
     7
  2
AIGNBL0302001B
 10
0.0
 20
0.0
 30
0.0
  0
ENDBLK
  5
1E3
  8
_________1
  0
BLOCK
  8
_________1
  2
AIGNBL0301001C
 70
     0
 10
0.0
 20
0.0
 30
0.0
  3
AIGNBL0301001C
  1

  0
INSERT
  5
1E6
  8
_________1
 62
     7
  2
AIGNBL0302001D
 10
0.0
 20
0.0
 30
0.0
  0
LINE
  5
1E7
  8
_________1
 62
     7
 10
163.75399999999999
 20
60.289200000000001
 30
0.0
 11
163.43899999999999
 21
60.559600000000003
 31
0.0
  0
LINE
  5
1E8
  8
_________1
 62
     7
 10
163.75399999999999
 20
58.39439999999999
 30
0.0
 11
163.43899999999999
 21
58.122599999999998
 31
0.0
  0
LINE
  5
1E9
  8
_________1
 62
     7
 10
159.471
 20
58.122599999999998
 30
0.0
 11
159.15600000000001
 21
58.392299999999999
 31
0.0
  0
LINE
  5
1EA
  8
_________1
 62
     7
 10
159.471
 20
60.556499999999993
 30
0.0
 11
159.15600000000001
 21
60.28649999999999
 31
0.0
  0
LINE
  5
1EB
  8
_________1
 62
     7
 10
159.15600000000001
 20
60.28649999999999
 30
0.0
 11
159.15600000000001
 21
58.392299999999999
 31
0.0
  0
ARC
  5
1EC
  8
_________1
 62
     7
 10
160.10556
 20
58.781354
 30
0.0
 40
0.6587850000000001
 50
231.79897
 51
269.79579200000001
  0
ARC
  5
1ED
  8
_________1
 62
     7
 10
160.273492
 20
59.028391999999997
 30
0.0
 40
0.9569969999999999
 50
211.775745
 51
233.04467399999999
  0
ARC
  5
1EE
  8
_________1
 62
     7
 10
160.62204800000001
 20
59.266218000000002
 30
0.0
 40
1.3786739999999991
 50
189.34957600000001
 51
212.55007599999999
  0
ARC
  5
1EF
  8
_________1
 62
     7
 10
160.932255
 20
59.345694999999992
 30
0.0
 40
1.6979040000000001
 50
179.910515
 51
190.2953489999999
  0
ARC
  5
1F0
  8
_________1
 62
     7
 10
160.89514399999999
 20
59.347743000000001
 30
0.0
 40
1.660790999999999
 50
155.57676799999999
 51
179.979176
  0
ARC
  5
1F1
  8
_________1
 62
     7
 10
160.428166
 20
59.536622999999999
 30
0.0
 40
1.1576959999999989
 50
130.64135300000001
 51
154.53220400000001
  0
ARC
  5
1F2
  8
_________1
 62
     7
 10
160.155193
 20
59.821707999999987
 30
0.0
 40
0.76388
 50
105.562758
 51
129.032263
  0
ARC
  5
1F3
  8
_________1
 62
     7
 10
162.85679500000001
 20
59.884996999999998
 30
0.0
 40
0.6795260000000001
 50
49.933776999999999
 51
81.213689999999986
  0
ARC
  5
1F4
  8
_________1
 62
     7
 10
162.68195700000001
 20
59.64906899999999
 30
0.0
 40
0.9727879999999998
 50
30.622909000000011
 51
50.997320999999999
  0
ARC
  5
1F5
  8
_________1
 62
     7
 10
162.31751800000001
 20
59.411763999999991
 30
0.0
 40
1.4074040000000001
 50
8.5528440000000021
 51
31.378924999999999
  0
ARC
  5
1F6
  8
_________1
 62
     7
 10
162.00820899999999
 20
59.336020999999988
 30
0.0
 40
1.7247799999999991
 50
0.066105
 51
9.5129350000000006
  0
ARC
  5
1F7
  8
_________1
 62
     7
 10
162.06480099999999
 20
59.338236999999999
 30
0.0
 40
1.668186999999999
 50
335.97011099999997
 51
359.99221699999998
  0
ARC
  5
1F8
  8
_________1
 62
     7
 10
162.533669
 20
59.151828000000002
 30
0.0
 40
1.164229
 50
311.67028700000009
 51
334.95254599999998
  0
ARC
  5
1F9
  8
_________1
 62
     7
 10
162.819243
 20
58.861196999999997
 30
0.0
 40
0.7575370000000001
 50
282.83027399999997
 51
310.15026899999998
  0
LINE
  5
1FA
  8
_________1
 62
     7
 10
159.458
 20
59.180599999999998
 30
0.0
 11
161.32499999999999
 21
59.180599999999998
 31
0.0
  0
LINE
  5
1FB
  8
_________1
 62
     7
 10
159.458
 20
59.474800000000002
 30
0.0
 11
161.32499999999999
 21
59.474800000000002
 31
0.0
  0
LINE
  5
1FC
  8
_________1
 62
     7
 10
159.465
 20
58.122599999999998
 30
0.0
 11
163.446
 21
58.122599999999998
 31
0.0
  0
LINE
  5
1FD
  8
_________1
 62
     7
 10
159.471
 20
60.556499999999993
 30
0.0
 11
163.44399999999999
 21
60.556499999999993
 31
0.0
  0
LINE
  5
1FE
  8
_________1
 62
     7
 10
163.75399999999999
 20
60.289200000000001
 30
0.0
 11
163.75399999999999
 21
58.39439999999999
 31
0.0
  0
ENDBLK
  5
1FF
  8
_________1
  0
BLOCK
  8
_________1
  2
AIGNBL0301001E
 70
     0
 10
0.0
 20
0.0
 30
0.0
  3
AIGNBL0301001E
  1

  0
INSERT
  5
202
  8
_________1
 62
     7
  2
AIGNBL0302001F
 10
0.0
 20
0.0
 30
0.0
  0
ENDBLK
  5
203
  8
_________1
  0
BLOCK
  8
_________1
  2
AIGNBL03010020
 70
     0
 10
0.0
 20
0.0
 30
0.0
  3
AIGNBL03010020
  1

  0
INSERT
  5
206
  8
_________1
 62
     7
  2
AIGNBL03020021
 10
0.0
 20
0.0
 30
0.0
  0
ENDBLK
  5
207
  8
_________1
  0
BLOCK
  8
_________1
  2
AIGNBL03010022
 70
     0
 10
0.0
 20
0.0
 30
0.0
  3
AIGNBL03010022
  1

  0
INSERT
  5
20A
  8
_________1
 62
     7
  2
AIGNBL03020023
 10
0.0
 20
0.0
 30
0.0
  0
ENDBLK
  5
20B
  8
_________1
  0
BLOCK
  8
_________1
  2
AIGNBL03010024
 70
     0
 10
0.0
 20
0.0
 30
0.0
  3
AIGNBL03010024
  1

  0
INSERT
  5
20E
  8
_________1
 62
     7
  2
AIGNBL03020025
 10
0.0
 20
0.0
 30
0.0
  0
ENDBLK
  5
20F
  8
_________1
  0
BLOCK
  8
_________1
  2
AIGNBL03010026
 70
     0
 10
0.0
 20
0.0
 30
0.0
  3
AIGNBL03010026
  1

  0
INSERT
  5
212
  8
_________1
 62
     7
  2
AIGNBL03020027
 10
0.0
 20
0.0
 30
0.0
  0
ENDBLK
  5
213
  8
_________1
  0
BLOCK
  8
_________1
  2
AIGNBL03010028
 70
     0
 10
0.0
 20
0.0
 30
0.0
  3
AIGNBL03010028
  1

  0
ARC
  5
216
  8
_________1
 62
     7
 10
151.69404
 20
59.716270999999999
 30
0.0
 40
0.333353
 50
133.74391700000001
 51
142.35218399999999
  0
ARC
  5
217
  8
_________1
 62
     7
 10
151.803336
 20
59.619207000000003
 30
0.0
 40
0.4792860000000001
 50
141.14528899999999
 51
169.01172399999999
  0
ARC
  5
218
  8
_________1
 62
     7
 10
151.69809699999999
 20
59.653072999999999
 30
0.0
 40
0.369757
 50
171.05539999999999
 51
215.449657
  0
ARC
  5
219
  8
_________1
 62
     7
 10
151.89993799999999
 20
59.775819999999989
 30
0.0
 40
0.605614
 50
213.834247
 51
227.0081779999999
  0
ARC
  5
21A
  8
_________1
 62
     7
 10
151.206761
 20
59.641266000000002
 30
0.0
 40
0.39892
 50
44.618989999999997
 51
52.346415000000007
  0
ARC
  5
21B
  8
_________1
 62
     7
 10
151.13601299999999
 20
59.557722999999989
 30
0.0
 40
0.5080510000000001
 50
18.499051999999999
 51
45.721164999999992
  0
ARC
  5
21C
  8
_________1
 62
     7
 10
151.30784
 20
59.631802
 30
0.0
 40
0.321983
 50
327.50427300000001
 51
15.698349
  0
ARC
  5
21D
  8
_________1
 62
     7
 10
151.129819
 20
59.732678
 30
0.0
 40
0.5264310000000001
 50
312.72224799999998
 51
328.653435
  0
ARC
  5
21E
  8
_________1
 62
     7
 10
151.98810599999999
 20
58.818677000000001
 30
0.0
 40
0.727416
 50
133.54478
 51
146.682221
  0
ARC
  5
21F
  8
_________1
 62
     7
 10
151.69329500000001
 20
59.019376999999999
 30
0.0
 40
0.370865
 50
147.57484500000001
 51
178.27186599999999
  0
ARC
  5
220
  8
_________1
 62
     7
 10
151.637328
 20
59.036923000000002
 30
0.0
 40
0.314793
 50
181.15811099999999
 51
217.50873300000001
  0
ARC
  5
221
  8
_________1
 62
     7
 10
151.81105500000001
 20
59.151170999999991
 30
0.0
 40
0.5223870000000001
 50
215.84667799999991
 51
238.12585799999999
  0
ARC
  5
222
  8
_________1
 62
     7
 10
149.43596599999989
 20
58.951354000000002
 30
0.0
 40
0.337715
 50
313.87192800000003
 51
322.36093700000009
  0
ARC
  5
223
  8
_________1
 62
     7
 10
149.32981699999999
 20
59.045124000000001
 30
0.0
 40
0.4791280000000001
 50
321.23315000000002
 51
349.10494
  0
ARC
  5
224
  8
_________1
 62
     7
 10
149.43339700000001
 20
59.011673999999999
 30
0.0
 40
0.37133
 50
351.15288099999998
 51
35.417028000000002
  0
ARC
  5
225
  8
_________1
 62
     7
 10
149.229927
 20
58.887836999999998
 30
0.0
 40
0.609152
 50
33.818371999999997
 51
46.931133000000003
  0
ARC
  5
226
  8
_________1
 62
     7
 10
149.91894300000001
 20
59.015127
 30
0.0
 40
0.387726
 50
224.46518399999999
 51
232.40891500000001
  0
ARC
  5
227
  8
_________1
 62
     7
 10
149.99741
 20
59.107038000000003
 30
0.0
 40
0.508219
 50
198.46469500000001
 51
225.66374300000001
  0
ARC
  5
228
  8
_________1
 62
     7
 10
149.82586599999999
 20
59.033228000000001
 30
0.0
 40
0.3225099999999999
 50
147.570875
 51
195.67816899999991
  0
ARC
  5
229
  8
_________1
 62
     7
 10
150.003916
 20
58.932345999999988
 30
0.0
 40
0.526994
 50
132.79280199999999
 51
148.69414499999999
  0
ARC
  5
22A
  8
_________1
 62
     7
 10
149.14612199999999
 20
59.84616299999999
 30
0.0
 40
0.7263720000000001
 50
313.47607199999999
 51
326.64443599999998
  0
ARC
  5
22B
  8
_________1
 62
     7
 10
149.439528
 20
59.646205000000002
 30
0.0
 40
0.371397
 50
327.52313800000002
 51
358.19661600000001
  0
ARC
  5
22C
  8
_________1
 62
     7
 10
149.495926
 20
59.62847
 30
0.0
 40
0.314873
 50
1.1003940000000001
 51
37.453614000000002
  0
ARC
  5
22D
  8
_________1
 62
     7
 10
149.32287199999999
 20
59.515065999999997
 30
0.0
 40
0.521436
 50
35.781835000000008
 51
58.107568000000008
  0
ENDBLK
  5
22E
  8
_________1
  0
BLOCK
  8
_________1
  2
AIGNBL03010029
 70
     0
 10
0.0
 20
0.0
 30
0.0
  3
AIGNBL03010029
  1

  0
LINE
  5
231
  8
_________1
 62
     7
 10
127.22199999999999
 20
158.76900000000001
 30
0.0
 11
127.22199999999999
 21
160.01900000000001
 31
0.0
  0
LINE
  5
232
  8
_________1
 62
     7
 10
128.47200000000001
 20
158.76900000000001
 30
0.0
 11
128.47200000000001
 21
160.01900000000001
 31
0.0
  0
LINE
  5
233
  8
_________1
 62
     7
 10
127.22199999999999
 20
161.26900000000001
 30
0.0
 11
127.22199999999999
 21
162.51900000000001
 31
0.0
  0
LINE
  5
234
  8
_________1
 62
     7
 10
128.47200000000001
 20
161.26900000000001
 30
0.0
 11
128.47200000000001
 21
162.51900000000001
 31
0.0
  0
LINE
  5
235
  8
_________1
 62
     7
 10
126.797
 20
157.51900000000001
 30
0.0
 11
126.797
 21
158.76900000000001
 31
0.0
  0
LINE
  5
236
  8
_________1
 62
     7
 10
126.797
 20
158.76900000000001
 30
0.0
 11
128.89699999999999
 21
158.76900000000001
 31
0.0
  0
LINE
  5
237
  8
_________1
 62
     7
 10
128.89699999999999
 20
158.76900000000001
 30
0.0
 11
128.89699999999999
 21
157.51900000000001
 31
0.0
  0
LINE
  5
238
  8
_________1
 62
     7
 10
128.89699999999999
 20
157.51900000000001
 30
0.0
 11
126.797
 21
157.51900000000001
 31
0.0
  0
LINE
  5
239
  8
_________1
 62
     7
 10
121.59699999999999
 20
160.01900000000001
 30
0.0
 11
121.59699999999999
 21
161.26900000000001
 31
0.0
  0
LINE
  5
23A
  8
_________1
 62
     7
 10
121.59699999999999
 20
161.26900000000001
 30
0.0
 11
134.09700000000001
 21
161.26900000000001
 31
0.0
  0
LINE
  5
23B
  8
_________1
 62
     7
 10
134.09700000000001
 20
161.26900000000001
 30
0.0
 11
134.09700000000001
 21
160.01900000000001
 31
0.0
  0
LINE
  5
23C
  8
_________1
 62
     7
 10
134.09700000000001
 20
160.01900000000001
 30
0.0
 11
121.59699999999999
 21
160.01900000000001
 31
0.0
  0
LINE
  5
23D
  8
_________1
 62
     7
 10
121.59699999999999
 20
162.51900000000001
 30
0.0
 11
121.59699999999999
 21
162.89400000000001
 31
0.0
  0
LINE
  5
23E
  8
_________1
 62
     7
 10
121.59699999999999
 20
162.89400000000001
 30
0.0
 11
134.09700000000001
 21
162.89400000000001
 31
0.0
  0
LINE
  5
23F
  8
_________1
 62
     7
 10
134.09700000000001
 20
162.89400000000001
 30
0.0
 11
134.09700000000001
 21
162.51900000000001
 31
0.0
  0
LINE
  5
240
  8
_________1
 62
     7
 10
134.09700000000001
 20
162.51900000000001
 30
0.0
 11
121.59699999999999
 21
162.51900000000001
 31
0.0
  0
LINE
  5
241
  8
_________1
 62
     7
 10
122.34699999999999
 20
162.89400000000001
 30
0.0
 11
122.34699999999999
 21
163.14400000000001
 31
0.0
  0
LINE
  5
242
  8
_________1
 62
     7
 10
122.34699999999999
 20
163.14400000000001
 30
0.0
 11
133.34700000000001
 21
163.14400000000001
 31
0.0
  0
LINE
  5
243
  8
_________1
 62
     7
 10
133.34700000000001
 20
163.14400000000001
 30
0.0
 11
133.34700000000001
 21
162.89400000000001
 31
0.0
  0
LINE
  5
244
  8
_________1
 62
     7
 10
133.34700000000001
 20
162.89400000000001
 30
0.0
 11
122.34699999999999
 21
162.89400000000001
 31
0.0
  0
LINE
  5
245
  8
_________1
 62
     7
 10
128.09899999999999
 20
170.64400000000001
 30
0.0
 11
128.09899999999999
 21
169.19399999999999
 31
0.0
  0
ARC
  5
246
  8
_________1
 62
     7
 10
127.844814
 20
169.195797
 30
0.0
 40
0.254641
 50
315.05220500000001
 51
359.67665800000009
  0
ARC
  5
247
  8
_________1
 62
     7
 10
127.84793000000001
 20
169.19176300000001
 30
0.0
 40
0.249586
 50
269.84809100000001
 51
315.20229799999998
  0
ARC
  5
248
  8
_________1
 62
     7
 10
127.848693
 20
169.19847300000001
 30
0.0
 40
0.2563
 50
225.424915
 51
269.68138699999997
  0
ARC
  5
249
  8
_________1
 62
     7
 10
127.852029
 20
169.19605300000001
 30
0.0
 40
0.256949
 50
180.37753499999999
 51
224.516223
  0
LINE
  5
24A
  8
_________1
 62
     7
 10
127.595
 20
169.19399999999999
 30
0.0
 11
127.595
 21
170.64400000000001
 31
0.0
  0
LINE
  5
24B
  8
_________1
 62
     7
 10
131.88200000000001
 20
168.62700000000001
 30
0.0
 11
131.88200000000001
 21
170.64400000000001
 31
0.0
  0
LINE
  5
24C
  8
_________1
 62
     7
 10
123.75
 20
168.62700000000001
 30
0.0
 11
131.88200000000001
 21
168.62700000000001
 31
0.0
  0
LINE
  5
24D
  8
_________1
 62
     7
 10
131.88200000000001
 20
168.62700000000001
 30
0.0
 11
132.196
 21
170.64400000000001
 31
0.0
  0
LINE
  5
24E
  8
_________1
 62
     7
 10
123.75
 20
170.64400000000001
 30
0.0
 11
123.75
 21
168.62700000000001
 31
0.0
  0
LINE
  5
24F
  8
_________1
 62
     7
 10
123.75
 20
168.62700000000001
 30
0.0
 11
123.435
 21
170.64400000000001
 31
0.0
  0
LINE
  5
250
  8
_________1
 62
     7
 10
123.131
 20
170.89599999999999
 30
0.0
 11
132.56399999999999
 21
170.89599999999999
 31
0.0
  0
LINE
  5
251
  8
_________1
 62
     7
 10
132.56399999999999
 20
170.89599999999999
 30
0.0
 11
133.005
 21
170.89599999999999
 31
0.0
  0
LINE
  5
252
  8
_________1
 62
     7
 10
133.005
 20
170.89599999999999
 30
0.0
 11
133.005
 21
170.64400000000001
 31
0.0
  0
LINE
  5
253
  8
_________1
 62
     7
 10
133.005
 20
170.64400000000001
 30
0.0
 11
122.627
 21
170.64400000000001
 31
0.0
  0
LINE
  5
254
  8
_________1
 62
     7
 10
122.627
 20
170.64400000000001
 30
0.0
 11
122.627
 21
170.89599999999999
 31
0.0
  0
LINE
  5
255
  8
_________1
 62
     7
 10
122.627
 20
170.89599999999999
 30
0.0
 11
123.131
 21
170.89599999999999
 31
0.0
  0
INSERT
  5
256
  8
_________1
 62
     7
  2
AIGNBL0302002A
 10
0.0
 20
0.0
 30
0.0
  0
LINE
  5
257
  8
_________1
  6
AIGENLINE001
 62
     7
 10
126.907
 20
156.875
 30
0.0
 11
126.907
 21
120.846
 31
0.0
  0
LINE
  5
258
  8
_________1
 62
     7
 10
128.40700000000001
 20
155.126
 30
0.0
 11
127.89
 21
155.64400000000001
 31
0.0
  0
LINE
  5
259
  8
_________1
 62
     7
 10
125.925
 20
155.64400000000001
 30
0.0
 11
125.407
 21
155.126
 31
0.0
  0
LINE
  5
25A
  8
_________1
 62
     7
 10
128.40700000000001
 20
154.02500000000001
 30
0.0
 11
126.789
 21
155.64400000000001
 31
0.0
  0
LINE
  5
25B
  8
_________1
 62
     7
 10
127.026
 20
155.64400000000001
 30
0.0
 11
125.407
 21
154.02500000000001
 31
0.0
  0
LINE
  5
25C
  8
_________1
 62
     7
 10
128.40700000000001
 20
152.92400000000001
 30
0.0
 11
125.688
 21
155.64400000000001
 31
0.0
  0
LINE
  5
25D
  8
_________1
 62
     7
 10
128.12700000000001
 20
155.64400000000001
 30
0.0
 11
125.407
 21
152.92400000000001
 31
0.0
  0
LINE
  5
25E
  8
_________1
 62
     7
 10
127.68600000000001
 20
152.54400000000001
 30
0.0
 11
125.407
 21
154.82300000000001
 31
0.0
  0
LINE
  5
25F
  8
_________1
 62
     7
 10
128.40700000000001
 20
154.82300000000001
 30
0.0
 11
126.128
 21
152.54400000000001
 31
0.0
  0
LINE
  5
260
  8
_________1
 62
     7
 10
126.58499999999999
 20
152.54400000000001
 30
0.0
 11
125.407
 21
153.72200000000001
 31
0.0
  0
LINE
  5
261
  8
_________1
 62
     7
 10
128.40700000000001
 20
153.72200000000001
 30
0.0
 11
127.229
 21
152.54400000000001
 31
0.0
  0
LINE
  5
262
  8
_________1
 62
     7
 10
128.40700000000001
 20
126.422
 30
0.0
 11
128.40700000000001
 21
155.64400000000001
 31
0.0
  0
LINE
  5
263
  8
_________1
 62
     7
 10
125.407
 20
126.422
 30
0.0
 11
125.407
 21
155.64400000000001
 31
0.0
  0
ENDBLK
  5
264
  8
_________1
  0
BLOCK
  8
_________1
  2
AIGNBL0301002C
 70
     0
 10
0.0
 20
0.0
 30
0.0
  3
AIGNBL0301002C
  1

  0
LINE
  5
267
  8
_________1
 62
     7
 10
77.001000000000005
 20
227.05000000000001
 30
0.0
 11
78.231399999999994
 21
228.98099999999999
 31
0.0
  0
LINE
  5
268
  8
_________1
 62
     7
 10
78.231399999999994
 20
228.98099999999999
 30
0.0
 11
76.200100000000006
 21
227.92400000000001
 31
0.0
  0
LINE
  5
269
  8
_________1
 62
     7
 10
76.200100000000006
 20
227.92400000000001
 30
0.0
 11
77.001000000000005
 21
227.05000000000001
 31
0.0
  0
LINE
  5
26A
  8
_________1
 62
     7
 10
54.621600000000001
 20
227.96899999999999
 30
0.0
 11
52.567700000000002
 21
228.98099999999999
 31
0.0
  0
LINE
  5
26B
  8
_________1
 62
     7
 10
52.567700000000002
 20
228.98099999999999
 30
0.0
 11
53.840299999999999
 21
227.077
 31
0.0
  0
LINE
  5
26C
  8
_________1
 62
     7
 10
53.840299999999999
 20
227.077
 30
0.0
 11
54.621600000000001
 21
227.96899999999999
 31
0.0
  0
ARC
  5
26D
  8
_________1
 62
     7
 10
65.308775999999995
 20
242.032399
 30
0.0
 40
18.366305000000001
 50
270.280417
 51
314.71686399999999
  0
ARC
  5
26E
  8
_________1
 62
     7
 10
65.487187000000006
 20
242.026622
 30
0.0
 40
18.360520999999999
 50
225.278817
 51
269.72375499999998
  0
ENDBLK
  5
26F
  8
_________1
  0
BLOCK
  8
_________1
  2
AIGNBL0301002D
 70
     0
 10
0.0
 20
0.0
 30
0.0
  3
AIGNBL0301002D
  1

  0
LINE
  5
272
  8
_________1
  6
AIGENLINE002
 62
     7
 10
126.01900000000001
 20
201.815
 30
0.0
 11
122.367
 21
203.33500000000001
 31
0.0
  0
ARC
  5
273
  8
_________1
  6
AIGENLINE002
 62
     7
 10
123.713849
 20
206.59382600000001
 30
0.0
 40
3.525989
 50
216.482821
 51
247.53982500000001
  0
LINE
  5
274
  8
_________1
  6
AIGENLINE002
 62
     7
 10
120.879
 20
204.49700000000001
 30
0.0
 11
115.57899999999999
 21
211.53
 31
0.0
  0
LINE
  5
275
  8
_________1
  6
AIGENLINE002
 62
     7
 10
114.001
 20
210.34999999999999
 30
0.0
 11
119.24299999999999
 21
203.34299999999999
 31
0.0
  0
ARC
  5
276
  8
_________1
  6
AIGENLINE002
 62
     7
 10
125.01102299999999
 20
208.212941
 30
0.0
 40
7.5492089999999994
 50
220.17385899999999
 51
243.0963569999999
  0
LINE
  5
277
  8
_________1
  6
AIGENLINE002
 62
     7
 10
121.595
 20
201.48099999999999
 30
0.0
 11
125.248
 21
199.96100000000001
 31
0.0
  0
LINE
  5
278
  8
_________1
  6
AIGENLINE002
 62
     7
 10
115.57899999999999
 20
211.53
 30
0.0
 11
115.34699999999999
 21
211.626
 31
0.0
  0
LINE
  5
279
  8
_________1
  6
AIGENLINE002
 62
     7
 10
115.34699999999999
 20
211.626
 30
0.0
 11
113.958
 21
210.57300000000001
 31
0.0
  0
LINE
  5
27A
  8
_________1
  6
AIGENLINE002
 62
     7
 10
113.958
 20
210.57300000000001
 30
0.0
 11
114.001
 21
210.34999999999999
 31
0.0
  0
LINE
  5
27B
  8
_________1
  6
AIGENLINE002
 62
     7
 10
114.001
 20
210.34999999999999
 30
0.0
 11
115.57899999999999
 21
211.53
 31
0.0
  0
ENDBLK
  5
27C
  8
_________1
  0
BLOCK
  8
_________1
  2
AIGNBL0301002E
 70
     0
 10
0.0
 20
0.0
 30
0.0
  3
AIGNBL0301002E
  1

  0
INSERT
  5
27F
  8
_________1
 62
     7
  2
AIGNBL0302002F
 10
0.0
 20
0.0
 30
0.0
  0
ENDBLK
  5
280
  8
_________1
  0
BLOCK
  8
_________1
  2
AIGNBL03010030
 70
     0
 10
0.0
 20
0.0
 30
0.0
  3
AIGNBL03010030
  1

  0
LINE
  5
283
  8
_________1
 62
     7
 10
132.65899999999999
 20
237.84
 30
0.0
 11
130.67699999999999
 21
238.98400000000001
 31
0.0
  0
LINE
  5
284
  8
_________1
 62
     7
 10
130.67699999999999
 20
238.98400000000001
 30
0.0
 11
131.821
 21
237.00200000000001
 31
0.0
  0
LINE
  5
285
  8
_________1
 62
     7
 10
131.821
 20
237.00200000000001
 30
0.0
 11
132.65899999999999
 21
237.84
 31
0.0
  0
LINE
  5
286
  8
_________1
 62
     7
 10
123.029
 20
245.79499999999999
 30
0.0
 11
125.011
 21
244.65100000000001
 31
0.0
  0
LINE
  5
287
  8
_________1
 62
     7
 10
125.011
 20
244.65100000000001
 30
0.0
 11
123.867
 21
246.63300000000001
 31
0.0
  0
LINE
  5
288
  8
_________1
 62
     7
 10
123.867
 20
246.63300000000001
 30
0.0
 11
123.029
 21
245.79499999999999
 31
0.0
  0
LINE
  5
289
  8
_________1
 62
     7
 10
125.021
 20
244.642
 30
0.0
 11
130.67699999999999
 21
238.98400000000001
 31
0.0
  0
ENDBLK
  5
28A
  8
_________1
  0
BLOCK
  8
_________1
  2
AIGNBL03010031
 70
     0
 10
0.0
 20
0.0
 30
0.0
  3
AIGNBL03010031
  1

  0
INSERT
  5
28D
  8
_________1
 62
     7
  2
AIGNBL03020032
 10
0.0
 20
0.0
 30
0.0
  0
ENDBLK
  5
28E
  8
_________1
  0
BLOCK
  8
_________1
  2
AIGNBL03010033
 70
     0
 10
0.0
 20
0.0
 30
0.0
  3
AIGNBL03010033
  1

  0
INSERT
  5
291
  8
_________1
 62
     7
  2
AIGNBL03020034
 10
0.0
 20
0.0
 30
0.0
  0
ENDBLK
  5
292
  8
_________1
  0
BLOCK
  8
_________1
  2
AIGNBL03010035
 70
     0
 10
0.0
 20
0.0
 30
0.0
  3
AIGNBL03010035
  1

  0
INSERT
  5
295
  8
_________1
 62
     7
  2
AIGNBL03020036
 10
0.0
 20
0.0
 30
0.0
  0
ENDBLK
  5
296
  8
_________1
  0
BLOCK
  8
_________1
  2
AIGNBL03010037
 70
     0
 10
0.0
 20
0.0
 30
0.0
  3
AIGNBL03010037
  1

  0
INSERT
  5
299
  8
_________1
 62
     7
  2
AIGNBL03020038
 10
0.0
 20
0.0
 30
0.0
  0
ENDBLK
  5
29A
  8
_________1
  0
BLOCK
  8
_________1
  2
AIGNBL03010039
 70
     0
 10
0.0
 20
0.0
 30
0.0
  3
AIGNBL03010039
  1

  0
INSERT
  5
29D
  8
_________1
 62
     7
  2
AIGNBL0302003A
 10
0.0
 20
0.0
 30
0.0
  0
ENDBLK
  5
29E
  8
_________1
  0
BLOCK
  8
_________1
  2
AIGNBL0301003B
 70
     0
 10
0.0
 20
0.0
 30
0.0
  3
AIGNBL0301003B
  1

  0
INSERT
  5
2A1
  8
_________1
 62
     7
  2
AIGNBL0302003C
 10
0.0
 20
0.0
 30
0.0
  0
ENDBLK
  5
2A2
  8
_________1
  0
BLOCK
  8
_________2
  2
AIGNBL04010002
 70
     0
 10
0.0
 20
0.0
 30
0.0
  3
AIGNBL04010002
  1

  0
LINE
  5
2A5
  8
_________2
 62
     7
 10
76.741
 20
29.8047
 30
0.0
 11
74.554699999999997
 21
29.8047
 31
0.0
  0
LINE
  5
2A6
  8
_________2
 62
     7
 10
77.233699999999999
 20
29.8047
 30
0.0
 11
76.981499999999997
 21
29.8047
 31
0.0
  0
LINE
  5
2A7
  8
_________2
 62
     7
 10
77.726299999999995
 20
29.8047
 30
0.0
 11
80.651200000000003
 21
29.8047
 31
0.0
  0
LINE
  5
2A8
  8
_________2
 62
     7
 10
77.233699999999999
 20
29.8047
 30
0.0
 11
77.485500000000002
 21
29.8047
 31
0.0
  0
LINE
  5
2A9
  8
_________2
 62
     7
 10
70.837100000000007
 20
29.8047
 30
0.0
 11
68.650499999999994
 21
29.8047
 31
0.0
  0
LINE
  5
2AA
  8
_________2
 62
     7
 10
71.329400000000007
 20
29.8047
 30
0.0
 11
71.077600000000004
 21
29.8047
 31
0.0
  0
LINE
  5
2AB
  8
_________2
 62
     7
 10
71.329400000000007
 20
30.2974
 30
0.0
 11
71.329400000000007
 21
32.484400000000001
 31
0.0
  0
LINE
  5
2AC
  8
_________2
 62
     7
 10
71.329400000000007
 20
29.8047
 30
0.0
 11
71.329400000000007
 21
30.056899999999999
 31
0.0
  0
LINE
  5
2AD
  8
_________2
 62
     7
 10
71.822100000000006
 20
29.8047
 30
0.0
 11
74.009
 21
29.8047
 31
0.0
  0
LINE
  5
2AE
  8
_________2
 62
     7
 10
71.329400000000007
 20
29.8047
 30
0.0
 11
71.581599999999995
 21
29.8047
 31
0.0
  0
LINE
  5
2AF
  8
_________2
 62
     7
 10
71.329400000000007
 20
29.312799999999999
 30
0.0
 11
71.329400000000007
 21
27.125800000000002
 31
0.0
  0
LINE
  5
2B0
  8
_________2
 62
     7
 10
71.329400000000007
 20
29.8047
 30
0.0
 11
71.329400000000007
 21
29.5532
 31
0.0
  0
LINE
  5
2B1
  8
_________2
 62
     7
 10
75.040499999999994
 20
28.5852
 30
0.0
 11
80.218500000000006
 21
27.720400000000001
 31
0.0
  0
LINE
  5
2B2
  8
_________2
 62
     7
 10
75.040499999999994
 20
31.0243
 30
0.0
 11
80.218500000000006
 21
31.889700000000001
 31
0.0
  0
LINE
  5
2B3
  8
_________2
 62
     7
 10
80.218500000000006
 20
27.720400000000001
 30
0.0
 11
80.218500000000006
 21
31.889700000000001
 31
0.0
  0
LINE
  5
2B4
  8
_________2
 62
     7
 10
75.040499999999994
 20
28.5852
 30
0.0
 11
75.040499999999994
 21
31.0243
 31
0.0
  0
ARC
  5
2B5
  8
_________2
 62
     7
 10
71.28285600000001
 20
29.757811
 30
0.0
 40
1.2673589999999999
 50
2.122214
 51
87.893958999999995
  0
ARC
  5
2B6
  8
_________2
 62
     7
 10
71.375959999999992
 20
29.758213000000001
 30
0.0
 40
1.2669559999999991
 50
92.104701000000006
 51
177.89526900000001
  0
ARC
  5
2B7
  8
_________2
 62
     7
 10
71.376357999999996
 20
29.851671
 30
0.0
 40
1.2673680000000001
 50
182.12203600000001
 51
267.877993
  0
ARC
  5
2B8
  8
_________2
 62
     7
 10
71.282531999999989
 20
29.851998999999999
 30
0.0
 40
1.267695999999999
 50
272.12015300000002
 51
357.863674
  0
ARC
  5
2B9
  8
_________2
 62
     7
 10
71.329430000000002
 20
29.804742999999998
 30
0.0
 40
2.0849849999999992
 50
0.00001
 51
89.999980000000008
  0
ARC
  5
2BA
  8
_________2
 62
     7
 10
71.329603000000006
 20
29.804915000000001
 30
0.0
 40
2.084813
 50
90.004733999999999
 51
180.00474399999999
  0
ARC
  5
2BB
  8
_________2
 62
     7
 10
71.409106000000008
 20
29.884775999999999
 30
0.0
 40
2.1657950000000001
 50
182.11776599999999
 51
267.89173399999999
  0
ARC
  5
2BC
  8
_________2
 62
     7
 10
71.249459000000002
 20
29.885429999999999
 30
0.0
 40
2.1664590000000001
 50
272.11546800000002
 51
357.86560400000002
  0
ENDBLK
  5
2BD
  8
_________2
  0
ENDSEC
  0
SECTION
  2
ENTITIES
  0
TEXT
  5
2BE
  8
____
 62
     7
 10
93.647634999999994
 20
159.76300000000001
 30
0.0
 40
3.0923400000000001
  1
35%%d
 41
0.5
 72
     1
 11
95.451499999999996
 21
159.76300000000001
 31
0.0
  0
TEXT
  5
2BF
  8
____
 62
     7
 10
89.652600000000007
 20
173.60252500000001
 30
0.0
 40
3.0923400000000001
  1
35
 50
90.0
 41
0.5
 72
     1
 11
89.652600000000007
 21
174.89099999999999
 31
0.0
  0
TEXT
  5
2C0
  8
____
 62
     7
 10
109.098
 20
173.2273725
 30
0.0
 40
3.0923400000000001
  1
30
 50
90.0
 41
0.5
 72
     1
 11
109.098
 21
174.387
 31
0.0
  0
TEXT
  5
2C1
  8
____
 62
     7
 10
134.74922000000001
 20
182.29599999999999
 30
0.0
 40
3.0923400000000001
  1
21
 41
0.5
 72
     1
 11
135.78
 21
182.29599999999999
 31
0.0
  0
TEXT
  5
2C2
  8
____
 62
     7
 10
125.9162875
 20
182.029
 30
0.0
 40
3.0923400000000001
  1
%%c40
 41
0.5
 72
     1
 11
127.849
 21
182.029
 31
0.0
  0
TEXT
  5
2C3
  8
____
 62
     7
 10
134.31505000000001
 20
112.964
 30
0.0
 40
3.0923400000000001
  1
%%c6
 41
0.5
 72
     2
 11
136.892
 21
112.964
 31
0.0
  0
TEXT
  5
2C4
  8
____
 62
     7
 10
125.9162875
 20
164.80500000000001
 30
0.0
 40
3.0923400000000001
  1
%%c30
 41
0.5
 72
     1
 11
127.849
 21
164.80500000000001
 31
0.0
  0
TEXT
  5
2C5
  8
____
 62
     7
 10
48.752200000000002
 20
161.98437250000001
 30
0.0
 40
3.0923400000000001
  1
60
 50
90.0
 41
0.5
 72
     1
 11
48.752200000000002
 21
163.14400000000001
 31
0.0
  0
TEXT
  5
2C6
  8
____
 62
     7
 10
54.597700000000003
 20
162.6754225
 30
0.0
 40
3.0923400000000001
  1
max.50
 50
90.0
 41
0.5
 72
     1
 11
54.597700000000003
 21
166.41200000000001
 31
0.0
  0
TEXT
  5
2C7
  8
____
 62
     7
 10
54.704999999999998
 20
83.444199999999995
 30
0.0
 40
3.0923400000000001
  1
%%c10
 41
0.5
  0
TEXT
  5
2C8
  8
____
 62
     7
 10
48.866599999999998
 20
183.49398249999999
 30
0.0
 40
3.0923400000000001
  1
120
 50
90.0
 41
0.5
 72
     1
 11
48.866599999999998
 21
185.16900000000001
 31
0.0
  0
INSERT
  5
2C9
  8
____
 62
     7
  2
AIGNBL01010002
 10
0.0
 20
0.0
 30
0.0
  0
TEXT
  5
2CA
  8
____
 62
     7
 10
144.95013499999999
 20
44.022100000000002
 30
0.0
 40
3.0923400000000001
  1
215
 41
0.5
 72
     1
 11
146.75399999999999
 21
44.022100000000002
 31
0.0
  0
TEXT
  5
2CB
  8
____
 62
     7
 10
125.78744
 20
83.629900000000006
 30
0.0
 40
3.0923400000000001
  1
%%c64
 41
0.5
 72
     1
 11
127.849
 21
83.629900000000006
 31
0.0
  0
TEXT
  5
2CC
  8
____
 62
     7
 10
153.90700000000001
 20
64.091549999999998
 30
0.0
 40
3.0923400000000001
  1
%%c5
 50
90.0
 41
0.5
 72
     2
 11
153.90700000000001
 21
66.668499999999995
 31
0.0
  0
TEXT
  5
2CD
  8
____
 62
     7
 10
110.988
 20
66.431028999999995
 30
0.0
 40
3.0923400000000001
  1
 max.50,
 50
90.0
 41
0.5
 72
     1
 11
110.988
 21
71.018000000000001
 31
0.0
  0
TEXT
  5
2CE
  8
____
 62
     7
 10
114.854
 20
67.667964999999995
 30
0.0
 40
3.0923400000000001
  1
min.45
 50
90.0
 41
0.5
 72
     1
 11
114.854
 21
71.018000000000001
 31
0.0
  0
TEXT
  5
2CF
  8
____
 62
     7
 10
115.05800000000001
 20
58.676924999999997
 30
0.0
 40
3.0923400000000001
  1
44
 50
90.0
 41
0.5
 72
     1
 11
115.05800000000001
 21
59.965400000000002
 31
0.0
  0
TEXT
  5
2D0
  8
____
 62
     7
 10
80.329099999999997
 20
226.226
 30
0.0
 40
3.0923400000000001
  1
水
 41
0.5
  0
TEXT
  5
2D1
  8
____
 62
     7
 10
48.932808000000001
 20
226.226
 30
0.0
 40
3.0923400000000001
  1
湯
 41
0.5
 72
     2
 11
50.375900000000001
 21
226.226
 31
0.0
  0
TEXT
  5
2D2
  8
____
 62
     7
 10
135.768136
 20
236.624
 30
0.0
 40
3.0923400000000001
  1
%%c32～35
 41
0.5
 72
     2
 11
144.839
 21
236.624
 31
0.0
  0
TEXT
  5
2D3
  8
____
 62
     7
 10
106.396986
 20
202.322
 30
0.0
 40
3.0923400000000001
  1
閉
 41
0.5
 72
     2
 11
107.73699999999999
 21
202.322
 31
0.0
  0
TEXT
  5
2D4
  8
____
 62
     7
 10
113.367454
 20
212.31700000000001
 30
0.0
 40
3.0923400000000001
  1
開
 41
0.5
 72
     1
 11
114.089
 21
212.31700000000001
 31
0.0
  0
TEXT
  5
2D5
  8
____
 62
     7
 10
123.416646
 20
230.20500000000001
 30
0.0
 40
3.0923400000000001
  1
水栓取付穴
 41
0.5
 72
     1
 11
127.849
 21
230.20500000000001
 31
0.0
  0
TEXT
  5
2D6
  8
____
 62
     7
 10
112.0449825
 20
222.15700000000001
 30
0.0
 40
3.0923400000000001
  1
107
 41
0.5
 72
     1
 11
113.72
 21
222.15700000000001
 31
0.0
  0
TEXT
  5
2D7
  8
____
 62
     7
 10
116.283525
 20
217.34100000000001
 30
0.0
 40
3.0923400000000001
  1
78
 41
0.5
 72
     1
 11
117.572
 21
217.34100000000001
 31
0.0
  0
TEXT
  5
2D8
  8
____
 62
     7
 10
145.61099999999999
 20
188.57713499999991
 30
0.0
 40
3.0923400000000001
  1
164
 50
90.0
 41
0.5
 72
     1
 11
145.61099999999999
 21
190.381
 31
0.0
  0
TEXT
  5
2D9
  8
____
 62
     7
 10
77.601799999999997
 20
129.84728749999999
 30
0.0
 40
3.0923400000000001
  1
480
 50
90.0
 41
0.5
 72
     1
 11
77.601799999999997
 21
131.78
 31
0.0
  0
TEXT
  5
2DA
  8
____
 62
     7
 10
145.75399999999999
 20
130.10498250000001
 30
0.0
 40
3.0923400000000001
  1
310
 50
90.0
 41
0.5
 72
     1
 11
145.75399999999999
 21
131.78
 31
0.0
  0
LINE
  5
2DB
  8
_________4
 62
     7
 10
68.349100000000007
 20
126.334
 30
0.0
 11
68.349100000000007
 21
155.64400000000001
 31
0.0
  0
LINE
  5
2DC
  8
_________4
 62
     7
 10
65.349100000000007
 20
126.334
 30
0.0
 11
65.349100000000007
 21
155.64400000000001
 31
0.0
  0
LINE
  5
2DD
  8
_________4
  6
AIGENLINE001
 62
     7
 10
66.849100000000007
 20
86.637799999999999
 30
0.0
 11
66.849100000000007
 21
158.43000000000001
 31
0.0
  0
INSERT
  5
2DE
  8
_________4
 62
     7
  2
AIGNBL02010002
 10
0.0
 20
0.0
 30
0.0
  0
ARC
  5
2DF
  8
_________1
 62
     7
 10
102.871392
 20
179.4701639999999
 30
0.0
 40
16.704754000000001
 50
218.843636
 51
269.54205400000001
  0
ARC
  5
2E0
  8
_________1
 62
     7
 10
102.739985
 20
179.35968
 30
0.0
 40
16.593737000000001
 50
269.99272500000001
 51
279.56417900000002
  0
INSERT
  5
2E1
  8
_________1
 62
     7
  2
AIGNBL03010002
 10
0.0
 20
0.0
 30
0.0
  0
LINE
  5
2E2
  8
_________1
 62
     7
 10
99.615900000000011
 20
177.03999999999999
 30
0.0
 11
91.535899999999984
 21
165.71299999999999
 31
0.0
  0
INSERT
  5
2E3
  8
_________1
 62
     7
  2
AIGNBL03010003
 10
0.0
 20
0.0
 30
0.0
  0
LINE
  5
2E4
  8
_________1
 62
     7
 10
110.624
 20
177.84
 30
0.0
 11
104.03700000000001
 21
177.84
 31
0.0
  0
INSERT
  5
2E5
  8
_________1
 62
     7
  2
AIGNBL03010005
 10
0.0
 20
0.0
 30
0.0
  0
LINE
  5
2E6
  8
_________1
 62
     7
 10
100.04900000000001
 20
179.11699999999999
 30
0.0
 11
89.669899999999998
 21
179.11699999999999
 31
0.0
  0
INSERT
  5
2E7
  8
_________1
 62
     7
  2
AIGNBL03010007
 10
0.0
 20
0.0
 30
0.0
  0
INSERT
  5
2E8
  8
_________1
 62
     7
  2
AIGNBL03010008
 10
0.0
 20
0.0
 30
0.0
  0
INSERT
  5
2E9
  8
_________1
 62
     7
  2
AIGNBL0301000A
 10
0.0
 20
0.0
 30
0.0
  0
LINE
  5
2EA
  8
_________1
 62
     7
 10
89.652600000000007
 20
170.64400000000001
 30
0.0
 11
121.858
 21
170.64400000000001
 31
0.0
  0
LINE
  5
2EB
  8
_________1
 62
     7
 10
138.09999999999999
 20
177.054
 30
0.0
 11
138.09999999999999
 21
181.32400000000001
 31
0.0
  0
LINE
  5
2EC
  8
_________1
  6
AIGENLINE001
 62
     7
 10
118.033
 20
130.321
 30
0.0
 11
126.907
 21
120.846
 31
0.0
  0
LINE
  5
2ED
  8
_________1
 62
     7
 10
119.283
 20
93.143600000000006
 30
0.0
 11
116.783
 21
93.143600000000006
 31
0.0
  0
LINE
  5
2EE
  8
_________1
 62
     7
 10
119.283
 20
90.643399999999986
 30
0.0
 11
116.783
 21
90.643399999999986
 31
0.0
  0
LINE
  5
2EF
  8
_________1
 62
     7
 10
116.188
 20
102.23399999999999
 30
0.0
 11
116.188
 21
100.545
 31
0.0
  0
LINE
  5
2F0
  8
_________1
 62
     7
 10
116.188
 20
102.23399999999999
 30
0.0
 11
118.033
 21
102.23399999999999
 31
0.0
  0
LINE
  5
2F1
  8
_________1
 62
     7
 10
116.462
 20
100.27200000000001
 30
0.0
 11
116.462
 21
98.045299999999983
 31
0.0
  0
LINE
  5
2F2
  8
_________1
 62
     7
 10
116.462
 20
100.27200000000001
 30
0.0
 11
116.188
 21
100.545
 31
0.0
  0
LINE
  5
2F3
  8
_________1
 62
     7
 10
117.542
 20
100.27200000000001
 30
0.0
 11
117.542
 21
98.045299999999983
 31
0.0
  0
LINE
  5
2F4
  8
_________1
 62
     7
 10
117.151
 20
100.27200000000001
 30
0.0
 11
117.151
 21
98.045299999999983
 31
0.0
  0
LINE
  5
2F5
  8
_________1
 62
     7
 10
117.151
 20
100.27200000000001
 30
0.0
 11
116.462
 21
100.27200000000001
 31
0.0
  0
LINE
  5
2F6
  8
_________1
 62
     7
 10
118.033
 20
100.27200000000001
 30
0.0
 11
117.542
 21
100.27200000000001
 31
0.0
  0
ARC
  5
2F7
  8
_________1
 62
     7
 10
116.478407
 20
97.611593999999997
 30
0.0
 40
0.468549
 50
182.155484
 51
267.93208700000002
  0
ARC
  5
2F8
  8
_________1
 62
     7
 10
116.47845599999999
 20
97.577015000000003
 30
0.0
 40
0.468573
 50
92.073751000000001
 51
177.926219
  0
LINE
  5
2F9
  8
_________1
 62
     7
 10
117.151
 20
98.045299999999983
 30
0.0
 11
116.462
 21
98.045299999999983
 31
0.0
  0
LINE
  5
2FA
  8
_________1
 62
     7
 10
118.033
 20
98.045299999999983
 30
0.0
 11
117.542
 21
98.045299999999983
 31
0.0
  0
LINE
  5
2FB
  8
_________1
 62
     7
 10
116.783
 20
90.643399999999986
 30
0.0
 11
116.783
 21
97.143299999999996
 31
0.0
  0
LINE
  5
2FC
  8
_________1
 62
     7
 10
118.033
 20
97.143299999999996
 30
0.0
 11
116.462
 21
97.143299999999996
 31
0.0
  0
LINE
  5
2FD
  8
_________1
 62
     7
 10
119.878
 20
102.23399999999999
 30
0.0
 11
119.878
 21
100.545
 31
0.0
  0
LINE
  5
2FE
  8
_________1
 62
     7
 10
119.878
 20
102.23399999999999
 30
0.0
 11
118.033
 21
102.23399999999999
 31
0.0
  0
LINE
  5
2FF
  8
_________1
 62
     7
 10
119.605
 20
100.27200000000001
 30
0.0
 11
119.605
 21
98.045299999999983
 31
0.0
  0
LINE
  5
300
  8
_________1
 62
     7
 10
119.605
 20
100.27200000000001
 30
0.0
 11
119.878
 21
100.545
 31
0.0
  0
LINE
  5
301
  8
_________1
 62
     7
 10
118.524
 20
100.27200000000001
 30
0.0
 11
118.524
 21
98.045299999999983
 31
0.0
  0
LINE
  5
302
  8
_________1
 62
     7
 10
118.91500000000001
 20
100.27200000000001
 30
0.0
 11
118.91500000000001
 21
98.045299999999983
 31
0.0
  0
LINE
  5
303
  8
_________1
 62
     7
 10
118.91500000000001
 20
100.27200000000001
 30
0.0
 11
119.605
 21
100.27200000000001
 31
0.0
  0
LINE
  5
304
  8
_________1
 62
     7
 10
118.033
 20
100.27200000000001
 30
0.0
 11
118.524
 21
100.27200000000001
 31
0.0
  0
ARC
  5
305
  8
_________1
 62
     7
 10
119.587869
 20
97.577015000000003
 30
0.0
 40
0.468573
 50
2.073777999999999
 51
87.926211999999992
  0
ARC
  5
306
  8
_________1
 62
     7
 10
119.588555
 20
97.610955000000004
 30
0.0
 40
0.4678880000000001
 50
271.992727
 51
357.91974199999999
  0
LINE
  5
307
  8
_________1
 62
     7
 10
118.91500000000001
 20
98.045299999999983
 30
0.0
 11
119.605
 21
98.045299999999983
 31
0.0
  0
LINE
  5
308
  8
_________1
 62
     7
 10
118.033
 20
98.045299999999983
 30
0.0
 11
118.524
 21
98.045299999999983
 31
0.0
  0
LINE
  5
309
  8
_________1
 62
     7
 10
119.283
 20
90.643399999999986
 30
0.0
 11
119.283
 21
97.143299999999996
 31
0.0
  0
LINE
  5
30A
  8
_________1
 62
     7
 10
118.033
 20
97.143299999999996
 30
0.0
 11
119.605
 21
97.143299999999996
 31
0.0
  0
LINE
  5
30B
  8
_________1
 62
     7
 10
119.533
 20
102.235
 30
0.0
 11
119.533
 21
124.563
 31
0.0
  0
LINE
  5
30C
  8
_________1
 62
     7
 10
116.533
 20
102.235
 30
0.0
 11
116.533
 21
124.563
 31
0.0
  0
LINE
  5
30D
  8
_________1
  6
AIGENLINE001
 62
     7
 10
118.033
 20
130.321
 30
0.0
 11
118.033
 21
89.204800000000006
 31
0.0
  0
INSERT
  5
30E
  8
_________1
 62
     7
  2
AIGNBL0301000C
 10
0.0
 20
0.0
 30
0.0
  0
INSERT
  5
30F
  8
_________1
 62
     7
  2
AIGNBL0301000E
 10
0.0
 20
0.0
 30
0.0
  0
INSERT
  5
310
  8
_________1
 62
     7
  2
AIGNBL0301000F
 10
0.0
 20
0.0
 30
0.0
  0
LINE
  5
311
  8
_________1
 62
     7
 10
130.59899999999999
 20
93.143600000000006
 30
0.0
 11
129.09899999999999
 21
93.143600000000006
 31
0.0
  0
INSERT
  5
312
  8
_________1
 62
     7
  2
AIGNBL03010010
 10
0.0
 20
0.0
 30
0.0
  0
LINE
  5
313
  8
_________1
  6
AIGENLINE001
 62
     7
 10
129.84899999999999
 20
91.534700000000001
 30
0.0
 11
129.84899999999999
 21
157.25800000000001
 31
0.0
  0
LINE
  5
314
  8
_________1
 62
     7
 10
130.59899999999999
 20
93.143600000000006
 30
0.0
 11
130.59899999999999
 21
155.67699999999999
 31
0.0
  0
LINE
  5
315
  8
_________1
 62
     7
 10
129.09899999999999
 20
93.143600000000006
 30
0.0
 11
129.09899999999999
 21
155.67699999999999
 31
0.0
  0
LINE
  5
316
  8
_________1
 62
     7
 10
131.315
 20
160.01900000000001
 30
0.0
 11
131.315
 21
155.64400000000001
 31
0.0
  0
LINE
  5
317
  8
_________1
 62
     7
 10
131.315
 20
168.62700000000001
 30
0.0
 11
131.315
 21
163.14400000000001
 31
0.0
  0
LINE
  5
318
  8
_________1
 62
     7
 10
131.565
 20
163.14400000000001
 30
0.0
 11
131.565
 21
168.62700000000001
 31
0.0
  0
LINE
  5
319
  8
_________1
 62
     7
 10
124.315
 20
168.62700000000001
 30
0.0
 11
124.315
 21
163.14400000000001
 31
0.0
  0
LINE
  5
31A
  8
_________1
 62
     7
 10
124.066
 20
163.14400000000001
 30
0.0
 11
124.066
 21
168.62700000000001
 31
0.0
  0
LINE
  5
31B
  8
_________1
 62
     7
 10
131.315
 20
162.51900000000001
 30
0.0
 11
131.315
 21
161.26900000000001
 31
0.0
  0
LINE
  5
31C
  8
_________1
 62
     7
 10
131.565
 20
161.26900000000001
 30
0.0
 11
131.565
 21
162.51900000000001
 31
0.0
  0
LINE
  5
31D
  8
_________1
 62
     7
 10
124.315
 20
162.51900000000001
 30
0.0
 11
124.315
 21
161.26900000000001
 31
0.0
  0
LINE
  5
31E
  8
_________1
 62
     7
 10
124.066
 20
161.26900000000001
 30
0.0
 11
124.066
 21
162.51900000000001
 31
0.0
  0
LINE
  5
31F
  8
_________1
 62
     7
 10
124.315
 20
160.01900000000001
 30
0.0
 11
124.315
 21
155.64400000000001
 31
0.0
  0
LINE
  5
320
  8
_________1
 62
     7
 10
124.066
 20
155.89400000000001
 30
0.0
 11
124.066
 21
160.01900000000001
 31
0.0
  0
LINE
  5
321
  8
_________1
 62
     7
 10
124.066
 20
155.89400000000001
 30
0.0
 11
131.565
 21
155.89400000000001
 31
0.0
  0
LINE
  5
322
  8
_________1
 62
     7
 10
131.565
 20
160.01900000000001
 30
0.0
 11
131.565
 21
155.89400000000001
 31
0.0
  0
LINE
  5
323
  8
_________1
 62
     7
 10
131.565
 20
155.89400000000001
 30
0.0
 11
131.31399999999999
 21
155.64400000000001
 31
0.0
  0
LINE
  5
324
  8
_________1
 62
     7
 10
131.31399999999999
 20
155.64400000000001
 30
0.0
 11
124.315
 21
155.64400000000001
 31
0.0
  0
LINE
  5
325
  8
_________1
 62
     7
 10
124.315
 20
155.64400000000001
 30
0.0
 11
124.066
 21
155.89400000000001
 31
0.0
  0
LINE
  5
326
  8
_________1
 62
     7
 10
68.864400000000003
 20
160.01900000000001
 30
0.0
 11
68.864400000000003
 21
155.64400000000001
 31
0.0
  0
LINE
  5
327
  8
_________1
 62
     7
 10
68.864400000000003
 20
168.62700000000001
 30
0.0
 11
68.864400000000003
 21
163.14400000000001
 31
0.0
  0
LINE
  5
328
  8
_________1
 62
     7
 10
69.114599999999996
 20
163.14400000000001
 30
0.0
 11
69.114599999999996
 21
168.62700000000001
 31
0.0
  0
LINE
  5
329
  8
_________1
 62
     7
 10
61.864699999999992
 20
168.62700000000001
 30
0.0
 11
61.864699999999992
 21
163.14400000000001
 31
0.0
  0
LINE
  5
32A
  8
_________1
 62
     7
 10
61.615200000000002
 20
163.14400000000001
 30
0.0
 11
61.615200000000002
 21
168.62700000000001
 31
0.0
  0
LINE
  5
32B
  8
_________1
 62
     7
 10
68.864400000000003
 20
162.51900000000001
 30
0.0
 11
68.864400000000003
 21
161.26900000000001
 31
0.0
  0
LINE
  5
32C
  8
_________1
 62
     7
 10
69.114599999999996
 20
161.26900000000001
 30
0.0
 11
69.114599999999996
 21
162.51900000000001
 31
0.0
  0
LINE
  5
32D
  8
_________1
 62
     7
 10
61.864699999999992
 20
162.51900000000001
 30
0.0
 11
61.864699999999992
 21
161.26900000000001
 31
0.0
  0
LINE
  5
32E
  8
_________1
 62
     7
 10
61.615200000000002
 20
161.26900000000001
 30
0.0
 11
61.615200000000002
 21
162.51900000000001
 31
0.0
  0
LINE
  5
32F
  8
_________1
 62
     7
 10
61.864699999999992
 20
160.01900000000001
 30
0.0
 11
61.864699999999992
 21
155.64400000000001
 31
0.0
  0
LINE
  5
330
  8
_________1
 62
     7
 10
61.615200000000002
 20
155.89400000000001
 30
0.0
 11
61.615200000000002
 21
160.01900000000001
 31
0.0
  0
LINE
  5
331
  8
_________1
 62
     7
 10
61.615200000000002
 20
155.89400000000001
 30
0.0
 11
69.114599999999996
 21
155.89400000000001
 31
0.0
  0
LINE
  5
332
  8
_________1
 62
     7
 10
69.114599999999996
 20
160.01900000000001
 30
0.0
 11
69.114599999999996
 21
155.89400000000001
 31
0.0
  0
LINE
  5
333
  8
_________1
 62
     7
 10
69.114599999999996
 20
155.89400000000001
 30
0.0
 11
68.863100000000003
 21
155.64400000000001
 31
0.0
  0
LINE
  5
334
  8
_________1
 62
     7
 10
68.863100000000003
 20
155.64400000000001
 30
0.0
 11
61.864699999999992
 21
155.64400000000001
 31
0.0
  0
LINE
  5
335
  8
_________1
 62
     7
 10
61.864699999999992
 20
155.64400000000001
 30
0.0
 11
61.615200000000002
 21
155.89400000000001
 31
0.0
  0
LINE
  5
336
  8
_________1
 62
     7
 10
65.210599999999999
 20
155.126
 30
0.0
 11
64.693100000000001
 21
155.64400000000001
 31
0.0
  0
LINE
  5
337
  8
_________1
 62
     7
 10
62.728000000000002
 20
155.64400000000001
 30
0.0
 11
62.210500000000003
 21
155.126
 31
0.0
  0
LINE
  5
338
  8
_________1
 62
     7
 10
65.210599999999999
 20
154.02500000000001
 30
0.0
 11
63.591999999999999
 21
155.64400000000001
 31
0.0
  0
LINE
  5
339
  8
_________1
 62
     7
 10
63.82909999999999
 20
155.64400000000001
 30
0.0
 11
62.210500000000003
 21
154.02500000000001
 31
0.0
  0
LINE
  5
33A
  8
_________1
 62
     7
 10
65.210599999999999
 20
152.92400000000001
 30
0.0
 11
62.491000000000007
 21
155.64400000000001
 31
0.0
  0
LINE
  5
33B
  8
_________1
 62
     7
 10
64.930099999999996
 20
155.64400000000001
 30
0.0
 11
62.210500000000003
 21
152.92400000000001
 31
0.0
  0
LINE
  5
33C
  8
_________1
 62
     7
 10
64.489199999999997
 20
152.54400000000001
 30
0.0
 11
62.210500000000003
 21
154.82300000000001
 31
0.0
  0
LINE
  5
33D
  8
_________1
 62
     7
 10
65.210599999999999
 20
154.82300000000001
 30
0.0
 11
62.9313
 21
152.54400000000001
 31
0.0
  0
LINE
  5
33E
  8
_________1
 62
     7
 10
63.388100000000001
 20
152.54400000000001
 30
0.0
 11
62.210500000000003
 21
153.72200000000001
 31
0.0
  0
LINE
  5
33F
  8
_________1
 62
     7
 10
65.210599999999999
 20
153.72200000000001
 30
0.0
 11
64.032300000000006
 21
152.54400000000001
 31
0.0
  0
LINE
  5
340
  8
_________1
 62
     7
 10
68.349100000000007
 20
155.126
 30
0.0
 11
67.831599999999995
 21
155.64400000000001
 31
0.0
  0
LINE
  5
341
  8
_________1
 62
     7
 10
65.866500000000002
 20
155.64400000000001
 30
0.0
 11
65.349100000000007
 21
155.126
 31
0.0
  0
LINE
  5
342
  8
_________1
 62
     7
 10
68.349100000000007
 20
154.02500000000001
 30
0.0
 11
66.730500000000006
 21
155.64400000000001
 31
0.0
  0
LINE
  5
343
  8
_________1
 62
     7
 10
66.967600000000004
 20
155.64400000000001
 30
0.0
 11
65.349100000000007
 21
154.02500000000001
 31
0.0
  0
LINE
  5
344
  8
_________1
 62
     7
 10
68.349100000000007
 20
152.92400000000001
 30
0.0
 11
65.629499999999993
 21
155.64400000000001
 31
0.0
  0
LINE
  5
345
  8
_________1
 62
     7
 10
68.068600000000004
 20
155.64400000000001
 30
0.0
 11
65.349100000000007
 21
152.92400000000001
 31
0.0
  0
LINE
  5
346
  8
_________1
 62
     7
 10
67.627700000000004
 20
152.54400000000001
 30
0.0
 11
65.349100000000007
 21
154.82300000000001
 31
0.0
  0
LINE
  5
347
  8
_________1
 62
     7
 10
68.349100000000007
 20
154.82300000000001
 30
0.0
 11
66.069800000000001
 21
152.54400000000001
 31
0.0
  0
LINE
  5
348
  8
_________1
 62
     7
 10
66.526600000000002
 20
152.54400000000001
 30
0.0
 11
65.349100000000007
 21
153.72200000000001
 31
0.0
  0
LINE
  5
349
  8
_________1
 62
     7
 10
68.349100000000007
 20
153.72200000000001
 30
0.0
 11
67.1708
 21
152.54400000000001
 31
0.0
  0
LINE
  5
34A
  8
_________1
 62
     7
 10
65.210599999999999
 20
126.334
 30
0.0
 11
65.210599999999999
 21
155.64400000000001
 31
0.0
  0
LINE
  5
34B
  8
_________1
 62
     7
 10
62.210500000000003
 20
126.334
 30
0.0
 11
62.210500000000003
 21
155.64400000000001
 31
0.0
  0
LINE
  5
34C
  8
_________1
  6
AIGENLINE001
 62
     7
 10
63.710599999999992
 20
158.43000000000001
 30
0.0
 11
63.710599999999992
 21
86.797700000000006
 31
0.0
  0
LINE
  5
34D
  8
_________1
 62
     7
 10
59.521500000000003
 20
158.76900000000001
 30
0.0
 11
59.521500000000003
 21
160.01900000000001
 31
0.0
  0
LINE
  5
34E
  8
_________1
 62
     7
 10
60.771500000000003
 20
158.76900000000001
 30
0.0
 11
60.771500000000003
 21
160.01900000000001
 31
0.0
  0
LINE
  5
34F
  8
_________1
 62
     7
 10
59.521500000000003
 20
161.26900000000001
 30
0.0
 11
59.521500000000003
 21
162.51900000000001
 31
0.0
  0
LINE
  5
350
  8
_________1
 62
     7
 10
60.771500000000003
 20
161.26900000000001
 30
0.0
 11
60.771500000000003
 21
162.51900000000001
 31
0.0
  0
LINE
  5
351
  8
_________1
  6
AIGENLINE001
 62
     7
 10
60.146599999999999
 20
156.47200000000001
 30
0.0
 11
60.146599999999999
 21
164.167
 31
0.0
  0
LINE
  5
352
  8
_________1
 62
     7
 10
59.096499999999999
 20
157.51900000000001
 30
0.0
 11
59.096499999999999
 21
158.76900000000001
 31
0.0
  0
LINE
  5
353
  8
_________1
 62
     7
 10
59.096499999999999
 20
158.76900000000001
 30
0.0
 11
61.1965
 21
158.76900000000001
 31
0.0
  0
LINE
  5
354
  8
_________1
 62
     7
 10
61.1965
 20
158.76900000000001
 30
0.0
 11
61.1965
 21
157.51900000000001
 31
0.0
  0
LINE
  5
355
  8
_________1
 62
     7
 10
61.1965
 20
157.51900000000001
 30
0.0
 11
59.096499999999999
 21
157.51900000000001
 31
0.0
  0
LINE
  5
356
  8
_________1
 62
     7
 10
70.021699999999996
 20
158.76900000000001
 30
0.0
 11
70.021699999999996
 21
160.01900000000001
 31
0.0
  0
LINE
  5
357
  8
_________1
 62
     7
 10
71.271600000000007
 20
158.76900000000001
 30
0.0
 11
71.271600000000007
 21
160.01900000000001
 31
0.0
  0
LINE
  5
358
  8
_________1
 62
     7
 10
70.021699999999996
 20
161.26900000000001
 30
0.0
 11
70.021699999999996
 21
162.51900000000001
 31
0.0
  0
LINE
  5
359
  8
_________1
 62
     7
 10
71.271600000000007
 20
161.26900000000001
 30
0.0
 11
71.271600000000007
 21
162.51900000000001
 31
0.0
  0
LINE
  5
35A
  8
_________1
  6
AIGENLINE001
 62
     7
 10
70.646600000000007
 20
156.47200000000001
 30
0.0
 11
70.646600000000007
 21
164.167
 31
0.0
  0
LINE
  5
35B
  8
_________1
  6
AIGENLINE001
 62
     7
 10
65.396600000000007
 20
89.775599999999997
 30
0.0
 11
65.396600000000007
 21
206.18700000000001
 31
0.0
  0
LINE
  5
35C
  8
_________1
 62
     7
 10
69.596500000000006
 20
157.51900000000001
 30
0.0
 11
69.596500000000006
 21
158.76900000000001
 31
0.0
  0
LINE
  5
35D
  8
_________1
 62
     7
 10
69.596500000000006
 20
158.76900000000001
 30
0.0
 11
71.696700000000007
 21
158.76900000000001
 31
0.0
  0
LINE
  5
35E
  8
_________1
 62
     7
 10
71.696700000000007
 20
158.76900000000001
 30
0.0
 11
71.696700000000007
 21
157.51900000000001
 31
0.0
  0
LINE
  5
35F
  8
_________1
 62
     7
 10
71.696700000000007
 20
157.51900000000001
 30
0.0
 11
69.596500000000006
 21
157.51900000000001
 31
0.0
  0
LINE
  5
360
  8
_________1
 62
     7
 10
59.146500000000003
 20
160.01900000000001
 30
0.0
 11
59.146500000000003
 21
161.26900000000001
 31
0.0
  0
LINE
  5
361
  8
_________1
 62
     7
 10
59.146500000000003
 20
161.26900000000001
 30
0.0
 11
71.646699999999996
 21
161.26900000000001
 31
0.0
  0
LINE
  5
362
  8
_________1
 62
     7
 10
71.646699999999996
 20
161.26900000000001
 30
0.0
 11
71.646699999999996
 21
160.01900000000001
 31
0.0
  0
LINE
  5
363
  8
_________1
 62
     7
 10
71.646699999999996
 20
160.01900000000001
 30
0.0
 11
59.146500000000003
 21
160.01900000000001
 31
0.0
  0
LINE
  5
364
  8
_________1
 62
     7
 10
59.146500000000003
 20
162.51900000000001
 30
0.0
 11
59.146500000000003
 21
162.89400000000001
 31
0.0
  0
LINE
  5
365
  8
_________1
 62
     7
 10
59.146500000000003
 20
162.89400000000001
 30
0.0
 11
71.646699999999996
 21
162.89400000000001
 31
0.0
  0
LINE
  5
366
  8
_________1
 62
     7
 10
71.646699999999996
 20
162.89400000000001
 30
0.0
 11
71.646699999999996
 21
162.51900000000001
 31
0.0
  0
LINE
  5
367
  8
_________1
 62
     7
 10
71.646699999999996
 20
162.51900000000001
 30
0.0
 11
59.146500000000003
 21
162.51900000000001
 31
0.0
  0
LINE
  5
368
  8
_________1
 62
     7
 10
59.89650000000001
 20
162.89400000000001
 30
0.0
 11
59.89650000000001
 21
163.14400000000001
 31
0.0
  0
LINE
  5
369
  8
_________1
 62
     7
 10
59.89650000000001
 20
163.14400000000001
 30
0.0
 11
70.896699999999996
 21
163.14400000000001
 31
0.0
  0
LINE
  5
36A
  8
_________1
 62
     7
 10
70.896699999999996
 20
163.14400000000001
 30
0.0
 11
70.896699999999996
 21
162.89400000000001
 31
0.0
  0
LINE
  5
36B
  8
_________1
 62
     7
 10
70.896699999999996
 20
162.89400000000001
 30
0.0
 11
59.89650000000001
 21
162.89400000000001
 31
0.0
  0
LINE
  5
36C
  8
_________1
 62
     7
 10
65.648799999999994
 20
170.64400000000001
 30
0.0
 11
65.648799999999994
 21
169.19399999999999
 31
0.0
  0
ARC
  5
36D
  8
_________1
 62
     7
 10
65.393315000000001
 20
169.19579100000001
 30
0.0
 40
0.255465
 50
315.23841099999999
 51
359.67903200000001
  0
ARC
  5
36E
  8
_________1
 62
     7
 10
65.396709000000001
 20
169.19391100000001
 30
0.0
 40
0.251734
 50
269.97376000000003
 51
314.99817500000012
  0
ARC
  5
36F
  8
_________1
 62
     7
 10
65.398015999999998
 20
169.19762499999999
 30
0.0
 40
0.255452
 50
225.347014
 51
269.68109099999998
  0
ARC
  5
370
  8
_________1
 62
     7
 10
65.401021999999983
 20
169.196268
 30
0.0
 40
0.256618
 50
180.42604299999999
 51
224.656553
  0
LINE
  5
371
  8
_________1
 62
     7
 10
65.144400000000005
 20
169.19399999999999
 30
0.0
 11
65.144400000000005
 21
170.64400000000001
 31
0.0
  0
LINE
  5
372
  8
_________1
 62
     7
 10
69.430800000000005
 20
168.62700000000001
 30
0.0
 11
69.430800000000005
 21
170.64400000000001
 31
0.0
  0
LINE
  5
373
  8
_________1
 62
     7
 10
61.29999999999999
 20
168.62700000000001
 30
0.0
 11
69.430800000000005
 21
168.62700000000001
 31
0.0
  0
LINE
  5
374
  8
_________1
 62
     7
 10
69.430800000000005
 20
168.62700000000001
 30
0.0
 11
69.745699999999985
 21
170.64400000000001
 31
0.0
  0
LINE
  5
375
  8
_________1
 62
     7
 10
61.29999999999999
 20
170.64400000000001
 30
0.0
 11
61.29999999999999
 21
168.62700000000001
 31
0.0
  0
LINE
  5
376
  8
_________1
 62
     7
 10
61.29999999999999
 20
168.62700000000001
 30
0.0
 11
60.9848
 21
170.64400000000001
 31
0.0
  0
ARC
  5
377
  8
_________1
 62
     7
 10
60.602465000000002
 20
171.127374
 30
0.0
 40
0.244184
 50
263.98455799999999
 51
288.57005700000002
  0
ARC
  5
378
  8
_________1
 62
     7
 10
60.603648
 20
171.12378100000001
 30
0.0
 40
0.24074
 50
218.914704
 51
263.61487899999997
  0
ARC
  5
379
  8
_________1
 62
     7
 10
60.603861999999992
 20
171.122694
 30
0.0
 40
0.240225
 50
173.891177
 51
218.68099100000001
  0
LINE
  5
37A
  8
_________1
 62
     7
 10
60.365000000000002
 20
171.148
 30
0.0
 11
60.365000000000002
 21
191.75700000000001
 31
0.0
  0
LINE
  5
37B
  8
_________1
 62
     7
 10
60.365000000000002
 20
191.75700000000001
 30
0.0
 11
70.365099999999984
 21
191.75700000000001
 31
0.0
  0
LINE
  5
37C
  8
_________1
 62
     7
 10
70.365099999999984
 20
191.75700000000001
 30
0.0
 11
70.365099999999984
 21
171.148
 31
0.0
  0
ARC
  5
37D
  8
_________1
 62
     7
 10
70.148813000000004
 20
171.11673500000001
 30
0.0
 40
0.218614
 50
351.70939700000002
 51
8.2906029999999991
  0
ARC
  5
37E
  8
_________1
 62
     7
 10
70.142922999999996
 20
171.11760699999999
 30
0.0
 40
0.224568
 50
307.08111600000001
 51
351.70607699999999
  0
ARC
  5
37F
  8
_________1
 62
     7
 10
70.142997999999992
 20
171.12178399999999
 30
0.0
 40
0.22787
 50
262.424936
 51
306.43262099999998
  0
LINE
  5
380
  8
_________1
 62
     7
 10
60.680199999999999
 20
170.89599999999999
 30
0.0
 11
70.113
 21
170.89599999999999
 31
0.0
  0
LINE
  5
381
  8
_________1
 62
     7
 10
70.113
 20
170.89599999999999
 30
0.0
 11
70.554599999999994
 21
170.89599999999999
 31
0.0
  0
LINE
  5
382
  8
_________1
 62
     7
 10
70.554599999999994
 20
170.89599999999999
 30
0.0
 11
70.554599999999994
 21
170.64400000000001
 31
0.0
  0
LINE
  5
383
  8
_________1
 62
     7
 10
70.554599999999994
 20
170.64400000000001
 30
0.0
 11
60.175899999999999
 21
170.64400000000001
 31
0.0
  0
LINE
  5
384
  8
_________1
 62
     7
 10
60.175899999999999
 20
170.64400000000001
 30
0.0
 11
60.175899999999999
 21
170.89599999999999
 31
0.0
  0
LINE
  5
385
  8
_________1
 62
     7
 10
60.175899999999999
 20
170.89599999999999
 30
0.0
 11
60.680199999999999
 21
170.89599999999999
 31
0.0
  0
LINE
  5
386
  8
_________1
 62
     7
 10
48.91449999999999
 20
155.64400000000001
 30
0.0
 11
60.8337
 21
155.64400000000001
 31
0.0
  0
LINE
  5
387
  8
_________1
 62
     7
 10
54.691800000000001
 20
163.14400000000001
 30
0.0
 11
58.762799999999999
 21
163.14400000000001
 31
0.0
  0
LINE
  5
388
  8
_________1
 62
     7
 10
50.129899999999999
 20
168.434
 30
0.0
 11
49.537700000000001
 21
170.64400000000001
 31
0.0
  0
LINE
  5
389
  8
_________1
 62
     7
 10
49.537700000000001
 20
170.64400000000001
 30
0.0
 11
48.945300000000003
 21
168.434
 31
0.0
  0
LINE
  5
38A
  8
_________1
 62
     7
 10
48.945300000000003
 20
168.434
 30
0.0
 11
50.129899999999999
 21
168.434
 31
0.0
  0
LINE
  5
38B
  8
_________1
 62
     7
 10
48.959899999999998
 20
157.85499999999999
 30
0.0
 11
49.552199999999999
 21
155.64500000000001
 31
0.0
  0
LINE
  5
38C
  8
_________1
 62
     7
 10
49.552199999999999
 20
155.64500000000001
 30
0.0
 11
50.144500000000001
 21
157.85499999999999
 31
0.0
  0
LINE
  5
38D
  8
_________1
 62
     7
 10
50.144500000000001
 20
157.85499999999999
 30
0.0
 11
48.959899999999998
 21
157.85499999999999
 31
0.0
  0
LINE
  5
38E
  8
_________1
 62
     7
 10
49.537700000000001
 20
200.62299999999999
 30
0.0
 11
49.537700000000001
 21
155.64400000000001
 31
0.0
  0
INSERT
  5
38F
  8
_________1
 62
     7
  2
AIGNBL03010012
 10
0.0
 20
0.0
 30
0.0
  0
LINE
  5
390
  8
_________1
 62
     7
 10
48.834200000000003
 20
170.64400000000001
 30
0.0
 11
59.072600000000001
 21
170.64400000000001
 31
0.0
  0
INSERT
  5
391
  8
_________1
 62
     7
  2
AIGNBL03010013
 10
0.0
 20
0.0
 30
0.0
  0
INSERT
  5
392
  8
_________1
 62
     7
  2
AIGNBL03010015
 10
0.0
 20
0.0
 30
0.0
  0
LINE
  5
393
  8
_________1
 62
     7
 10
64.960400000000007
 20
89.983699999999985
 30
0.0
 11
64.960400000000007
 21
82.252899999999997
 31
0.0
  0
LINE
  5
394
  8
_________1
 62
     7
 10
62.460700000000003
 20
89.983699999999985
 30
0.0
 11
62.460700000000003
 21
82.252899999999997
 31
0.0
  0
LINE
  5
395
  8
_________1
 62
     7
 10
65.599500000000006
 20
93.062299999999993
 30
0.0
 11
64.960800000000006
 21
93.062299999999993
 31
0.0
  0
LINE
  5
396
  8
_________1
 62
     7
 10
67.709299999999985
 20
179.31099999999989
 30
0.0
 11
67.709299999999985
 21
187.55699999999999
 31
0.0
  0
LINE
  5
397
  8
_________1
 62
     7
 10
62.959200000000003
 20
179.31099999999989
 30
0.0
 11
62.959200000000003
 21
187.55699999999999
 31
0.0
  0
ARC
  5
398
  8
_________1
 62
     7
 10
66.846060999999992
 20
183.3794639999999
 30
0.0
 40
0.863244
 50
0.159687
 51
34.79325
  0
ARC
  5
399
  8
_________1
 62
     7
 10
66.477723999999995
 20
183.161744
 30
0.0
 40
1.2903439999999999
 50
33.399539000000011
 51
50.208013000000001
  0
ARC
  5
39A
  8
_________1
 62
     7
 10
66.023056000000011
 20
182.65231199999999
 30
0.0
 40
1.9729039999999991
 50
49.530852999999993
 51
64.684528999999984
  0
ARC
  5
39B
  8
_________1
 62
     7
 10
65.555053000000001
 20
181.74555100000001
 30
0.0
 40
2.992913999999999
 50
64.008216000000004
 51
80.128915000000006
  0
ARC
  5
39C
  8
_________1
 62
     7
 10
65.346772000000001
 20
180.85350099999999
 30
0.0
 40
3.9078140000000001
 50
79.362487999999999
 51
90.183767999999986
  0
ARC
  5
39D
  8
_________1
 62
     7
 10
65.333545000000001
 20
180.807479
 30
0.0
 40
3.9538150000000001
 50
89.989959999999996
 51
105.475025
  0
ARC
  5
39E
  8
_________1
 62
     7
 10
65.091585999999992
 20
181.783884
 30
0.0
 40
2.948375
 50
106.006241
 51
117.805571
  0
ARC
  5
39F
  8
_________1
 62
     7
 10
64.675291999999999
 20
182.60672199999999
 30
0.0
 40
2.0264159999999989
 50
118.246785
 51
132.05179999999999
  0
ARC
  5
3A0
  8
_________1
 62
     7
 10
64.170055000000005
 20
183.18678399999999
 30
0.0
 40
1.25736
 50
132.66098799999989
 51
155.40369000000001
  0
ARC
  5
3A1
  8
_________1
 62
     7
 10
63.820188000000002
 20
183.37561700000001
 30
0.0
 40
0.8610369999999999
 50
157.13919899999999
 51
179.58395200000001
  0
ARC
  5
3A2
  8
_________1
 62
     7
 10
66.846060999999992
 20
179.30872400000001
 30
0.0
 40
0.8632429999999999
 50
0.158959
 51
34.793256999999997
  0
ARC
  5
3A3
  8
_________1
 62
     7
 10
66.476869999999991
 20
179.09023999999999
 30
0.0
 40
1.2914779999999999
 50
33.406970999999999
 51
50.200580999999993
  0
ARC
  5
3A4
  8
_________1
 62
     7
 10
66.022095999999991
 20
178.58008699999999
 30
0.0
 40
1.974656999999999
 50
49.537616999999997
 51
64.677765000000008
  0
ARC
  5
3A5
  8
_________1
 62
     7
 10
65.55444
 20
177.67279500000001
 30
0.0
 40
2.994994999999999
 50
64.014583999999999
 51
80.123945999999975
  0
ARC
  5
3A6
  8
_________1
 62
     7
 10
65.346772000000001
 20
176.78274999999999
 30
0.0
 40
3.9078140000000001
 50
79.362487999999999
 51
90.183767999999986
  0
ARC
  5
3A7
  8
_________1
 62
     7
 10
65.333545000000001
 20
176.736729
 30
0.0
 40
3.9538150000000001
 50
89.989959999999996
 51
105.475025
  0
ARC
  5
3A8
  8
_________1
 62
     7
 10
65.091425999999998
 20
177.71365399999999
 30
0.0
 40
2.9478309999999999
 50
106.006052
 51
117.807648
  0
ARC
  5
3A9
  8
_________1
 62
     7
 10
64.673106000000004
 20
178.539007
 30
0.0
 40
2.0226980000000001
 50
118.233088
 51
132.06342699999999
  0
ARC
  5
3AA
  8
_________1
 62
     7
 10
64.176302000000007
 20
179.10971699999999
 30
0.0
 40
1.2662379999999991
 50
132.675195
 51
154.44556299999999
  0
ARC
  5
3AB
  8
_________1
 62
     7
 10
63.826166999999998
 20
179.30365699999999
 30
0.0
 40
0.8670250000000001
 50
156.02714800000001
 51
179.50684999999999
  0
ARC
  5
3AC
  8
_________1
 62
     7
 10
63.821646999999999
 20
179.31352699999999
 30
0.0
 40
0.8624769999999999
 50
180.15997699999991
 51
214.79919699999999
  0
ARC
  5
3AD
  8
_________1
 62
     7
 10
64.19075500000001
 20
179.53195400000001
 30
0.0
 40
1.2906089999999999
 50
213.410089
 51
230.20730699999999
  0
ARC
  5
3AE
  8
_________1
 62
     7
 10
64.645508999999976
 20
180.041966
 30
0.0
 40
1.973665999999999
 50
229.539512
 51
244.68294599999999
  0
ARC
  5
3AF
  8
_________1
 62
     7
 10
65.112856999999991
 20
180.947856
 30
0.0
 40
2.9926069999999991
 50
244.011313
 51
260.13375500000001
  0
ARC
  5
3B0
  8
_________1
 62
     7
 10
65.321907999999993
 20
181.84586999999999
 30
0.0
 40
3.9135070000000001
 50
259.37117899999998
 51
270.180519
  0
ARC
  5
3B1
  8
_________1
 62
     7
 10
65.334535000000002
 20
181.818997
 30
0.0
 40
3.8866139999999989
 50
269.99561999999997
 51
288.84523100000001
  0
ARC
  5
3B2
  8
_________1
 62
     7
 10
65.732524999999995
 20
180.52641800000001
 30
0.0
 40
2.5350980000000001
 50
289.76883900000001
 51
306.411652
  0
ARC
  5
3B3
  8
_________1
 62
     7
 10
66.356968000000009
 20
179.63145299999999
 30
0.0
 40
1.444480999999999
 50
307.550164
 51
328.88524200000001
  0
ARC
  5
3B4
  8
_________1
 62
     7
 10
66.806949000000003
 20
179.32730599999999
 30
0.0
 40
0.9024979999999999
 50
330.65431599999999
 51
358.97231799999997
  0
ARC
  5
3B5
  8
_________1
 62
     7
 10
65.243268999999998
 20
187.46638400000001
 30
0.0
 40
2.4677090000000002
 50
2.1125919999999989
 51
87.887398000000005
  0
ARC
  5
3B6
  8
_________1
 62
     7
 10
65.334237999999999
 20
187.55735100000001
 30
0.0
 40
2.3750640000000001
 50
90.0
 51
179.99996999999999
  0
INSERT
  5
3B7
  8
_________1
 62
     7
  2
AIGNBL03010018
 10
0.0
 20
0.0
 30
0.0
  0
LINE
  5
3B8
  8
_________1
 62
     7
 10
48.860700000000001
 20
200.64400000000001
 30
0.0
 11
59.573
 21
200.64400000000001
 31
0.0
  0
LINE
  5
3B9
  8
_________1
 62
     7
 10
63.793199999999992
 20
200.56200000000001
 30
0.0
 11
63.793199999999992
 21
198.047
 31
0.0
  0
LINE
  5
3BA
  8
_________1
 62
     7
 10
63.793199999999992
 20
198.047
 30
0.0
 11
66.938299999999998
 21
198.047
 31
0.0
  0
LINE
  5
3BB
  8
_________1
 62
     7
 10
66.938299999999998
 20
198.047
 30
0.0
 11
66.938299999999998
 21
200.56200000000001
 31
0.0
  0
ARC
  5
3BC
  8
_________1
 62
     7
 10
65.355533999999992
 20
204.46639300000001
 30
0.0
 40
0.8906360000000001
 50
0.27311
 51
44.743603999999998
  0
ARC
  5
3BD
  8
_________1
 62
     7
 10
65.359594000000001
 20
204.45814100000001
 30
0.0
 40
0.893603
 50
45.302626000000011
 51
89.637762000000009
  0
ARC
  5
3BE
  8
_________1
 62
     7
 10
65.370384999999999
 20
204.461039
 30
0.0
 40
0.890703
 50
90.330739000000008
 51
134.77373800000001
  0
ARC
  5
3BF
  8
_________1
 62
     7
 10
65.372197
 20
204.468311
 30
0.0
 40
0.8868399999999999
 50
135.187736
 51
179.849627
  0
ARC
  5
3C0
  8
_________1
 62
     7
 10
65.376859999999994
 20
204.474895
 30
0.0
 40
0.8915089999999999
 50
180.27359300000001
 51
224.689044
  0
ARC
  5
3C1
  8
_________1
 62
     7
 10
65.370924999999986
 20
204.485117
 30
0.0
 40
0.8945529999999999
 50
225.42187300000001
 51
269.63609700000001
  0
ARC
  5
3C2
  8
_________1
 62
     7
 10
65.360136999999995
 20
204.48540700000001
 30
0.0
 40
0.8948389999999999
 50
270.32697400000001
 51
314.57031699999999
  0
ARC
  5
3C3
  8
_________1
 62
     7
 10
65.358159999999998
 20
204.473795
 30
0.0
 40
0.8880049999999998
 50
315.18699299999997
 51
359.79629299999999
  0
LINE
  5
3C4
  8
_________1
 62
     7
 10
66.246200000000002
 20
204.471
 30
0.0
 11
66.246200000000002
 21
199.304
 31
0.0
  0
ARC
  5
3C5
  8
_________1
 62
     7
 10
65.356739000000005
 20
199.308606
 30
0.0
 40
0.8894309999999999
 50
315.224445
 51
359.72518500000001
  0
ARC
  5
3C6
  8
_________1
 62
     7
 10
65.359594000000001
 20
199.31735399999999
 30
0.0
 40
0.893603
 50
270.36223799999999
 51
314.69737400000002
  0
ARC
  5
3C7
  8
_________1
 62
     7
 10
65.370384999999999
 20
199.31445600000001
 30
0.0
 40
0.890703
 50
225.22626199999999
 51
269.66926100000001
  0
ARC
  5
3C8
  8
_________1
 62
     7
 10
65.366405
 20
199.304787
 30
0.0
 40
0.8810450000000001
 50
180.02911
 51
224.96715
  0
LINE
  5
3C9
  8
_________1
 62
     7
 10
64.485399999999998
 20
199.304
 30
0.0
 11
64.485399999999998
 21
204.471
 31
0.0
  0
LINE
  5
3CA
  8
_________1
 62
     7
 10
69.862200000000001
 20
192.25999999999999
 30
0.0
 11
69.862200000000001
 21
191.75700000000001
 31
0.0
  0
LINE
  5
3CB
  8
_________1
 62
     7
 10
60.869700000000002
 20
192.25999999999999
 30
0.0
 11
60.869700000000002
 21
191.75700000000001
 31
0.0
  0
LINE
  5
3CC
  8
_________1
 62
     7
 10
66.246200000000002
 20
200.56200000000001
 30
0.0
 11
70.176299999999998
 21
200.56200000000001
 31
0.0
  0
ARC
  5
3CD
  8
_________1
 62
     7
 10
70.143062999999998
 20
200.336668
 30
0.0
 40
0.227928
 50
53.598343999999997
 51
81.602434000000002
  0
ARC
  5
3CE
  8
_________1
 62
     7
 10
70.144377000000006
 20
200.34175099999999
 30
0.0
 40
0.223065
 50
8.2356899999999982
 51
53.095198000000003
  0
LINE
  5
3CF
  8
_________1
 62
     7
 10
70.365099999999984
 20
200.374
 30
0.0
 11
70.365099999999984
 21
192.25999999999999
 31
0.0
  0
LINE
  5
3D0
  8
_________1
 62
     7
 10
70.365099999999984
 20
192.25999999999999
 30
0.0
 11
60.365699999999997
 21
192.25999999999999
 31
0.0
  0
LINE
  5
3D1
  8
_________1
 62
     7
 10
60.365699999999997
 20
192.25999999999999
 30
0.0
 11
60.365699999999997
 21
200.374
 31
0.0
  0
ARC
  5
3D2
  8
_________1
 62
     7
 10
60.594444000000003
 20
200.336714
 30
0.0
 40
0.231726
 50
143.25794200000001
 51
170.81447800000001
  0
ARC
  5
3D3
  8
_________1
 62
     7
 10
60.584829000000013
 20
200.345258
 30
0.0
 40
0.218913
 50
97.786339999999981
 51
143.54452800000001
  0
LINE
  5
3D4
  8
_________1
 62
     7
 10
60.555199999999999
 20
200.56200000000001
 30
0.0
 11
64.485399999999998
 21
200.56200000000001
 31
0.0
  0
LINE
  5
3D5
  8
_________1
 62
     7
 10
134.09899999999999
 20
62.2074
 30
0.0
 11
133.43799999999999
 21
59.332799999999992
 31
0.0
  0
LINE
  5
3D6
  8
_________1
 62
     7
 10
134.09899999999999
 20
56.457500000000003
 30
0.0
 11
133.43799999999999
 21
59.332799999999992
 31
0.0
  0
ARC
  5
3D7
  8
_________1
 62
     7
 10
160.354435
 20
59.368915999999999
 30
0.0
 40
0.9834799999999999
 50
272.14374700000002
 51
357.89797800000002
  0
ARC
  5
3D8
  8
_________1
 62
     7
 10
160.427345
 20
59.368963999999998
 30
0.0
 40
0.9835029999999999
 50
182.10481200000001
 51
267.895217
  0
ARC
  5
3D9
  8
_________1
 62
     7
 10
160.42666299999999
 20
59.296689000000001
 30
0.0
 40
0.9828229999999999
 50
92.066455000000005
 51
177.89179999999999
  0
ARC
  5
3DA
  8
_________1
 62
     7
 10
160.35511299999999
 20
59.296731999999992
 30
0.0
 40
0.9828040000000001
 50
2.1056849999999989
 51
87.894304999999989
  0
INSERT
  5
3DB
  8
_________1
 62
     7
  2
AIGNBL0301001A
 10
0.0
 20
0.0
 30
0.0
  0
LINE
  5
3DC
  8
_________1
 62
     7
 10
167.274
 20
42.646799999999999
 30
0.0
 11
167.274
 21
57.869399999999999
 31
0.0
  0
LINE
  5
3DD
  8
_________1
 62
     7
 10
167.274
 20
58.707599999999999
 30
0.0
 11
167.274
 21
59.957799999999992
 31
0.0
  0
LINE
  5
3DE
  8
_________1
 62
     7
 10
167.274
 20
58.707599999999999
 30
0.0
 11
165.46000000000001
 21
58.707599999999999
 31
0.0
  0
LINE
  5
3DF
  8
_________1
 62
     7
 10
164.59099999999989
 20
58.707599999999999
 30
0.0
 11
163.75399999999999
 21
58.707599999999999
 31
0.0
  0
LINE
  5
3E0
  8
_________1
 62
     7
 10
159.15600000000001
 20
58.707599999999999
 30
0.0
 11
151.535
 21
58.707599999999999
 31
0.0
  0
LINE
  5
3E1
  8
_________1
 62
     7
 10
149.66999999999999
 20
58.707599999999999
 30
0.0
 11
143.09899999999999
 21
58.707599999999999
 31
0.0
  0
LINE
  5
3E2
  8
_________1
 62
     7
 10
167.274
 20
59.957799999999992
 30
0.0
 11
165.46000000000001
 21
59.957799999999992
 31
0.0
  0
LINE
  5
3E3
  8
_________1
 62
     7
 10
164.59099999999989
 20
59.957799999999992
 30
0.0
 11
163.75399999999999
 21
59.957799999999992
 31
0.0
  0
LINE
  5
3E4
  8
_________1
 62
     7
 10
159.15600000000001
 20
59.957799999999992
 30
0.0
 11
151.464
 21
59.957799999999992
 31
0.0
  0
LINE
  5
3E5
  8
_________1
 62
     7
 10
149.59800000000001
 20
59.957799999999992
 30
0.0
 11
143.09899999999999
 21
59.957799999999992
 31
0.0
  0
LINE
  5
3E6
  8
_________1
  6
AIGENLINE001
 62
     7
 10
168.774
 20
59.332799999999992
 30
0.0
 11
127.849
 21
59.332799999999992
 31
0.0
  0
INSERT
  5
3E7
  8
_________1
 62
     7
  2
AIGNBL0301001C
 10
0.0
 20
0.0
 30
0.0
  0
INSERT
  5
3E8
  8
_________1
 62
     7
  2
AIGNBL0301001E
 10
0.0
 20
0.0
 30
0.0
  0
LINE
  5
3E9
  8
_________1
 62
     7
 10
127.849
 20
42.619199999999992
 30
0.0
 11
127.849
 21
47.2667
 31
0.0
  0
LINE
  5
3EA
  8
_________1
 62
     7
 10
122.599
 20
47.434800000000003
 30
0.0
 11
122.599
 21
53.744199999999999
 31
0.0
  0
INSERT
  5
3EB
  8
_________1
 62
     7
  2
AIGNBL03010020
 10
0.0
 20
0.0
 30
0.0
  0
LINE
  5
3EC
  8
_________1
 62
     7
 10
133.09800000000001
 20
47.287999999999997
 30
0.0
 11
133.09800000000001
 21
53.744199999999999
 31
0.0
  0
INSERT
  5
3ED
  8
_________1
 62
     7
  2
AIGNBL03010022
 10
0.0
 20
0.0
 30
0.0
  0
LINE
  5
3EE
  8
_________1
 62
     7
 10
122.179
 20
54.332599999999999
 30
0.0
 11
115.20399999999999
 21
54.332599999999999
 31
0.0
  0
LINE
  5
3EF
  8
_________1
 62
     7
 10
119.679
 20
65.332899999999995
 30
0.0
 11
115.20399999999999
 21
65.332899999999995
 31
0.0
  0
LINE
  5
3F0
  8
_________1
 62
     7
 10
115.18300000000001
 20
76.582499999999996
 30
0.0
 11
119.28400000000001
 21
76.582499999999996
 31
0.0
  0
INSERT
  5
3F1
  8
_________1
 62
     7
  2
AIGNBL03010024
 10
0.0
 20
0.0
 30
0.0
  0
LINE
  5
3F2
  8
_________1
 62
     7
 10
135.84899999999999
 20
83.530299999999997
 30
0.0
 11
135.84899999999999
 21
78.834999999999994
 31
0.0
  0
LINE
  5
3F3
  8
_________1
 62
     7
 10
119.848
 20
83.530299999999997
 30
0.0
 11
119.848
 21
78.834999999999994
 31
0.0
  0
INSERT
  5
3F4
  8
_________1
 62
     7
  2
AIGNBL03010026
 10
0.0
 20
0.0
 30
0.0
  0
LINE
  5
3F5
  8
_________1
  6
AIGENLINE001
 62
     7
 10
127.849
 20
52.854599999999998
 30
0.0
 11
127.849
 21
79.043700000000001
 31
0.0
  0
LINE
  5
3F6
  8
_________1
 62
     7
 10
143.09899999999999
 20
56.457500000000003
 30
0.0
 11
134.09899999999999
 21
56.457500000000003
 31
0.0
  0
LINE
  5
3F7
  8
_________1
 62
     7
 10
143.09899999999999
 20
56.457500000000003
 30
0.0
 11
143.09899999999999
 21
62.2074
 31
0.0
  0
LINE
  5
3F8
  8
_________1
 62
     7
 10
140.34899999999999
 20
56.457500000000003
 30
0.0
 11
140.34899999999999
 21
62.2074
 31
0.0
  0
LINE
  5
3F9
  8
_________1
 62
     7
 10
143.09899999999999
 20
62.2074
 30
0.0
 11
134.09899999999999
 21
62.2074
 31
0.0
  0
LINE
  5
3FA
  8
_________1
 62
     7
 10
131.59899999999999
 20
69.582800000000006
 30
0.0
 11
131.59899999999999
 21
72.582800000000006
 31
0.0
  0
LINE
  5
3FB
  8
_________1
 62
     7
 10
132.47399999999999
 20
67.332400000000007
 30
0.0
 11
132.72399999999999
 21
67.582499999999996
 31
0.0
  0
LINE
  5
3FC
  8
_________1
 62
     7
 10
132.47399999999999
 20
67.332400000000007
 30
0.0
 11
132.47399999999999
 21
65.332899999999995
 31
0.0
  0
LINE
  5
3FD
  8
_________1
 62
     7
 10
132.84899999999999
 20
54.332599999999999
 30
0.0
 11
133.09800000000001
 21
54.582700000000003
 31
0.0
  0
LINE
  5
3FE
  8
_________1
 62
     7
 10
132.84899999999999
 20
54.332599999999999
 30
0.0
 11
132.84899999999999
 21
56.332799999999999
 31
0.0
  0
LINE
  5
3FF
  8
_________1
 62
     7
 10
133.09800000000001
 20
54.582700000000003
 30
0.0
 11
133.09800000000001
 21
56.332799999999999
 31
0.0
  0
LINE
  5
400
  8
_________1
 62
     7
 10
134.09899999999999
 20
56.332799999999999
 30
0.0
 11
134.09899999999999
 21
56.457500000000003
 31
0.0
  0
LINE
  5
401
  8
_________1
 62
     7
 10
134.09899999999999
 20
62.2074
 30
0.0
 11
134.09899999999999
 21
64.333100000000002
 31
0.0
  0
LINE
  5
402
  8
_________1
 62
     7
 10
135.34899999999999
 20
64.333100000000002
 30
0.0
 11
135.34899999999999
 21
65.332899999999995
 31
0.0
  0
LINE
  5
403
  8
_________1
 62
     7
 10
132.72399999999999
 20
75.443600000000004
 30
0.0
 11
132.72399999999999
 21
65.332899999999995
 31
0.0
  0
LINE
  5
404
  8
_________1
 62
     7
 10
133.35499999999999
 20
76.183599999999998
 30
0.0
 11
135.84899999999999
 21
76.582499999999996
 31
0.0
  0
ARC
  5
405
  8
_________1
 62
     7
 10
133.49796900000001
 20
75.422785000000005
 30
0.0
 40
0.774073
 50
100.61925100000001
 51
178.45989700000001
  0
LINE
  5
406
  8
_________1
 62
     7
 10
133.47399999999999
 20
76.958100000000002
 30
0.0
 11
133.47399999999999
 21
77.332899999999995
 31
0.0
  0
LINE
  5
407
  8
_________1
 62
     7
 10
135.84899999999999
 20
76.958100000000002
 30
0.0
 11
135.84899999999999
 21
76.582499999999996
 31
0.0
  0
LINE
  5
408
  8
_________1
 62
     7
 10
135.84899999999999
 20
77.332899999999995
 30
0.0
 11
135.84899999999999
 21
78.083200000000005
 31
0.0
  0
LINE
  5
409
  8
_________1
 62
     7
 10
124.098
 20
69.582800000000006
 30
0.0
 11
124.098
 21
72.582800000000006
 31
0.0
  0
LINE
  5
40A
  8
_________1
 62
     7
 10
124.098
 20
69.582800000000006
 30
0.0
 11
131.59899999999999
 21
69.582800000000006
 31
0.0
  0
LINE
  5
40B
  8
_________1
 62
     7
 10
124.098
 20
72.582800000000006
 30
0.0
 11
131.59899999999999
 21
72.582800000000006
 31
0.0
  0
LINE
  5
40C
  8
_________1
 62
     7
 10
123.224
 20
67.332400000000007
 30
0.0
 11
122.974
 21
67.582499999999996
 31
0.0
  0
LINE
  5
40D
  8
_________1
 62
     7
 10
123.224
 20
67.332400000000007
 30
0.0
 11
123.224
 21
65.332899999999995
 31
0.0
  0
LINE
  5
40E
  8
_________1
 62
     7
 10
122.974
 20
67.332400000000007
 30
0.0
 11
132.72399999999999
 21
67.332400000000007
 31
0.0
  0
LINE
  5
40F
  8
_________1
 62
     7
 10
122.848
 20
54.332599999999999
 30
0.0
 11
122.599
 21
54.582700000000003
 31
0.0
  0
LINE
  5
410
  8
_________1
 62
     7
 10
122.599
 20
54.582700000000003
 30
0.0
 11
133.09800000000001
 21
54.582700000000003
 31
0.0
  0
LINE
  5
411
  8
_________1
 62
     7
 10
122.848
 20
54.332599999999999
 30
0.0
 11
122.848
 21
56.332799999999999
 31
0.0
  0
LINE
  5
412
  8
_________1
 62
     7
 10
122.599
 20
54.582700000000003
 30
0.0
 11
122.599
 21
56.332799999999999
 31
0.0
  0
LINE
  5
413
  8
_________1
 62
     7
 10
122.848
 20
54.332599999999999
 30
0.0
 11
132.84899999999999
 21
54.332599999999999
 31
0.0
  0
LINE
  5
414
  8
_________1
 62
     7
 10
121.599
 20
56.332799999999999
 30
0.0
 11
121.599
 21
64.333100000000002
 31
0.0
  0
LINE
  5
415
  8
_________1
 62
     7
 10
121.599
 20
56.332799999999999
 30
0.0
 11
134.09899999999999
 21
56.332799999999999
 31
0.0
  0
LINE
  5
416
  8
_________1
 62
     7
 10
120.349
 20
64.333100000000002
 30
0.0
 11
120.349
 21
65.332899999999995
 31
0.0
  0
LINE
  5
417
  8
_________1
 62
     7
 10
120.349
 20
64.333100000000002
 30
0.0
 11
135.34899999999999
 21
64.333100000000002
 31
0.0
  0
LINE
  5
418
  8
_________1
 62
     7
 10
122.974
 20
75.443600000000004
 30
0.0
 11
122.974
 21
65.332899999999995
 31
0.0
  0
LINE
  5
419
  8
_________1
 62
     7
 10
122.342
 20
76.183599999999998
 30
0.0
 11
119.848
 21
76.582499999999996
 31
0.0
  0
ARC
  5
41A
  8
_________1
 62
     7
 10
122.199274
 20
75.422021999999998
 30
0.0
 40
0.774832
 50
1.5950159999999991
 51
79.387535
  0
LINE
  5
41B
  8
_________1
 62
     7
 10
120.349
 20
65.332899999999995
 30
0.0
 11
135.34899999999999
 21
65.332899999999995
 31
0.0
  0
LINE
  5
41C
  8
_________1
 62
     7
 10
122.223
 20
76.958100000000002
 30
0.0
 11
122.223
 21
77.332899999999995
 31
0.0
  0
LINE
  5
41D
  8
_________1
 62
     7
 10
119.848
 20
76.958100000000002
 30
0.0
 11
119.848
 21
76.582499999999996
 31
0.0
  0
LINE
  5
41E
  8
_________1
 62
     7
 10
119.848
 20
76.582499999999996
 30
0.0
 11
135.84899999999999
 21
76.582499999999996
 31
0.0
  0
LINE
  5
41F
  8
_________1
 62
     7
 10
119.848
 20
76.958100000000002
 30
0.0
 11
135.84899999999999
 21
76.958100000000002
 31
0.0
  0
LINE
  5
420
  8
_________1
 62
     7
 10
119.848
 20
77.332899999999995
 30
0.0
 11
119.848
 21
78.083200000000005
 31
0.0
  0
LINE
  5
421
  8
_________1
 62
     7
 10
119.848
 20
77.332899999999995
 30
0.0
 11
135.84899999999999
 21
77.332899999999995
 31
0.0
  0
LINE
  5
422
  8
_________1
 62
     7
 10
119.848
 20
78.083200000000005
 30
0.0
 11
135.84899999999999
 21
78.083200000000005
 31
0.0
  0
INSERT
  5
423
  8
_________1
 62
     7
  2
AIGNBL03010028
 10
0.0
 20
0.0
 30
0.0
  0
INSERT
  5
424
  8
_________1
 62
     7
  2
AIGNBL03010029
 10
0.0
 20
0.0
 30
0.0
  0
ARC
  5
425
  8
_________1
 62
     7
 10
66.229650000000007
 20
215.066767
 30
0.0
 40
1.5447690000000001
 50
323.64811800000001
 51
359.84095000000008
  0
ARC
  5
426
  8
_________1
 62
     7
 10
65.846929000000003
 20
215.31195199999999
 30
0.0
 40
1.9985580000000001
 50
302.87582600000002
 51
324.490567
  0
ARC
  5
427
  8
_________1
 62
     7
 10
65.479669999999984
 20
215.830566
 30
0.0
 40
2.6336080000000002
 50
274.187613
 51
303.46168299999999
  0
ARC
  5
428
  8
_________1
 62
     7
 10
65.400689
 20
216.21209099999999
 30
0.0
 40
3.0203109999999991
 50
269.97461900000002
 51
275.15344700000003
  0
ARC
  5
429
  8
_________1
 62
     7
 10
65.401173999999983
 20
216.12692200000001
 30
0.0
 40
2.935141999999999
 50
244.100784
 51
269.96441399999998
  0
ARC
  5
42A
  8
_________1
 62
     7
 10
65.150058000000001
 20
215.532613
 30
0.0
 40
2.2910870000000001
 50
218.94190499999999
 51
243.25815399999999
  0
ARC
  5
42B
  8
_________1
 62
     7
 10
64.678922999999983
 20
215.103129
 30
0.0
 40
1.6551359999999999
 50
181.407353
 51
217.62903399999999
  0
ARC
  5
42C
  8
_________1
 62
     7
 10
66.228445999999991
 20
217.93380099999999
 30
0.0
 40
1.545974
 50
323.66277700000001
 51
359.84078299999999
  0
ARC
  5
42D
  8
_________1
 62
     7
 10
65.847928999999993
 20
218.17740499999999
 30
0.0
 40
1.9970549999999989
 50
302.86954300000002
 51
324.50161100000003
  0
ARC
  5
42E
  8
_________1
 62
     7
 10
65.480056000000005
 20
218.69655700000001
 30
0.0
 40
2.632890999999999
 50
274.18034
 51
303.46193799999998
  0
ARC
  5
42F
  8
_________1
 62
     7
 10
65.400689
 20
219.07877300000001
 30
0.0
 40
3.0203109999999991
 50
269.97461900000002
 51
275.15344700000003
  0
ARC
  5
430
  8
_________1
 62
     7
 10
65.401174999999995
 20
218.99419
 30
0.0
 40
2.9357279999999988
 50
244.1063
 51
269.96438899999998
  0
ARC
  5
431
  8
_________1
 62
     7
 10
65.150058000000001
 20
218.39923099999999
 30
0.0
 40
2.2910870000000001
 50
218.94190499999999
 51
243.25815399999999
  0
ARC
  5
432
  8
_________1
 62
     7
 10
64.679789999999997
 20
217.97003699999999
 30
0.0
 40
1.655999999999999
 50
181.40251000000001
 51
217.618662
  0
LINE
  5
433
  8
_________1
 62
     7
 10
67.7744
 20
215.06200000000001
 30
0.0
 11
67.7744
 21
237.41200000000001
 31
0.0
  0
LINE
  5
434
  8
_________1
 62
     7
 10
63.024299999999997
 20
215.06200000000001
 30
0.0
 11
63.024299999999997
 21
237.41200000000001
 31
0.0
  0
LINE
  5
435
  8
_________1
 62
     7
 10
105.81100000000001
 20
181.6329999999999
 30
0.0
 11
103.17700000000001
 21
177.94099999999989
 31
0.0
  0
LINE
  5
436
  8
_________1
 62
     7
 10
122.848
 20
184.988
 30
0.0
 11
112.324
 21
184.988
 31
0.0
  0
ARC
  5
437
  8
_________1
 62
     7
 10
112.395143
 20
176.84974500000001
 30
0.0
 40
8.1385529999999981
 50
90.503878000000014
 51
143.99993000000001
  0
LINE
  5
438
  8
_________1
  6
AIGENLINE001
 62
     7
 10
103.878
 20
183.01300000000001
 30
0.0
 11
99.939099999999996
 21
177.49199999999999
 31
0.0
  0
LINE
  5
439
  8
_________1
  6
AIGENLINE001
 62
     7
 10
127.849
 20
187.363
 30
0.0
 11
112.324
 21
187.363
 31
0.0
  0
ARC
  5
43A
  8
_________1
  6
AIGENLINE001
 62
     7
 10
112.41565
 20
176.81045599999999
 30
0.0
 40
10.552993000000001
 50
90.499928999999995
 51
144.00532899999999
  0
LINE
  5
43B
  8
_________1
 62
     7
 10
101.943
 20
184.392
 30
0.0
 11
99.310699999999997
 21
180.69999999999999
 31
0.0
  0
LINE
  5
43C
  8
_________1
 62
     7
 10
122.848
 20
189.738
 30
0.0
 11
112.324
 21
189.738
 31
0.0
  0
ARC
  5
43D
  8
_________1
 62
     7
 10
112.436131
 20
176.76902699999999
 30
0.0
 40
12.969227999999999
 50
90.497270999999998
 51
144.00279399999999
  0
LINE
  5
43E
  8
_________1
 62
     7
 10
101.099
 20
179.11699999999999
 30
0.0
 11
99.369200000000006
 21
180.351
 31
0.0
  0
ARC
  5
43F
  8
_________1
 62
     7
 10
99.528689
 20
180.55702299999999
 30
0.0
 40
0.260633
 50
146.77125100000001
 51
232.28177500000001
  0
LINE
  5
440
  8
_________1
 62
     7
 10
102.82899999999999
 20
177.88300000000001
 30
0.0
 11
101.099
 21
179.11699999999999
 31
0.0
  0
ARC
  5
441
  8
_________1
 62
     7
 10
102.971874
 20
178.099512
 30
0.0
 40
0.259401
 50
236.533312
 51
322.42807299999998
  0
LINE
  5
442
  8
_________1
 62
     7
 10
105.93600000000001
 20
181.80799999999999
 30
0.0
 11
102.069
 21
184.56700000000001
 31
0.0
  0
INSERT
  5
443
  8
_________1
 62
     7
  2
AIGNBL0301002C
 10
0.0
 20
0.0
 30
0.0
  0
ARC
  5
444
  8
_________1
 62
     7
 10
118.762636
 20
186.6282469999999
 30
0.0
 40
5.1339040000000002
 50
29.42786400000001
 51
37.278008999999997
  0
ARC
  5
445
  8
_________1
 62
     7
 10
120.204342
 20
187.48315299999999
 30
0.0
 40
3.4583659999999998
 50
7.7481479999999996
 51
28.827261000000011
  0
ARC
  5
446
  8
_________1
 62
     7
 10
119.607015
 20
187.429618
 30
0.0
 40
4.0575499999999991
 50
323.00459499999999
 51
7.3600359999999991
  0
ARC
  5
447
  8
_________1
  6
AIGENLINE002
 62
     7
 10
51.703783000000001
 20
228.640368
 30
0.0
 40
0.4137470000000001
 50
174.024708
 51
191.93163699999999
  0
ARC
  5
448
  8
_________1
  6
AIGENLINE002
 62
     7
 10
52.02388599999999
 20
228.69555199999999
 30
0.0
 40
0.738444
 50
190.98595299999999
 51
206.75441599999999
  0
ARC
  5
449
  8
_________1
  6
AIGENLINE002
 62
     7
 10
52.456931999999988
 20
228.89806999999999
 30
0.0
 40
1.2163790000000001
 50
206.08996099999999
 51
225.91141999999999
  0
ARC
  5
44A
  8
_________1
  6
AIGENLINE002
 62
     7
 10
52.541525999999998
 20
228.95696899999999
 30
0.0
 40
1.31769
 50
225.05126799999999
 51
246.11604100000011
  0
ARC
  5
44B
  8
_________1
  6
AIGENLINE002
 62
     7
 10
52.265936000000004
 20
228.38237000000001
 30
0.0
 40
0.6809880000000002
 50
247.74380300000001
 51
263.89759099999998
  0
ARC
  5
44C
  8
_________1
  6
AIGENLINE002
 62
     7
 10
52.228938999999997
 20
228.10415499999999
 30
0.0
 40
0.400481
 50
264.92938600000002
 51
275.78697499999998
  0
ARC
  5
44D
  8
_________1
  6
AIGENLINE002
 62
     7
 10
52.460972999999989
 20
228.05412100000001
 30
0.0
 40
0.32804
 50
276.37306599999999
 51
312.2072960000001
  0
ARC
  5
44E
  8
_________1
  6
AIGENLINE002
 62
     7
 10
51.602755000000002
 20
228.89152400000009
 30
0.0
 40
0.288724
 50
135.25102200000001
 51
176.16859600000001
  0
LINE
  5
44F
  8
_________1
  6
AIGENLINE002
 62
     7
 10
51.314700000000002
 20
228.911
 30
0.0
 11
51.291899999999998
 21
228.678
 31
0.0
  0
LINE
  5
450
  8
_________1
  6
AIGENLINE002
 62
     7
 10
52.500100000000003
 20
227.72800000000001
 30
0.0
 11
52.267299999999992
 21
227.70599999999999
 31
0.0
  0
LINE
  5
451
  8
_________1
  6
AIGENLINE002
 62
     7
 10
62.564700000000002
 20
237.69499999999999
 30
0.0
 11
52.681399999999989
 21
227.81100000000001
 31
0.0
  0
LINE
  5
452
  8
_________1
  6
AIGENLINE002
 62
     7
 10
61.281100000000002
 20
238.97800000000001
 30
0.0
 11
51.3977
 21
229.095
 31
0.0
  0
LINE
  5
453
  8
_________1
  6
AIGENLINE001
 62
     7
 10
65.3994
 20
241.81299999999999
 30
0.0
 11
50.887799999999991
 21
227.30199999999999
 31
0.0
  0
ARC
  5
454
  8
_________1
  6
AIGENLINE002
 62
     7
 10
79.098157999999998
 20
228.63966199999999
 30
0.0
 40
0.410598
 50
348.07631300000003
 51
6.120417999999999
  0
ARC
  5
455
  8
_________1
  6
AIGENLINE002
 62
     7
 10
78.778340999999998
 20
228.69411099999999
 30
0.0
 40
0.734876
 50
333.23123599999991
 51
349.07454100000001
  0
ARC
  5
456
  8
_________1
  6
AIGENLINE002
 62
     7
 10
78.347227000000004
 20
228.89493300000001
 30
0.0
 40
1.2103280000000001
 50
314.006304
 51
333.93516699999998
  0
ARC
  5
457
  8
_________1
  6
AIGENLINE002
 62
     7
 10
78.256895999999998
 20
228.957247
 30
0.0
 40
1.318082999999999
 50
293.89267599999999
 51
314.94874099999998
  0
ARC
  5
458
  8
_________1
  6
AIGENLINE002
 62
     7
 10
78.53291999999999
 20
228.381767
 30
0.0
 40
0.680395
 50
276.11323599999997
 51
292.268326
  0
ARC
  5
459
  8
_________1
  6
AIGENLINE002
 62
     7
 10
78.570040000000006
 20
228.10284300000001
 30
0.0
 40
0.39917
 50
264.20349700000003
 51
275.07900999999998
  0
INSERT
  5
45A
  8
_________1
 62
     7
  2
AIGNBL0301002D
 10
0.0
 20
0.0
 30
0.0
  0
LINE
  5
45B
  8
_________1
 62
     7
 10
144.839
 20
235.92400000000001
 30
0.0
 11
133.73699999999999
 21
235.92400000000001
 31
0.0
  0
ARC
  5
45C
  8
_________1
  6
AIGENLINE002
 62
     7
 10
78.339755000000011
 20
228.05861300000001
 30
0.0
 40
0.332734
 50
228.05383900000001
 51
263.36583899999999
  0
ARC
  5
45D
  8
_________1
  6
AIGENLINE002
 62
     7
 10
79.194958999999997
 20
228.89053699999999
 30
0.0
 40
0.290118
 50
4.0082349999999991
 51
44.75025999999999
  0
LINE
  5
45E
  8
_________1
  6
AIGENLINE002
 62
     7
 10
79.484399999999994
 20
228.911
 30
0.0
 11
79.507099999999994
 21
228.678
 31
0.0
  0
LINE
  5
45F
  8
_________1
  6
AIGENLINE002
 62
     7
 10
78.298599999999993
 20
227.72800000000001
 30
0.0
 11
78.531800000000004
 21
227.70599999999999
 31
0.0
  0
LINE
  5
460
  8
_________1
  6
AIGENLINE002
 62
     7
 10
68.233999999999995
 20
237.69499999999999
 30
0.0
 11
78.1173
 21
227.81100000000001
 31
0.0
  0
LINE
  5
461
  8
_________1
  6
AIGENLINE002
 62
     7
 10
69.517600000000002
 20
238.97800000000001
 30
0.0
 11
79.40100000000001
 21
229.095
 31
0.0
  0
LINE
  5
462
  8
_________1
  6
AIGENLINE001
 62
     7
 10
65.3994
 20
241.81299999999999
 30
0.0
 11
79.910899999999984
 21
227.30199999999999
 31
0.0
  0
ARC
  5
463
  8
_________1
 62
     7
 10
64.822100000000006
 20
222.93666300000001
 30
0.0
 40
0.33135
 50
183.04387700000001
 51
218.52588
  0
ARC
  5
464
  8
_________1
 62
     7
 10
64.771150000000006
 20
222.91825499999999
 30
0.0
 40
0.279934
 50
146.05401000000001
 51
179.83334099999999
  0
ARC
  5
465
  8
_________1
 62
     7
 10
64.918448999999995
 20
222.82975099999999
 30
0.0
 40
0.451636
 50
127.05591
 51
147.174792
  0
ARC
  5
466
  8
_________1
 62
     7
 10
65.124787999999995
 20
222.577234
 30
0.0
 40
0.777596
 50
112.94307499999999
 51
127.977228
  0
ARC
  5
467
  8
_________1
 62
     7
 10
65.330212000000003
 20
222.12469300000001
 30
0.0
 40
1.2744789999999999
 50
95.626830999999996
 51
113.51693899999999
  0
ARC
  5
468
  8
_________1
 62
     7
 10
65.398107999999993
 20
221.72482400000001
 30
0.0
 40
1.6793180000000001
 50
89.957614000000007
 51
96.594563999999991
  0
ARC
  5
469
  8
_________1
 62
     7
 10
65.398736999999997
 20
221.81911099999999
 30
0.0
 40
1.585030999999999
 50
70.280408999999992
 51
89.977823999999998
  0
ARC
  5
46A
  8
_________1
 62
     7
 10
65.600408000000002
 20
222.44709399999999
 30
0.0
 40
0.9260909999999999
 50
55.38032900000001
 51
68.916202999999996
  0
ARC
  5
46B
  8
_________1
 62
     7
 10
65.81580799999999
 20
222.76807099999999
 30
0.0
 40
0.539594
 50
36.803100999999998
 51
54.839434999999987
  0
ARC
  5
46C
  8
_________1
 62
     7
 10
65.994405
 20
222.908402
 30
0.0
 40
0.312571
 50
1.9556880000000001
 51
35.818506999999997
  0
ARC
  5
46D
  8
_________1
 62
     7
 10
66.018574999999998
 20
222.920075
 30
0.0
 40
0.288221
 50
318.81312100000002
 51
359.800049
  0
LINE
  5
46E
  8
_________1
 62
     7
 10
66.235500000000002
 20
222.72999999999999
 30
0.0
 11
66.087000000000003
 21
222.54900000000001
 31
0.0
  0
LINE
  5
46F
  8
_________1
 62
     7
 10
64.561199999999999
 20
222.732
 30
0.0
 11
64.709999999999994
 21
222.55099999999999
 31
0.0
  0
ARC
  5
470
  8
_________1
 62
     7
 10
65.919697999999997
 20
222.707705
 30
0.0
 40
0.229311
 50
320.64886300000001
 51
359.78633600000001
  0
ARC
  5
471
  8
_________1
 62
     7
 10
65.762872000000002
 20
222.81814
 30
0.0
 40
0.4208390000000001
 50
301.62381399999998
 51
322.56108699999999
  0
ARC
  5
472
  8
_________1
 62
     7
 10
65.568207999999998
 20
223.105492
 30
0.0
 40
0.76774
 50
287.244731
 51
302.7498490000001
  0
ARC
  5
473
  8
_________1
 62
     7
 10
65.417236000000003
 20
223.54342600000001
 30
0.0
 40
1.230828
 50
269.16739699999999
 51
287.91317199999997
  0
ARC
  5
474
  8
_________1
 62
     7
 10
65.39806999999999
 20
223.620746
 30
0.0
 40
1.3080179999999999
 50
248.98634799999999
 51
270.056082
  0
ARC
  5
475
  8
_________1
 62
     7
 10
65.193620999999993
 20
223.03664800000001
 30
0.0
 40
0.689703
 50
231.297888
 51
247.440988
  0
ARC
  5
476
  8
_________1
 62
     7
 10
64.996861999999993
 20
222.782004
 30
0.0
 40
0.367993
 50
208.99504999999999
 51
230.41517400000001
  0
ARC
  5
477
  8
_________1
 62
     7
 10
64.877645999999999
 20
222.709532
 30
0.0
 40
0.228658
 50
180.67212900000001
 51
207.59153900000001
  0
ARC
  5
478
  8
_________1
 62
     7
 10
64.878128000000004
 20
222.70599500000009
 30
0.0
 40
0.229126
 50
140.61109099999999
 51
179.78628499999999
  0
ARC
  5
479
  8
_________1
 62
     7
 10
65.035279000000003
 20
222.59523300000001
 30
0.0
 40
0.4211050000000001
 50
121.5979389999999
 51
142.53287499999999
  0
ARC
  5
47A
  8
_________1
 62
     7
 10
65.230350999999999
 20
222.306915
 30
0.0
 40
0.7690360000000001
 50
107.23106199999999
 51
122.721982
  0
ARC
  5
47B
  8
_________1
 62
     7
 10
65.381467000000001
 20
221.86802900000001
 30
0.0
 40
1.2330709999999989
 50
89.169018000000008
 51
107.896672
  0
ARC
  5
47C
  8
_________1
 62
     7
 10
65.400626000000003
 20
221.795164
 30
0.0
 40
1.3058069999999991
 50
68.968343999999988
 51
90.055969999999988
  0
ARC
  5
47D
  8
_________1
 62
     7
 10
65.604849999999985
 20
222.37807000000001
 30
0.0
 40
0.6886910000000001
 50
51.267409999999991
 51
67.422710999999993
  0
ARC
  5
47E
  8
_________1
 62
     7
 10
65.801183999999992
 20
222.63189399999999
 30
0.0
 40
0.36789
 50
28.968588
 51
50.38605900000001
  0
ARC
  5
47F
  8
_________1
 62
     7
 10
65.920279000000008
 20
222.70419799999999
 30
0.0
 40
0.228744
 50
0.6640500000000001
 51
27.571479
  0
LINE
  5
480
  8
_________1
 62
     7
 10
64.491200000000006
 20
236.89699999999999
 30
0.0
 11
64.491200000000006
 21
222.91900000000001
 31
0.0
  0
LINE
  5
481
  8
_________1
 62
     7
 10
66.306799999999996
 20
236.89699999999999
 30
0.0
 11
66.306799999999996
 21
222.91900000000001
 31
0.0
  0
LINE
  5
482
  8
_________1
 62
     7
 10
63.8001
 20
246.55000000000001
 30
0.0
 11
63.8001
 21
237.07599999999999
 31
0.0
  0
LINE
  5
483
  8
_________1
 62
     7
 10
66.938599999999994
 20
246.56999999999999
 30
0.0
 11
66.938599999999994
 21
237.05500000000001
 31
0.0
  0
ARC
  5
484
  8
_________1
 62
     7
 10
65.399520999999993
 20
241.81295399999999
 30
0.0
 40
5.0000720000000003
 50
269.99804599999999
 51
359.99801600000001
  0
ARC
  5
485
  8
_________1
 62
     7
 10
65.399177000000009
 20
241.812952
 30
0.0
 40
5.00007
 50
180.00198399999999
 51
270.00199400000002
  0
ARC
  5
486
  8
_________1
 62
     7
 10
65.399350999999996
 20
241.81278
 30
0.0
 40
5.0002440000000004
 50
90.0
 51
179.99996999999999
  0
ARC
  5
487
  8
_________1
 62
     7
 10
65.399349000000001
 20
241.81278
 30
0.0
 40
5.0002440000000004
 50
0.00001
 51
89.999980000000008
  0
LINE
  5
488
  8
_________1
  6
AIGENLINE001
 62
     7
 10
57.462499999999991
 20
241.81299999999999
 30
0.0
 11
73.065799999999996
 21
241.81299999999999
 31
0.0
  0
LINE
  5
489
  8
_________1
  6
AIGENLINE001
 62
     7
 10
65.3994
 20
254.72399999999999
 30
0.0
 11
65.3994
 21
211.869
 31
0.0
  0
ARC
  5
48A
  8
_________1
 62
     7
 10
127.84881799999999
 20
241.81295399999999
 30
0.0
 40
3.9999539999999998
 50
269.99755199999998
 51
359.997523
  0
ARC
  5
48B
  8
_________1
 62
     7
 10
127.848473
 20
241.812952
 30
0.0
 40
3.9999530000000001
 50
180.002477
 51
270.00248699999997
  0
ARC
  5
48C
  8
_________1
 62
     7
 10
127.84847499999999
 20
241.81260800000001
 30
0.0
 40
3.9999539999999998
 50
89.997533000000004
 51
179.99750299999999
  0
ARC
  5
48D
  8
_________1
 62
     7
 10
127.84881799999999
 20
241.81260800000001
 30
0.0
 40
3.9999539999999998
 50
0.002477
 51
90.002447999999987
  0
INSERT
  5
48E
  8
_________1
 62
     7
  2
AIGNBL0301002E
 10
0.0
 20
0.0
 30
0.0
  0
INSERT
  5
48F
  8
_________1
 62
     7
  2
AIGNBL03010030
 10
0.0
 20
0.0
 30
0.0
  0
INSERT
  5
490
  8
_________1
 62
     7
  2
AIGNBL03010031
 10
0.0
 20
0.0
 30
0.0
  0
LINE
  5
491
  8
_________1
  6
AIGENLINE001
 62
     7
 10
127.849
 20
235.31700000000001
 30
0.0
 11
127.849
 21
248.31299999999999
 31
0.0
  0
LINE
  5
492
  8
_________1
  6
AIGENLINE001
 62
     7
 10
121.35299999999999
 20
241.81299999999999
 30
0.0
 11
134.34700000000001
 21
241.81299999999999
 31
0.0
  0
INSERT
  5
493
  8
_________1
 62
     7
  2
AIGNBL03010033
 10
0.0
 20
0.0
 30
0.0
  0
INSERT
  5
494
  8
_________1
 62
     7
  2
AIGNBL03010035
 10
0.0
 20
0.0
 30
0.0
  0
INSERT
  5
495
  8
_________1
 62
     7
  2
AIGNBL03010037
 10
0.0
 20
0.0
 30
0.0
  0
INSERT
  5
496
  8
_________1
 62
     7
  2
AIGNBL03010039
 10
0.0
 20
0.0
 30
0.0
  0
LINE
  5
497
  8
_________1
 62
     7
 10
71.426599999999993
 20
170.64400000000001
 30
0.0
 11
78.735900000000001
 21
170.64400000000001
 31
0.0
  0
LINE
  5
498
  8
_________1
 62
     7
 10
69.3874
 20
90.643399999999986
 30
0.0
 11
78.967399999999998
 21
90.643399999999986
 31
0.0
  0
INSERT
  5
499
  8
_________1
 62
     7
  2
AIGNBL0301003B
 10
0.0
 20
0.0
 30
0.0
  0
LINE
  5
49A
  8
_________1
  6
AIGENLINE001
 62
     7
 10
127.849
 20
167.982
 30
0.0
 11
127.849
 21
179.565
 31
0.0
  0
LINE
  5
49B
  8
_________1
  6
AIGENLINE001
 62
     7
 10
127.849
 20
154.02500000000001
 30
0.0
 11
127.849
 21
163.726
 31
0.0
  0
LINE
  5
49C
  8
_________1
  6
AIGENLINE001
 62
     7
 10
127.849
 20
185.99299999999999
 30
0.0
 11
127.849
 21
203.74700000000001
 31
0.0
  0
LINE
  5
49D
  8
_________1
 62
     7
 10
127.849
 20
204.554
 30
0.0
 11
127.849
 21
222.09200000000001
 31
0.0
  0
LINE
  5
49E
  8
_________1
 62
     7
 10
101.098
 20
162.149
 30
0.0
 11
101.098
 21
178.42099999999999
 31
0.0
  0
LINE
  5
49F
  8
_________1
 62
     7
 10
101.098
 20
179.79599999999999
 30
0.0
 11
101.098
 21
222.09200000000001
 31
0.0
  0
LINE
  5
4A0
  8
_________1
 62
     7
 10
108.348
 20
204.922
 30
0.0
 11
108.348
 21
217.279
 31
0.0
  0
LINE
  5
4A1
  8
_________1
 62
     7
 10
117.131
 20
211.64400000000001
 30
0.0
 11
146.881
 21
211.64400000000001
 31
0.0
  0
LINE
  5
4A2
  8
_________1
 62
     7
 10
133.613
 20
170.64400000000001
 30
0.0
 11
146.88800000000001
 21
170.64400000000001
 31
0.0
  0
LINE
  5
4A3
  8
_________1
 62
     7
 10
131.82300000000001
 20
93.143600000000006
 30
0.0
 11
147.06700000000001
 21
93.143600000000006
 31
0.0
  0
LINE
  5
4A4
  8
_________1
 62
     7
 10
132.36699999999999
 20
192.297
 30
0.0
 11
132.36699999999999
 21
191.79499999999999
 31
0.0
  0
LINE
  5
4A5
  8
_________1
 62
     7
 10
123.267
 20
192.297
 30
0.0
 11
123.267
 21
191.79499999999999
 31
0.0
  0
LINE
  5
4A6
  8
_________1
 62
     7
 10
122.849
 20
200.45599999999999
 30
0.0
 11
118.892
 21
200.45599999999999
 31
0.0
  0
ARC
  5
4A7
  8
_________1
 62
     7
 10
118.885645
 20
203.984576
 30
0.0
 40
3.5283679999999991
 50
239.07421099999999
 51
270.10929399999998
  0
LINE
  5
4A8
  8
_________1
 62
     7
 10
117.072
 20
200.958
 30
0.0
 11
109.47799999999999
 21
205.41399999999999
 31
0.0
  0
LINE
  5
4A9
  8
_________1
 62
     7
 10
108.474
 20
203.71899999999999
 30
0.0
 11
116.005
 21
199.26400000000001
 31
0.0
  0
ARC
  5
4AA
  8
_________1
 62
     7
 10
119.457193
 20
205.964225
 30
0.0
 40
7.5377039999999988
 50
242.74272300000001
 51
265.702675
  0
LINE
  5
4AB
  8
_________1
 62
     7
 10
118.892
 20
198.44799999999989
 30
0.0
 11
122.849
 21
198.44799999999989
 31
0.0
  0
LINE
  5
4AC
  8
_________1
 62
     7
 10
122.849
 20
198.44799999999989
 30
0.0
 11
122.849
 21
192.297
 31
0.0
  0
LINE
  5
4AD
  8
_________1
 62
     7
 10
122.849
 20
192.297
 30
0.0
 11
132.84899999999999
 21
192.297
 31
0.0
  0
LINE
  5
4AE
  8
_________1
 62
     7
 10
132.84899999999999
 20
192.297
 30
0.0
 11
132.84899999999999
 21
200.45599999999999
 31
0.0
  0
ARC
  5
4AF
  8
_________1
 62
     7
 10
132.62695299999999
 20
200.42335
 30
0.0
 40
0.224016
 50
8.4362110000000001
 51
53.013170000000002
  0
ARC
  5
4B0
  8
_________1
 62
     7
 10
132.62941000000001
 20
200.42622800000001
 30
0.0
 40
0.220239
 50
53.073352
 51
81.990639000000016
  0
LINE
  5
4B1
  8
_________1
 62
     7
 10
132.66
 20
200.64400000000001
 30
0.0
 11
122.974
 21
200.64400000000001
 31
0.0
  0
ARC
  5
4B2
  8
_________1
 62
     7
 10
122.959157
 20
200.51794000000001
 30
0.0
 40
0.127265
 50
83.234443999999996
 51
127.813755
  0
ARC
  5
4B3
  8
_________1
 62
     7
 10
122.95702199999999
 20
200.519577
 30
0.0
 40
0.124664
 50
127.49969400000001
 51
173.16235399999999
  0
ARC
  5
4B4
  8
_________1
 62
     7
 10
122.95508
 20
200.517933
 30
0.0
 40
0.122946
 50
172.29378199999999
 51
210.13185799999999
  0
ARC
  5
4B5
  8
_________1
 62
     7
 10
121.38311299999999
 20
199.44588300000001
 30
0.0
 40
1.780127999999999
 50
10.398742
 51
34.580362999999998
  0
ARC
  5
4B6
  8
_________1
 62
     7
 10
121.379364
 20
199.455949
 30
0.0
 40
1.7820299999999989
 50
325.54351400000002
 51
10.058641
  0
LINE
  5
4B7
  8
_________1
 62
     7
 10
109.47799999999999
 20
205.41399999999999
 30
0.0
 11
109.227
 21
205.41399999999999
 31
0.0
  0
LINE
  5
4B8
  8
_________1
 62
     7
 10
109.227
 20
205.41399999999999
 30
0.0
 11
108.348
 21
203.90799999999999
 31
0.0
  0
LINE
  5
4B9
  8
_________1
 62
     7
 10
108.348
 20
203.90799999999999
 30
0.0
 11
108.474
 21
203.71899999999999
 31
0.0
  0
LINE
  5
4BA
  8
_________1
 62
     7
 10
108.474
 20
203.71899999999999
 30
0.0
 11
109.47799999999999
 21
205.41399999999999
 31
0.0
  0
LINE
  5
4BB
  8
_________1
 62
     7
 10
122.849
 20
189.738
 30
0.0
 11
122.849
 21
191.79499999999999
 31
0.0
  0
LINE
  5
4BC
  8
_________1
 62
     7
 10
122.849
 20
191.79499999999999
 30
0.0
 11
132.84899999999999
 21
191.79499999999999
 31
0.0
  0
LINE
  5
4BD
  8
_________1
 62
     7
 10
132.84899999999999
 20
191.79499999999999
 30
0.0
 11
132.84899999999999
 21
171.14599999999999
 31
0.0
  0
ARC
  5
4BE
  8
_________1
 62
     7
 10
132.52307300000001
 20
171.225998
 30
0.0
 40
0.335114
 50
316.08633200000003
 51
346.222601
  0
ARC
  5
4BF
  8
_________1
 62
     7
 10
132.52964299999999
 20
171.22402299999999
 30
0.0
 40
0.329026
 50
270.93969199999998
 51
315.54054100000002
  0
LINE
  5
4C0
  8
_________1
 62
     7
 10
132.535
 20
170.89500000000001
 30
0.0
 11
123.09999999999999
 21
170.89500000000001
 31
0.0
  0
ARC
  5
4C1
  8
_________1
 62
     7
 10
123.068718
 20
171.09910400000001
 30
0.0
 40
0.20643
 50
261.31305700000001
 51
278.68696299999999
  0
ARC
  5
4C2
  8
_________1
 62
     7
 10
123.07185
 20
171.121611
 30
0.0
 40
0.229152
 50
217.79752099999999
 51
261.38904200000002
  0
ARC
  5
4C3
  8
_________1
 62
     7
 10
123.072703
 20
171.11536899999999
 30
0.0
 40
0.226066
 50
172.16377499999999
 51
216.41475299999999
  0
LINE
  5
4C4
  8
_________1
 62
     7
 10
122.849
 20
171.14599999999999
 30
0.0
 11
122.849
 21
184.988
 31
0.0
  0
TEXT
  5
4C5
  8
_________2
 62
     7
 10
21.402799999999999
 20
49.585599999999999
 30
0.0
 40
3.6545800000000002
  1
・国産洗面器とのセットの場合は、国産の
 41
0.5
  0
TEXT
  5
4C6
  8
_________2
 62
     7
 10
21.402799999999999
 20
45.017299999999999
 30
0.0
 40
3.6545800000000002
  1
  排水ヘッド部を別途準備してください。
 41
0.5
  0
TEXT
  5
4C7
  8
_________2
 62
     7
 10
21.402799999999999
 20
40.449100000000001
 30
0.0
 40
3.6545800000000002
  1
・色番号はカタログを参照ください。
 41
0.5
  0
LINE
  5
4C8
  8
_________2
 62
     7
 10
205.30099999999999
 20
127.411
 30
0.0
 11
183.55000000000001
 21
127.411
 31
0.0
  0
LINE
  5
4C9
  8
_________2
 62
     7
 10
100.3
 20
-4.0910799999999998
 30
0.0
 11
100.3
 21
-21.071400000000001
 31
0.0
  0
LINE
  5
4CA
  8
_________2
 62
     7
 10
100.3
 20
275.93099999999998
 30
0.0
 11
100.3
 21
258.911
 31
0.0
  0
LINE
  5
4CB
  8
_________2
 62
     7
 10
17.049499999999998
 20
127.411
 30
0.0
 11
-4.70052
 21
127.411
 31
0.0
  0
INSERT
  5
4CC
  8
_________2
 62
     7
  2
AIGNBL04010002
 10
0.0
 20
0.0
 30
0.0
  0
TEXT
  5
4CD
  8
_________2
 62
     7
 10
104.605
 20
1.6794899999999999
 30
0.0
 40
3.0923400000000001
  1
図番
 41
0.5
  0
LINE
  5
4CE
  8
_________2
 62
     7
 10
103.55
 20
5.9087199999999989
 30
0.0
 11
183.55099999999999
 21
5.9087199999999989
 31
0.0
  0
TEXT
  5
4CF
  8
_________2
 62
     7
 10
104.605
 20
11.6793
 30
0.0
 40
3.0923400000000001
  1
品番
 41
0.5
  0
TEXT
  5
4D0
  8
_________2
 62
     7
 10
104.605
 20
31.818100000000001
 30
0.0
 40
3.0923400000000001
  1
名称
 41
0.5
  0
TEXT
  5
4D1
  8
_________2
 62
     7
 10
91.845058333333341
 20
26.821999999999999
 30
0.0
 40
3.6545800000000002
  1
mm
 41
0.5
 72
     1
 11
93.367800000000003
 21
26.821999999999999
 31
0.0
  0
TEXT
  5
4D2
  8
_________2
 62
     7
 10
85.643199999999993
 20
31.818100000000001
 30
0.0
 40
3.0923400000000001
  1
単位
 41
0.5
  0
TEXT
  5
4D3
  8
_________2
 62
     7
 10
85.643199999999993
 20
19.410799999999998
 30
0.0
 40
3.0923400000000001
  1
尺度
 41
0.5
  0
TEXT
  5
4D4
  8
_________2
 62
     7
 10
90.548758666666686
 20
13.2179
 30
0.0
 40
3.6545800000000002
  1
1 ： 4
 41
0.5
 72
     1
 11
93.959699999999998
 21
13.2179
 31
0.0
  0
TEXT
  5
4D5
  8
_________2
 62
     7
 10
134.36670000000001
 20
9.1078600000000005
 30
0.0
 40
3.9357000000000002
  1
VLHV3CDMU
 41
0.5
 72
     1
 11
143.55000000000001
 21
9.1078600000000005
 31
0.0
  0
TEXT
  5
4D6
  8
_________2
 62
     7
 10
134.36670000000001
 20
-0.8926299999999999
 30
0.0
 40
3.9357000000000002
  1
VLHV3CDMU
 41
0.5
 72
     1
 11
143.55000000000001
 21
-0.8926299999999999
 31
0.0
  0
TEXT
  5
4D7
  8
_________2
 62
     7
 10
24.5868
 20
0.707283
 30
0.0
 40
3.9357000000000002
  1
  （社）日本水道協会認証品
 41
0.5
  0
TEXT
  5
4D8
  8
_________2
 62
     7
 10
109.179
 20
24.2257
 30
0.0
 40
3.9357000000000002
  1
ボラ　湯水混合栓
 41
0.5
  0
TEXT
  5
4D9
  8
_________2
 62
     7
 10
39.364390666666672
 20
13.603
 30
0.0
 40
3.6545800000000002
  1
井伊
 41
0.5
 72
     1
 11
41.313499999999998
 21
13.603
 31
0.0
  0
TEXT
  5
4DA
  8
_________2
 62
     7
 10
20.851000333333339
 20
13.603
 30
0.0
 40
3.6545800000000002
  1
福田
 41
0.5
 72
     1
 11
22.7392
 21
13.603
 31
0.0
  0
TEXT
  5
4DB
  8
_________2
 62
     7
 10
67.785399999999996
 20
13.2179
 30
0.0
 40
3.6545800000000002
  1
21.04.14
 41
0.5
  0
TEXT
  5
4DC
  8
_________2
 62
     7
 10
66.593100000000007
 20
19.410799999999998
 30
0.0
 40
3.0923400000000001
  1
日付
 41
0.5
  0
TEXT
  5
4DD
  8
_________2
 62
     7
 10
29.639399999999998
 20
19.410799999999998
 30
0.0
 40
3.0923400000000001
  1
検図
 41
0.5
  0
TEXT
  5
4DE
  8
_________2
 62
     7
 10
18.021100000000001
 20
5.21143
 30
0.0
 40
3.0923400000000001
  1
備考
 41
0.5
  0
TEXT
  5
4DF
  8
_________2
 62
     7
 10
18.021100000000001
 20
19.410799999999998
 30
0.0
 40
3.0923400000000001
  1
製図
 41
0.5
  0
TEXT
  5
4E0
  8
_________2
 62
     7
 10
23.788465333333338
 20
27.936800000000002
 30
0.0
 40
4.4979399999999989
  1
セラトレーディング株式会社
 41
0.5
 72
     1
 11
41.180500000000002
 21
27.936800000000002
 31
0.0
  0
LINE
  5
4E1
  8
_________2
 62
     7
 10
183.55099999999999
 20
-4.0910799999999998
 30
0.0
 11
17.049499999999998
 21
-4.0910799999999998
 31
0.0
  0
LINE
  5
4E2
  8
_________2
 62
     7
 10
17.049499999999998
 20
-4.0910799999999998
 30
0.0
 11
17.049499999999998
 21
258.911
 31
0.0
  0
LINE
  5
4E3
  8
_________2
 62
     7
 10
17.049499999999998
 20
258.911
 30
0.0
 11
183.55099999999999
 21
258.911
 31
0.0
  0
LINE
  5
4E4
  8
_________2
 62
     7
 10
183.55099999999999
 20
258.911
 30
0.0
 11
183.55099999999999
 21
-4.0910799999999998
 31
0.0
  0
LINE
  5
4E5
  8
_________2
 62
     7
 10
65.549599999999998
 20
9.4089600000000004
 30
0.0
 11
65.549599999999998
 21
35.908799999999999
 31
0.0
  0
LINE
  5
4E6
  8
_________2
 62
     7
 10
84.549700000000016
 20
9.4089600000000004
 30
0.0
 11
84.549700000000016
 21
35.908799999999999
 31
0.0
  0
LINE
  5
4E7
  8
_________2
 62
     7
 10
103.55
 20
-4.0910799999999998
 30
0.0
 11
103.55
 21
35.908799999999999
 31
0.0
  0
LINE
  5
4E8
  8
_________2
 62
     7
 10
28.549299999999999
 20
9.4089600000000004
 30
0.0
 11
28.549299999999999
 21
23.409199999999998
 31
0.0
  0
LINE
  5
4E9
  8
_________2
 62
     7
 10
17.049499999999998
 20
9.4089600000000004
 30
0.0
 11
103.55
 21
9.4089600000000004
 31
0.0
  0
LINE
  5
4EA
  8
_________2
 62
     7
 10
17.049499999999998
 20
23.409199999999998
 30
0.0
 11
103.55
 21
23.409199999999998
 31
0.0
  0
LINE
  5
4EB
  8
_________2
 62
     7
 10
103.55
 20
15.9085
 30
0.0
 11
183.55099999999999
 21
15.9085
 31
0.0
  0
LINE
  5
4EC
  8
_________2
 62
     7
 10
17.049499999999998
 20
35.908799999999999
 30
0.0
 11
183.55099999999999
 21
35.908799999999999
 31
0.0
  0
ENDSEC
  0
EOF
