  0
SECTION
  2
HEADER
  9
$ACADVER
  1
AC1009
  9
$INSBASE
 10
0.0
 20
0.0
 30
0.0
  9
$EXTMIN
 10
-4.70052
 20
-21.071400000000001
 30
0.0
  9
$EXTMAX
 10
205.30099999999999
 20
275.93099999999993
 30
0.0
  9
$LIMMIN
 10
0.0
 20
0.0
  9
$LIMMAX
 10
12.0
 20
9.0
  9
$ORTHOMODE
 70
     0
  9
$REGENMODE
 70
     1
  9
$FILLMODE
 70
     1
  9
$QTEXTMODE
 70
     0
  9
$MIRRTEXT
 70
     1
  9
$DRAGMODE
 70
     2
  9
$LTSCALE
 40
1.0
  9
$OSMODE
 70
    37
  9
$ATTMODE
 70
     1
  9
$TEXTSIZE
 40
0.0
  9
$TRACEWID
 40
0.05
  9
$TEXTSTYLE
  7
STANDARD
  9
$CLAYER
  8
0
  9
$CELTYPE
  6
CONTINUOUS
  9
$CECOLOR
 62
   256
  9
$DIMSCALE
 40
1.0
  9
$DIMASZ
 40
0.18
  9
$DIMEXO
 40
0.0625
  9
$DIMDLI
 40
0.38
  9
$DIMRND
 40
0.0
  9
$DIMDLE
 40
0.0
  9
$DIMEXE
 40
0.18
  9
$DIMTP
 40
0.0
  9
$DIMTM
 40
0.0
  9
$DIMTXT
 40
0.18
  9
$DIMCEN
 40
0.09
  9
$DIMTSZ
 40
0.0
  9
$DIMTOL
 70
     0
  9
$DIMLIM
 70
     0
  9
$DIMTIH
 70
     1
  9
$DIMTOH
 70
     1
  9
$DIMSE1
 70
     0
  9
$DIMSE2
 70
     0
  9
$DIMTAD
 70
     0
  9
$DIMZIN
 70
     0
  9
$DIMBLK
  1

  9
$DIMASO
 70
     1
  9
$DIMSHO
 70
     1
  9
$DIMPOST
  1

  9
$DIMAPOST
  1

  9
$DIMALT
 70
     0
  9
$DIMALTD
 70
     2
  9
$DIMALTF
 40
25.399999999999999
  9
$DIMLFAC
 40
1.0
  9
$DIMTOFL
 70
     0
  9
$DIMTVP
 40
0.0
  9
$DIMTIX
 70
     0
  9
$DIMSOXD
 70
     0
  9
$DIMSAH
 70
     0
  9
$DIMBLK1
  1

  9
$DIMBLK2
  1

  9
$DIMSTYLE
  2
STANDARD
  9
$DIMCLRD
 70
     0
  9
$DIMCLRE
 70
     0
  9
$DIMCLRT
 70
     0
  9
$DIMTFAC
 40
1.0
  9
$DIMGAP
 40
0.09
  9
$LUNITS
 70
     2
  9
$LUPREC
 70
     4
  9
$SKETCHINC
 40
0.1
  9
$FILLETRAD
 40
0.0
  9
$AUNITS
 70
     0
  9
$AUPREC
 70
     0
  9
$MENU
  1
.
  9
$ELEVATION
 40
0.0
  9
$PELEVATION
 40
0.0
  9
$THICKNESS
 40
0.0
  9
$LIMCHECK
 70
     0
  9
$BLIPMODE
 70
     0
  9
$CHAMFERA
 40
0.0
  9
$CHAMFERB
 40
0.0
  9
$SKPOLY
 70
     0
  9
$TDCREATE
 40
2444972.375
  9
$TDUPDATE
 40
2456676.250054271
  9
$TDINDWG
 40
0.0000076736
  9
$TDUSRTIMER
 40
0.0000076736
  9
$USRTIMER
 70
     1
  9
$ANGBASE
 50
0.0
  9
$ANGDIR
 70
     0
  9
$PDMODE
 70
     0
  9
$PDSIZE
 40
0.0
  9
$PLINEWID
 40
0.0
  9
$COORDS
 70
     1
  9
$SPLFRAME
 70
     0
  9
$SPLINETYPE
 70
     6
  9
$SPLINESEGS
 70
     8
  9
$ATTDIA
 70
     0
  9
$ATTREQ
 70
     1
  9
$HANDLING
 70
     1
  9
$HANDSEED
  5
3CC
  9
$SURFTAB1
 70
     6
  9
$SURFTAB2
 70
     6
  9
$SURFTYPE
 70
     6
  9
$SURFU
 70
     6
  9
$SURFV
 70
     6
  9
$UCSNAME
  2

  9
$UCSORG
 10
0.0
 20
0.0
 30
0.0
  9
$UCSXDIR
 10
1.0
 20
0.0
 30
0.0
  9
$UCSYDIR
 10
0.0
 20
1.0
 30
0.0
  9
$PUCSNAME
  2

  9
$PUCSORG
 10
0.0
 20
0.0
 30
0.0
  9
$PUCSXDIR
 10
1.0
 20
0.0
 30
0.0
  9
$PUCSYDIR
 10
0.0
 20
1.0
 30
0.0
  9
$USERI1
 70
     0
  9
$USERI2
 70
     0
  9
$USERI3
 70
     0
  9
$USERI4
 70
     0
  9
$USERI5
 70
     0
  9
$USERR1
 40
0.0
  9
$USERR2
 40
0.0
  9
$USERR3
 40
0.0
  9
$USERR4
 40
0.0
  9
$USERR5
 40
0.0
  9
$WORLDVIEW
 70
     1
  9
$SHADEDGE
 70
     3
  9
$SHADEDIF
 70
    70
  9
$TILEMODE
 70
     1
  9
$MAXACTVP
 70
    48
  9
$PLIMCHECK
 70
     0
  9
$PEXTMIN
 10
1.0000000000000000E+020
 20
1.0000000000000000E+020
 30
1.0000000000000000E+020
  9
$PEXTMAX
 10
-1.0000000000000000E+020
 20
-1.0000000000000000E+020
 30
-1.0000000000000000E+020
  9
$PLIMMIN
 10
0.0
 20
0.0
  9
$PLIMMAX
 10
12.0
 20
9.0
  9
$UNITMODE
 70
     0
  9
$VISRETAIN
 70
     1
  9
$PLINEGEN
 70
     0
  9
$PSLTSCALE
 70
     1
  0
ENDSEC
  0
SECTION
  2
TABLES
  0
TABLE
  2
VPORT
 70
     2
  0
VPORT
  2
*ACTIVE
 70
     0
 10
0.0
 20
0.0
 11
1.0
 21
1.0
 12
202.00678374696719
 22
127.4298
 13
0.0
 23
0.0
 14
1.0
 24
1.0
 15
0.0
 25
0.0
 16
0.0
 26
0.0
 36
1.0
 17
0.0
 27
0.0
 37
0.0
 40
299.45358899587342
 41
2.2894736842105261
 42
50.0
 43
0.0
 44
0.0
 50
0.0
 51
0.0
 71
     0
 72
   100
 73
     1
 74
     1
 75
     0
 76
     0
 77
     0
 78
     0
  0
ENDTAB
  0
TABLE
  2
LTYPE
 70
     4
  0
LTYPE
  2
CONTINUOUS
 70
     0
  3
Solid line
 72
    65
 73
     0
 40
0.0
  0
LTYPE
  2
AIGENLINE001
 70
     0
  3
generate AI->DXF Converter
 72
    65
 73
     4
 40
5.8561449999999988
 49
3.5278
 49
-0.776115
 49
0.776115
 49
-0.776115
  0
LTYPE
  2
AIGENLINE002
 70
     0
  3
generate AI->DXF Converter
 72
    65
 73
     4
 40
5.8558209999999988
 49
3.5278
 49
-0.776007
 49
0.776007
 49
-0.776007
  0
LTYPE
  2
AIGENLINE003
 70
     0
  3
generate AI->DXF Converter
 72
    65
 73
     6
 40
7.4083750000000004
 49
3.5278
 49
-0.776115
 49
0.776115
 49
-0.776115
 49
0.776115
 49
-0.776115
  0
ENDTAB
  0
TABLE
  2
LAYER
 70
     3
  0
LAYER
  2
0
 70
     0
 62
     7
  6
CONTINUOUS
  0
LAYER
  2
_________4
 70
     0
 62
     7
  6
CONTINUOUS
  0
LAYER
  2
_________2
 70
     0
 62
     7
  6
CONTINUOUS
  0
ENDTAB
  0
TABLE
  2
STYLE
 70
     1
  0
STYLE
  2
STANDARD
 70
     0
 40
0.0
 41
0.0
 50
0.0
 71
     0
 42
0.0
  3
TXT
  4
EXTFONT.SHX
  0
ENDTAB
  0
TABLE
  2
VIEW
 70
     0
  0
ENDTAB
  0
TABLE
  2
UCS
 70
     0
  0
ENDTAB
  0
TABLE
  2
APPID
 70
     1
  0
APPID
  2
ACAD
 70
     0
  0
ENDTAB
  0
TABLE
  2
DIMSTYLE
 70
     1
  0
DIMSTYLE
  2
STANDARD
 70
     0
  3

  4

  5

  6

  7

 40
1.0
 41
0.18
 42
0.0625
 43
0.38
 44
0.18
 45
0.0
 46
0.0
 47
0.0
 48
0.0
140
0.18
141
0.09
142
0.0
143
25.399999999999999
144
1.0
145
0.0
146
1.0
147
0.09
 71
     0
 72
     0
 73
     1
 74
     1
 75
     0
 76
     0
 77
     0
 78
     0
170
     0
171
     2
172
     0
173
     0
174
     0
175
     0
176
     0
177
     0
178
     0
  0
ENDTAB
  0
ENDSEC
  0
SECTION
  2
BLOCKS
  0
BLOCK
  8
0
  2
$MODEL_SPACE
 70
     0
 10
0.0
 20
0.0
 30
0.0
  3
$MODEL_SPACE
  1

  0
ENDBLK
  5
1A
  8
0
  0
BLOCK
 67
     1
  8
0
  2
$PAPER_SPACE
 70
     0
 10
0.0
 20
0.0
 30
0.0
  3
$PAPER_SPACE
  1

  0
ENDBLK
  5
17
 67
     1
  8
0
  0
ENDSEC
  0
SECTION
  2
ENTITIES
  0
TEXT
  5
25
  8
0
 62
     7
 10
113.11799999999999
 20
176.09437249999999
 30
0.0
 40
3.0923400000000001
  1
30
 50
90.0
 41
0.5
 72
     1
 11
113.11799999999999
 21
177.25399999999999
 31
0.0
  0
TEXT
  5
26
  8
0
 62
     7
 10
89.761799999999994
 20
176.66952499999991
 30
0.0
 40
3.0923400000000001
  1
35
 50
90.0
 41
0.5
 72
     1
 11
89.761799999999994
 21
177.95799999999991
 31
0.0
  0
TEXT
  5
27
  8
0
 62
     7
 10
134.84221999999991
 20
185.1629999999999
 30
0.0
 40
3.0923400000000001
  1
21
 41
0.5
 72
     1
 11
135.87299999999991
 21
185.1629999999999
 31
0.0
  0
TEXT
  5
28
  8
0
 62
     7
 10
125.74328749999999
 20
185.42400000000001
 30
0.0
 40
3.0923400000000001
  1
%%c40
 41
0.5
 72
     1
 11
127.676
 21
185.42400000000001
 31
0.0
  0
TEXT
  5
29
  8
0
 62
     7
 10
134.27204999999989
 20
116.39100000000001
 30
0.0
 40
3.0923400000000001
  1
%%c6
 41
0.5
 72
     2
 11
136.8489999999999
 21
116.39100000000001
 31
0.0
  0
TEXT
  5
2A
  8
0
 62
     7
 10
54.118299999999998
 20
89.296400000000006
 30
0.0
 40
3.0923400000000001
  1
%%c10
 41
0.5
  0
TEXT
  5
2B
  8
0
 62
     7
 10
77.142499999999984
 20
130.6572875
 30
0.0
 40
3.0923400000000001
  1
480
 50
90.0
 41
0.5
 72
     1
 11
77.142499999999984
 21
132.59
 31
0.0
  0
TEXT
  5
2C
  8
0
 62
     7
 10
144.982
 20
133.91698249999999
 30
0.0
 40
3.0923400000000001
  1
310
 50
90.0
 41
0.5
 72
     1
 11
144.982
 21
135.59200000000001
 31
0.0
  0
TEXT
  5
2D
  8
0
 62
     7
 10
114.2759859999999
 20
201.47900000000001
 30
0.0
 40
3.0923400000000001
  1
閉
 41
0.5
 72
     2
 11
115.616
 21
201.47900000000001
 31
0.0
  0
TEXT
  5
2E
  8
0
 62
     7
 10
115.019986
 20
206.245
 30
0.0
 40
3.0923400000000001
  1
開
 41
0.5
 72
     2
 11
116.3599999999999
 21
206.245
 31
0.0
  0
TEXT
  5
2F
  8
0
 62
     7
 10
144.95099999999991
 20
188.46613500000001
 30
0.0
 40
3.0923400000000001
  1
134
 50
90.0
 41
0.5
 72
     1
 11
144.95099999999991
 21
190.27000000000001
 31
0.0
  0
TEXT
  5
30
  8
0
 62
     7
 10
48.38239999999999
 20
185.8959825
 30
0.0
 40
3.0923400000000001
  1
120
 50
90.0
 41
0.5
 72
     1
 11
48.38239999999999
 21
187.57099999999991
 31
0.0
  0
TEXT
  5
31
  8
0
 62
     7
 10
48.38239999999999
 20
164.85137249999991
 30
0.0
 40
3.0923400000000001
  1
60
 50
90.0
 41
0.5
 72
     1
 11
48.38239999999999
 21
166.01099999999991
 31
0.0
  0
TEXT
  5
32
  8
0
 62
     7
 10
112.4929824999999
 20
214.196
 30
0.0
 40
3.0923400000000001
  1
107
 41
0.5
 72
     1
 11
114.16800000000001
 21
214.196
 31
0.0
  0
TEXT
  5
33
  8
0
 62
     7
 10
125.68628750000001
 20
167.8659999999999
 30
0.0
 40
3.0923400000000001
  1
%%c30
 41
0.5
 72
     1
 11
127.6189999999999
 21
167.8659999999999
 31
0.0
  0
TEXT
  5
34
  8
0
 62
     7
 10
54.227899999999991
 20
165.54242249999999
 30
0.0
 40
3.0923400000000001
  1
max.50
 50
90.0
 41
0.5
 72
     1
 11
54.227899999999991
 21
169.279
 31
0.0
  0
TEXT
  5
35
  8
0
 62
     7
 10
75.517099999999985
 20
229.7299999999999
 30
0.0
 40
3.0923400000000001
  1
水
 41
0.5
  0
TEXT
  5
36
  8
0
 62
     7
 10
53.323107999999998
 20
229.7299999999999
 30
0.0
 40
3.0923400000000001
  1
湯
 41
0.5
 72
     2
 11
54.766199999999998
 21
229.7299999999999
 31
0.0
  0
TEXT
  5
37
  8
0
 62
     7
 10
136.62113600000001
 20
233.56299999999999
 30
0.0
 40
3.0923400000000001
  1
%%c32～35
 41
0.5
 72
     2
 11
145.69200000000001
 21
233.56299999999999
 31
0.0
  0
TEXT
  5
38
  8
0
 62
     7
 10
124.49564599999999
 20
224.41499999999991
 30
0.0
 40
3.0923400000000001
  1
水栓取付穴
 41
0.5
 72
     1
 11
128.92799999999991
 21
224.41499999999991
 31
0.0
  0
TEXT
  5
39
  8
0
 62
     7
 10
124.433809
 20
47.691400000000002
 30
0.0
 40
3.0923400000000001
  1
G1 1/4
 41
0.5
 72
     1
 11
127.98999999999999
 21
47.691400000000002
 31
0.0
  0
TEXT
  5
3A
  8
0
 62
     7
 10
145.07113499999991
 20
42.922400000000003
 30
0.0
 40
3.0923400000000001
  1
215
 41
0.5
 72
     1
 11
146.875
 21
42.922400000000003
 31
0.0
  0
TEXT
  5
3B
  8
0
 62
     7
 10
125.2594399999999
 20
83.005300000000005
 30
0.0
 40
3.0923400000000001
  1
%%c64
 41
0.5
 72
     1
 11
127.3209999999999
 21
83.005300000000005
 31
0.0
  0
TEXT
  5
3C
  8
0
 62
     7
 10
154.00399999999991
 20
62.694249999999997
 30
0.0
 40
3.0923400000000001
  1
%%c5
 50
90.0
 41
0.5
 72
     2
 11
154.00399999999991
 21
65.271199999999993
 31
0.0
  0
TEXT
  5
3D
  8
0
 62
     7
 10
114.9639999999999
 20
66.181722500000006
 30
0.0
 40
3.0923400000000001
  1
max.50
 50
90.0
 41
0.5
 72
     1
 11
114.9639999999999
 21
69.918300000000002
 31
0.0
  0
TEXT
  5
3E
  8
0
 62
     7
 10
115.179
 20
57.577224999999991
 30
0.0
 40
3.0923400000000001
  1
44
 50
90.0
 41
0.5
 72
     1
 11
115.179
 21
58.86569999999999
 31
0.0
  0
LINE
  5
3F
  8
_________4
 62
     7
 10
67.979200000000006
 20
129.20099999999991
 30
0.0
 11
67.979200000000006
 21
158.511
 31
0.0
  0
LINE
  5
40
  8
_________4
 62
     7
 10
64.979200000000006
 20
129.20099999999991
 30
0.0
 11
64.979200000000006
 21
158.511
 31
0.0
  0
LINE
  5
41
  8
_________4
  6
AIGENLINE001
 62
     7
 10
66.479200000000006
 20
91.912599999999983
 30
0.0
 11
66.479200000000006
 21
161.39699999999999
 31
0.0
  0
ARC
  5
42
  8
_________4
 62
     7
 10
67.230289999999997
 20
128.054744
 30
0.0
 40
1.0646219999999991
 50
240.32413500000001
 51
269.92409600000002
  0
ARC
  5
43
  8
_________4
 62
     7
 10
67.054591000000002
 20
127.713172
 30
0.0
 40
0.681062
 50
212.34834699999999
 51
238.939674
  0
ARC
  5
44
  8
_________4
 62
     7
 10
67.227467000000004
 20
128.05528000000001
 30
0.0
 40
1.065158
 50
270.07599099999987
 51
299.66824899999989
  0
ARC
  5
45
  8
_________4
 62
     7
 10
67.404173999999998
 20
127.71192000000001
 30
0.0
 40
0.679543
 50
301.05231299999991
 51
327.69551000000001
  0
ARC
  5
46
  8
_________4
 62
     7
 10
67.227467000000004
 20
126.64294199999991
 30
0.0
 40
1.0647999999999991
 50
60.320795999999987
 51
89.924006000000006
  0
ARC
  5
47
  8
_________4
 62
     7
 10
67.404286999999997
 20
126.986486
 30
0.0
 40
0.678974
 50
32.246316999999991
 51
58.929879000000007
  0
ARC
  5
48
  8
_________4
 62
     7
 10
67.230289999999997
 20
126.643477
 30
0.0
 40
1.064263999999999
 50
90.075906999999987
 51
119.686823
  0
ARC
  5
49
  8
_________4
 62
     7
 10
67.054475999999994
 20
126.985237
 30
0.0
 40
0.6804899999999999
 50
121.0781309999999
 51
147.70982799999999
  0
ARC
  5
4A
  8
_________4
 62
     7
 10
65.727466000000007
 20
126.642117
 30
0.0
 40
1.065625
 50
60.332545000000003
 51
89.924186999999989
  0
ARC
  5
4B
  8
_________4
 62
     7
 10
65.902828999999997
 20
126.983547
 30
0.0
 40
0.6823560000000001
 50
32.359071999999991
 51
58.936844999999998
  0
ARC
  5
4C
  8
_________4
 62
     7
 10
65.730285999999992
 20
126.643477
 30
0.0
 40
1.064263999999999
 50
90.075906999999987
 51
119.686823
  0
ARC
  5
4D
  8
_________4
 62
     7
 10
65.554472000000004
 20
126.985237
 30
0.0
 40
0.6804899999999999
 50
121.0781309999999
 51
147.70982799999999
  0
ARC
  5
4E
  8
_________4
 62
     7
 10
65.728154000000004
 20
128.49557200000001
 30
0.0
 40
1.064263999999999
 50
60.313157999999987
 51
89.924072999999993
  0
ARC
  5
4F
  8
_________4
 62
     7
 10
65.903968000000006
 20
128.837332
 30
0.0
 40
0.6804899999999999
 50
32.290152999999997
 51
58.921849000000009
  0
ARC
  5
50
  8
_________4
 62
     7
 10
65.730979000000005
 20
128.494316
 30
0.0
 40
1.0655209999999991
 50
90.076064999999986
 51
119.6689079999999
  0
ARC
  5
51
  8
_________4
 62
     7
 10
65.553894
 20
128.83824899999991
 30
0.0
 40
0.6792200000000001
 50
121.050224
 51
147.73360500000001
  0
ARC
  5
52
  8
_________4
 62
     7
 10
65.730979000000005
 20
129.9073939999999
 30
0.0
 40
1.0655209999999991
 50
240.33109200000001
 51
269.92393499999997
  0
ARC
  5
53
  8
_________4
 62
     7
 10
65.553894
 20
129.56346099999999
 30
0.0
 40
0.6792200000000001
 50
212.26639499999999
 51
238.9497759999999
  0
ARC
  5
54
  8
_________4
 62
     7
 10
65.728154000000004
 20
129.90613699999989
 30
0.0
 40
1.064263999999999
 50
270.07592699999992
 51
299.68684200000001
  0
ARC
  5
55
  8
_________4
 62
     7
 10
65.903968000000006
 20
129.56437700000001
 30
0.0
 40
0.6804899999999999
 50
301.07815099999999
 51
327.70984700000002
  0
ARC
  5
56
  8
_________4
 62
     7
 10
67.230632999999983
 20
129.90731199999999
 30
0.0
 40
1.065439
 50
240.32992399999989
 51
269.92422999999991
  0
ARC
  5
57
  8
_________4
 62
     7
 10
67.05438199999999
 20
129.564333
 30
0.0
 40
0.6803860000000001
 50
212.29124200000001
 51
238.929059
  0
ARC
  5
58
  8
_________4
 62
     7
 10
67.227811000000003
 20
129.90685799999989
 30
0.0
 40
1.0649850000000001
 50
270.07601799999998
 51
299.67656099999999
  0
ARC
  5
59
  8
_________4
 62
     7
 10
67.403891000000002
 20
129.56470999999999
 30
0.0
 40
0.6807350000000002
 50
301.058269
 51
327.68982
  0
LINE
  5
5A
  8
_________4
 62
     7
 10
67.729100000000003
 20
96.010900000000007
 30
0.0
 11
65.229299999999995
 21
96.010900000000007
 31
0.0
  0
LINE
  5
5B
  8
_________4
 62
     7
 10
67.729100000000003
 20
93.511199999999988
 30
0.0
 11
65.229299999999995
 21
93.511199999999988
 31
0.0
  0
LINE
  5
5C
  8
_________4
 62
     7
 10
65.185900000000004
 20
105.102
 30
0.0
 11
66.479200000000006
 21
105.102
 31
0.0
  0
LINE
  5
5D
  8
_________4
 62
     7
 10
65.987899999999996
 20
103.139
 30
0.0
 11
65.987899999999996
 21
100.913
 31
0.0
  0
LINE
  5
5E
  8
_________4
 62
     7
 10
65.597300000000004
 20
103.139
 30
0.0
 11
65.597300000000004
 21
100.913
 31
0.0
  0
LINE
  5
5F
  8
_________4
 62
     7
 10
65.597300000000004
 20
103.139
 30
0.0
 11
64.907200000000003
 21
103.139
 31
0.0
  0
LINE
  5
60
  8
_________4
 62
     7
 10
66.479200000000006
 20
103.139
 30
0.0
 11
65.987899999999996
 21
103.139
 31
0.0
  0
LINE
  5
61
  8
_________4
 62
     7
 10
65.597300000000004
 20
100.913
 30
0.0
 11
64.907200000000003
 21
100.913
 31
0.0
  0
LINE
  5
62
  8
_________4
 62
     7
 10
66.479200000000006
 20
100.913
 30
0.0
 11
65.987899999999996
 21
100.913
 31
0.0
  0
LINE
  5
63
  8
_________4
 62
     7
 10
65.229299999999995
 20
93.511199999999988
 30
0.0
 11
65.229299999999995
 21
100.011
 31
0.0
  0
LINE
  5
64
  8
_________4
 62
     7
 10
66.479200000000006
 20
100.011
 30
0.0
 11
64.907200000000003
 21
100.011
 31
0.0
  0
LINE
  5
65
  8
_________4
 62
     7
 10
68.324399999999997
 20
105.102
 30
0.0
 11
68.324399999999997
 21
103.41200000000001
 31
0.0
  0
LINE
  5
66
  8
_________4
 62
     7
 10
68.324399999999997
 20
105.102
 30
0.0
 11
66.479200000000006
 21
105.102
 31
0.0
  0
LINE
  5
67
  8
_________4
 62
     7
 10
68.051199999999994
 20
103.139
 30
0.0
 11
68.051199999999994
 21
100.913
 31
0.0
  0
LINE
  5
68
  8
_________4
 62
     7
 10
68.051199999999994
 20
103.139
 30
0.0
 11
68.324399999999997
 21
103.41200000000001
 31
0.0
  0
LINE
  5
69
  8
_________4
 62
     7
 10
66.970500000000001
 20
103.139
 30
0.0
 11
66.970500000000001
 21
100.913
 31
0.0
  0
LINE
  5
6A
  8
_________4
 62
     7
 10
67.361199999999997
 20
103.139
 30
0.0
 11
67.361199999999997
 21
100.913
 31
0.0
  0
LINE
  5
6B
  8
_________4
 62
     7
 10
67.361199999999997
 20
103.139
 30
0.0
 11
68.051199999999994
 21
103.139
 31
0.0
  0
LINE
  5
6C
  8
_________4
 62
     7
 10
66.479200000000006
 20
103.139
 30
0.0
 11
66.970500000000001
 21
103.139
 31
0.0
  0
ARC
  5
6D
  8
_________4
 62
     7
 10
68.034297999999993
 20
100.444743
 30
0.0
 40
0.468216
 50
2.1160509999999988
 51
87.927726000000007
  0
ARC
  5
6E
  8
_________4
 62
     7
 10
68.033547999999996
 20
100.479354
 30
0.0
 40
0.4689670000000001
 50
272.1607009999999
 51
357.88306299999999
  0
LINE
  5
6F
  8
_________4
 62
     7
 10
67.361199999999997
 20
100.913
 30
0.0
 11
68.051199999999994
 21
100.913
 31
0.0
  0
LINE
  5
70
  8
_________4
 62
     7
 10
66.479200000000006
 20
100.913
 30
0.0
 11
66.970500000000001
 21
100.913
 31
0.0
  0
LINE
  5
71
  8
_________4
 62
     7
 10
67.729100000000003
 20
93.511199999999988
 30
0.0
 11
67.729100000000003
 21
100.011
 31
0.0
  0
LINE
  5
72
  8
_________4
 62
     7
 10
66.479200000000006
 20
100.011
 30
0.0
 11
68.051199999999994
 21
100.011
 31
0.0
  0
LINE
  5
73
  8
_________4
 62
     7
 10
67.979200000000006
 20
105.102
 30
0.0
 11
67.979200000000006
 21
127.349
 31
0.0
  0
LINE
  5
74
  8
_________4
 62
     7
 10
64.979200000000006
 20
105.102
 30
0.0
 11
64.979200000000006
 21
127.349
 31
0.0
  0
ARC
  5
75
  8
0
 62
     7
 10
102.92926899999991
 20
182.345235
 30
0.0
 40
16.712506999999999
 50
217.92111399999999
 51
269.5198299999999
  0
ARC
  5
76
  8
0
 62
     7
 10
102.791318
 20
182.22705199999999
 30
0.0
 40
16.593737000000001
 50
269.99272500000001
 51
279.56417900000002
  0
LINE
  5
77
  8
0
 62
     7
 10
103.346
 20
166.297
 30
0.0
 11
101.13199999999991
 21
165.71599999999989
 31
0.0
  0
LINE
  5
78
  8
0
 62
     7
 10
101.13199999999991
 20
165.71599999999989
 30
0.0
 11
103.34
 21
165.11199999999991
 31
0.0
  0
LINE
  5
79
  8
0
 62
     7
 10
103.34
 20
165.11199999999991
 30
0.0
 11
103.346
 21
166.297
 31
0.0
  0
LINE
  5
7A
  8
0
 62
     7
 10
90.088800000000006
 20
170.69499999999991
 30
0.0
 11
92.094199999999987
 21
169.59200000000001
 31
0.0
  0
LINE
  5
7B
  8
0
 62
     7
 10
92.094199999999987
 20
169.59200000000001
 30
0.0
 11
90.908899999999988
 21
171.55000000000001
 31
0.0
  0
LINE
  5
7C
  8
0
 62
     7
 10
90.908899999999988
 20
171.55000000000001
 30
0.0
 11
90.088800000000006
 21
170.69499999999991
 31
0.0
  0
LINE
  5
7D
  8
0
 62
     7
 10
99.650000000000006
 20
180.184
 30
0.0
 11
91.569999999999993
 21
168.857
 31
0.0
  0
TEXT
  5
7E
  8
0
 62
     7
 10
94.048935
 20
163.33099999999999
 30
0.0
 40
3.0923400000000001
  1
35%%d
 41
0.5
 72
     1
 11
95.852800000000002
 21
163.33099999999999
 31
0.0
  0
LINE
  5
7F
  8
0
 62
     7
 10
114.352
 20
178.77199999999999
 30
0.0
 11
113.76000000000001
 21
180.983
 31
0.0
  0
LINE
  5
80
  8
0
 62
     7
 10
113.76000000000001
 20
180.983
 30
0.0
 11
113.16800000000001
 21
178.77199999999999
 31
0.0
  0
LINE
  5
81
  8
0
 62
     7
 10
113.16800000000001
 20
178.77199999999999
 30
0.0
 11
114.352
 21
178.77199999999999
 31
0.0
  0
LINE
  5
82
  8
0
 62
     7
 10
113.182
 20
175.73599999999999
 30
0.0
 11
113.7739999999999
 21
173.52500000000001
 31
0.0
  0
LINE
  5
83
  8
0
 62
     7
 10
113.7739999999999
 20
173.52500000000001
 30
0.0
 11
114.3669999999999
 21
175.73599999999999
 31
0.0
  0
LINE
  5
84
  8
0
 62
     7
 10
114.3669999999999
 20
175.73599999999999
 30
0.0
 11
113.182
 21
175.73599999999999
 31
0.0
  0
LINE
  5
85
  8
0
 62
     7
 10
113.76000000000001
 20
180.98400000000001
 30
0.0
 11
113.76000000000001
 21
173.52500000000001
 31
0.0
  0
LINE
  5
86
  8
0
 62
     7
 10
114.45999999999999
 20
180.983
 30
0.0
 11
104.081
 21
180.983
 31
0.0
  0
LINE
  5
87
  8
0
 62
     7
 10
90.996199999999988
 20
180.03700000000001
 30
0.0
 11
90.403999999999996
 21
182.24700000000001
 31
0.0
  0
LINE
  5
88
  8
0
 62
     7
 10
90.403999999999996
 20
182.24700000000001
 30
0.0
 11
89.811800000000005
 21
180.03700000000001
 31
0.0
  0
LINE
  5
89
  8
0
 62
     7
 10
89.811800000000005
 20
180.03700000000001
 30
0.0
 11
90.996199999999988
 21
180.03700000000001
 31
0.0
  0
LINE
  5
8A
  8
0
 62
     7
 10
89.826300000000003
 20
175.73599999999999
 30
0.0
 11
90.418499999999995
 21
173.52500000000001
 31
0.0
  0
LINE
  5
8B
  8
0
 62
     7
 10
90.418499999999995
 20
173.52500000000001
 30
0.0
 11
91.010699999999986
 21
175.73599999999999
 31
0.0
  0
LINE
  5
8C
  8
0
 62
     7
 10
91.010699999999986
 20
175.73599999999999
 30
0.0
 11
89.826300000000003
 21
175.73599999999999
 31
0.0
  0
LINE
  5
8D
  8
0
 62
     7
 10
90.403999999999996
 20
182.24799999999991
 30
0.0
 11
90.403999999999996
 21
173.52500000000001
 31
0.0
  0
LINE
  5
8E
  8
0
 62
     7
 10
100.083
 20
182.261
 30
0.0
 11
89.703999999999994
 21
182.261
 31
0.0
  0
LINE
  5
8F
  8
0
 62
     7
 10
101.13199999999991
 20
165.01599999999991
 30
0.0
 11
101.13199999999991
 21
181.2359999999999
 31
0.0
  0
LINE
  5
90
  8
0
 62
     7
 10
89.703999999999994
 20
173.51099999999991
 30
0.0
 11
121.91
 21
173.51099999999991
 31
0.0
  0
LINE
  5
91
  8
0
 62
     7
 10
138.1929999999999
 20
179.92099999999991
 30
0.0
 11
138.1929999999999
 21
184.19099999999989
 31
0.0
  0
LINE
  5
92
  8
0
  6
AIGENLINE001
 62
     7
 10
118.12599999999991
 20
133.1879999999999
 30
0.0
 11
127.0
 21
123.71299999999999
 31
0.0
  0
LINE
  5
93
  8
0
 62
     7
 10
119.376
 20
96.010599999999997
 30
0.0
 11
116.876
 21
96.010599999999997
 31
0.0
  0
LINE
  5
94
  8
0
 62
     7
 10
119.376
 20
93.510499999999979
 30
0.0
 11
116.876
 21
93.510499999999979
 31
0.0
  0
LINE
  5
95
  8
0
 62
     7
 10
116.28100000000001
 20
105.1009999999999
 30
0.0
 11
116.28100000000001
 21
103.41200000000001
 31
0.0
  0
LINE
  5
96
  8
0
 62
     7
 10
116.28100000000001
 20
105.1009999999999
 30
0.0
 11
118.12599999999991
 21
105.1009999999999
 31
0.0
  0
LINE
  5
97
  8
0
 62
     7
 10
116.55500000000001
 20
103.139
 30
0.0
 11
116.55500000000001
 21
100.91200000000001
 31
0.0
  0
LINE
  5
98
  8
0
 62
     7
 10
116.55500000000001
 20
103.139
 30
0.0
 11
116.28100000000001
 21
103.41200000000001
 31
0.0
  0
LINE
  5
99
  8
0
 62
     7
 10
117.63500000000001
 20
103.139
 30
0.0
 11
117.63500000000001
 21
100.91200000000001
 31
0.0
  0
LINE
  5
9A
  8
0
 62
     7
 10
117.2439999999999
 20
103.139
 30
0.0
 11
117.2439999999999
 21
100.91200000000001
 31
0.0
  0
LINE
  5
9B
  8
0
 62
     7
 10
117.2439999999999
 20
103.139
 30
0.0
 11
116.55500000000001
 21
103.139
 31
0.0
  0
LINE
  5
9C
  8
0
 62
     7
 10
118.12599999999991
 20
103.139
 30
0.0
 11
117.63500000000001
 21
103.139
 31
0.0
  0
ARC
  5
9D
  8
0
 62
     7
 10
116.571426
 20
100.47861999999991
 30
0.0
 40
0.468549
 50
182.155484
 51
267.93208700000002
  0
ARC
  5
9E
  8
0
 62
     7
 10
116.57147399999999
 20
100.444042
 30
0.0
 40
0.468573
 50
92.073751000000001
 51
177.926219
  0
LINE
  5
9F
  8
0
 62
     7
 10
117.2439999999999
 20
100.91200000000001
 30
0.0
 11
116.55500000000001
 21
100.91200000000001
 31
0.0
  0
LINE
  5
A0
  8
0
 62
     7
 10
118.12599999999991
 20
100.91200000000001
 30
0.0
 11
117.63500000000001
 21
100.91200000000001
 31
0.0
  0
LINE
  5
A1
  8
0
 62
     7
 10
116.876
 20
93.510499999999979
 30
0.0
 11
116.876
 21
100.00999999999991
 31
0.0
  0
LINE
  5
A2
  8
0
 62
     7
 10
118.12599999999991
 20
100.00999999999991
 30
0.0
 11
116.55500000000001
 21
100.00999999999991
 31
0.0
  0
LINE
  5
A3
  8
0
 62
     7
 10
119.971
 20
105.1009999999999
 30
0.0
 11
119.971
 21
103.41200000000001
 31
0.0
  0
LINE
  5
A4
  8
0
 62
     7
 10
119.971
 20
105.1009999999999
 30
0.0
 11
118.12599999999991
 21
105.1009999999999
 31
0.0
  0
LINE
  5
A5
  8
0
 62
     7
 10
119.69799999999989
 20
103.139
 30
0.0
 11
119.69799999999989
 21
100.91200000000001
 31
0.0
  0
LINE
  5
A6
  8
0
 62
     7
 10
119.69799999999989
 20
103.139
 30
0.0
 11
119.971
 21
103.41200000000001
 31
0.0
  0
LINE
  5
A7
  8
0
 62
     7
 10
118.617
 20
103.139
 30
0.0
 11
118.617
 21
100.91200000000001
 31
0.0
  0
LINE
  5
A8
  8
0
 62
     7
 10
119.008
 20
103.139
 30
0.0
 11
119.008
 21
100.91200000000001
 31
0.0
  0
LINE
  5
A9
  8
0
 62
     7
 10
119.008
 20
103.139
 30
0.0
 11
119.69799999999989
 21
103.139
 31
0.0
  0
LINE
  5
AA
  8
0
 62
     7
 10
118.12599999999991
 20
103.139
 30
0.0
 11
118.617
 21
103.139
 31
0.0
  0
ARC
  5
AB
  8
0
 62
     7
 10
119.680887
 20
100.444042
 30
0.0
 40
0.468573
 50
2.073777999999999
 51
87.926211999999992
  0
ARC
  5
AC
  8
0
 62
     7
 10
119.6815739999999
 20
100.4779819999999
 30
0.0
 40
0.4678880000000001
 50
271.99272699999989
 51
357.91974199999993
  0
LINE
  5
AD
  8
0
 62
     7
 10
119.008
 20
100.91200000000001
 30
0.0
 11
119.69799999999989
 21
100.91200000000001
 31
0.0
  0
LINE
  5
AE
  8
0
 62
     7
 10
118.12599999999991
 20
100.91200000000001
 30
0.0
 11
118.617
 21
100.91200000000001
 31
0.0
  0
LINE
  5
AF
  8
0
 62
     7
 10
119.376
 20
93.510499999999979
 30
0.0
 11
119.376
 21
100.00999999999991
 31
0.0
  0
LINE
  5
B0
  8
0
 62
     7
 10
118.12599999999991
 20
100.00999999999991
 30
0.0
 11
119.69799999999989
 21
100.00999999999991
 31
0.0
  0
LINE
  5
B1
  8
0
 62
     7
 10
119.626
 20
105.102
 30
0.0
 11
119.626
 21
127.42999999999989
 31
0.0
  0
LINE
  5
B2
  8
0
 62
     7
 10
116.626
 20
105.102
 30
0.0
 11
116.626
 21
127.42999999999989
 31
0.0
  0
LINE
  5
B3
  8
0
  6
AIGENLINE001
 62
     7
 10
118.12599999999991
 20
133.1879999999999
 30
0.0
 11
118.12599999999991
 21
92.071799999999996
 31
0.0
  0
LINE
  5
B4
  8
0
 62
     7
 10
125.1549999999999
 20
184.083
 30
0.0
 11
122.944
 21
183.4909999999999
 31
0.0
  0
LINE
  5
B5
  8
0
 62
     7
 10
122.944
 20
183.4909999999999
 30
0.0
 11
125.1549999999999
 21
182.899
 31
0.0
  0
LINE
  5
B6
  8
0
 62
     7
 10
125.1549999999999
 20
182.899
 30
0.0
 11
125.1549999999999
 21
184.083
 31
0.0
  0
LINE
  5
B7
  8
0
 62
     7
 10
135.155
 20
184.083
 30
0.0
 11
132.9439999999999
 21
183.4909999999999
 31
0.0
  0
LINE
  5
B8
  8
0
 62
     7
 10
132.9439999999999
 20
183.4909999999999
 30
0.0
 11
135.155
 21
182.899
 31
0.0
  0
LINE
  5
B9
  8
0
 62
     7
 10
135.155
 20
182.899
 30
0.0
 11
135.155
 21
184.083
 31
0.0
  0
LINE
  5
BA
  8
0
 62
     7
 10
130.733
 20
182.899
 30
0.0
 11
132.9439999999999
 21
183.4909999999999
 31
0.0
  0
LINE
  5
BB
  8
0
 62
     7
 10
132.9439999999999
 20
183.4909999999999
 30
0.0
 11
130.733
 21
184.084
 31
0.0
  0
LINE
  5
BC
  8
0
 62
     7
 10
130.733
 20
184.084
 30
0.0
 11
130.733
 21
182.899
 31
0.0
  0
LINE
  5
BD
  8
0
 62
     7
 10
135.982
 20
182.899
 30
0.0
 11
138.1929999999999
 21
183.4909999999999
 31
0.0
  0
LINE
  5
BE
  8
0
 62
     7
 10
138.1929999999999
 20
183.4909999999999
 30
0.0
 11
135.982
 21
184.084
 31
0.0
  0
LINE
  5
BF
  8
0
 62
     7
 10
135.982
 20
184.084
 30
0.0
 11
135.982
 21
182.899
 31
0.0
  0
LINE
  5
C0
  8
0
 62
     7
 10
122.944
 20
183.4909999999999
 30
0.0
 11
138.1929999999999
 21
183.4909999999999
 31
0.0
  0
LINE
  5
C1
  8
0
 62
     7
 10
65.894599999999997
 20
243.54300000000001
 30
0.0
 11
65.894599999999997
 21
248.5449999999999
 31
0.0
  0
ARC
  5
C2
  8
0
 62
     7
 10
65.568387000000001
 20
248.5333509999999
 30
0.0
 40
0.326409
 50
2.0552019999999991
 51
86.802717000000001
  0
LINE
  5
C3
  8
0
 62
     7
 10
65.586600000000004
 20
248.85900000000001
 30
0.0
 11
64.575100000000006
 21
248.85900000000001
 31
0.0
  0
ARC
  5
C4
  8
0
 62
     7
 10
64.587114999999983
 20
248.5401259999999
 30
0.0
 40
0.319351
 50
92.155049000000005
 51
179.11528599999991
  0
LINE
  5
C5
  8
0
 62
     7
 10
64.267799999999994
 20
248.5449999999999
 30
0.0
 11
64.267799999999994
 21
243.54300000000001
 31
0.0
  0
LINE
  5
C6
  8
0
 62
     7
 10
132.8839999999999
 20
177.697
 30
0.0
 11
137.8179999999999
 21
177.697
 31
0.0
  0
ARC
  5
C7
  8
0
 62
     7
 10
137.80715900000001
 20
178.023223
 30
0.0
 40
0.325993
 50
271.98855499999991
 51
356.86938500000002
  0
LINE
  5
C8
  8
0
 62
     7
 10
138.1329999999999
 20
178.00499999999991
 30
0.0
 11
138.1329999999999
 21
179.01699999999991
 31
0.0
  0
ARC
  5
C9
  8
0
 62
     7
 10
137.81353599999991
 20
179.00523699999999
 30
0.0
 40
0.319356
 50
2.1558790000000001
 51
89.114475999999996
  0
LINE
  5
CA
  8
0
 62
     7
 10
137.8179999999999
 20
179.32499999999999
 30
0.0
 11
132.8839999999999
 21
179.32499999999999
 31
0.0
  0
LINE
  5
CB
  8
0
 62
     7
 10
131.35099999999991
 20
162.887
 30
0.0
 11
131.35099999999991
 21
158.511
 31
0.0
  0
LINE
  5
CC
  8
0
 62
     7
 10
131.35099999999991
 20
171.49499999999989
 30
0.0
 11
131.35099999999991
 21
166.01099999999991
 31
0.0
  0
LINE
  5
CD
  8
0
 62
     7
 10
131.601
 20
166.01099999999991
 30
0.0
 11
131.601
 21
171.49499999999989
 31
0.0
  0
LINE
  5
CE
  8
0
 62
     7
 10
124.351
 20
171.49499999999989
 30
0.0
 11
124.351
 21
166.01099999999991
 31
0.0
  0
LINE
  5
CF
  8
0
 62
     7
 10
124.1009999999999
 20
166.01099999999991
 30
0.0
 11
124.1009999999999
 21
171.49499999999989
 31
0.0
  0
LINE
  5
D0
  8
0
 62
     7
 10
131.35099999999991
 20
165.38599999999991
 30
0.0
 11
131.35099999999991
 21
164.137
 31
0.0
  0
LINE
  5
D1
  8
0
 62
     7
 10
131.601
 20
164.137
 30
0.0
 11
131.601
 21
165.38599999999991
 31
0.0
  0
LINE
  5
D2
  8
0
 62
     7
 10
124.351
 20
165.38599999999991
 30
0.0
 11
124.351
 21
164.137
 31
0.0
  0
LINE
  5
D3
  8
0
 62
     7
 10
124.1009999999999
 20
164.137
 30
0.0
 11
124.1009999999999
 21
165.38599999999991
 31
0.0
  0
LINE
  5
D4
  8
0
 62
     7
 10
124.351
 20
162.887
 30
0.0
 11
124.351
 21
158.511
 31
0.0
  0
LINE
  5
D5
  8
0
 62
     7
 10
124.1009999999999
 20
158.76099999999991
 30
0.0
 11
124.1009999999999
 21
162.887
 31
0.0
  0
LINE
  5
D6
  8
0
 62
     7
 10
124.1009999999999
 20
158.76099999999991
 30
0.0
 11
131.601
 21
158.76099999999991
 31
0.0
  0
LINE
  5
D7
  8
0
 62
     7
 10
131.601
 20
162.887
 30
0.0
 11
131.601
 21
158.76099999999991
 31
0.0
  0
LINE
  5
D8
  8
0
 62
     7
 10
131.601
 20
158.76099999999991
 30
0.0
 11
131.3489999999999
 21
158.511
 31
0.0
  0
LINE
  5
D9
  8
0
 62
     7
 10
131.3489999999999
 20
158.511
 30
0.0
 11
124.351
 21
158.511
 31
0.0
  0
LINE
  5
DA
  8
0
 62
     7
 10
124.351
 20
158.511
 30
0.0
 11
124.1009999999999
 21
158.76099999999991
 31
0.0
  0
LINE
  5
DB
  8
0
 62
     7
 10
68.494600000000005
 20
162.887
 30
0.0
 11
68.494600000000005
 21
158.511
 31
0.0
  0
LINE
  5
DC
  8
0
 62
     7
 10
68.494600000000005
 20
171.49499999999989
 30
0.0
 11
68.494600000000005
 21
166.01099999999991
 31
0.0
  0
LINE
  5
DD
  8
0
 62
     7
 10
68.744699999999995
 20
166.01099999999991
 30
0.0
 11
68.744699999999995
 21
171.49499999999989
 31
0.0
  0
LINE
  5
DE
  8
0
 62
     7
 10
61.494799999999998
 20
171.49499999999989
 30
0.0
 11
61.494799999999998
 21
166.01099999999991
 31
0.0
  0
LINE
  5
DF
  8
0
 62
     7
 10
61.245399999999989
 20
166.01099999999991
 30
0.0
 11
61.245399999999989
 21
171.49499999999989
 31
0.0
  0
LINE
  5
E0
  8
0
 62
     7
 10
68.494600000000005
 20
165.38599999999991
 30
0.0
 11
68.494600000000005
 21
164.137
 31
0.0
  0
LINE
  5
E1
  8
0
 62
     7
 10
68.744699999999995
 20
164.137
 30
0.0
 11
68.744699999999995
 21
165.38599999999991
 31
0.0
  0
LINE
  5
E2
  8
0
 62
     7
 10
61.494799999999998
 20
165.38599999999991
 30
0.0
 11
61.494799999999998
 21
164.137
 31
0.0
  0
LINE
  5
E3
  8
0
 62
     7
 10
61.245399999999989
 20
164.137
 30
0.0
 11
61.245399999999989
 21
165.38599999999991
 31
0.0
  0
LINE
  5
E4
  8
0
 62
     7
 10
61.494799999999998
 20
162.887
 30
0.0
 11
61.494799999999998
 21
158.511
 31
0.0
  0
LINE
  5
E5
  8
0
 62
     7
 10
61.245399999999989
 20
158.76099999999991
 30
0.0
 11
61.245399999999989
 21
162.887
 31
0.0
  0
LINE
  5
E6
  8
0
 62
     7
 10
61.245399999999989
 20
158.76099999999991
 30
0.0
 11
68.744699999999995
 21
158.76099999999991
 31
0.0
  0
LINE
  5
E7
  8
0
 62
     7
 10
68.744699999999995
 20
162.887
 30
0.0
 11
68.744699999999995
 21
158.76099999999991
 31
0.0
  0
LINE
  5
E8
  8
0
 62
     7
 10
68.744699999999995
 20
158.76099999999991
 30
0.0
 11
68.493200000000002
 21
158.511
 31
0.0
  0
LINE
  5
E9
  8
0
 62
     7
 10
68.493200000000002
 20
158.511
 30
0.0
 11
61.494799999999998
 21
158.511
 31
0.0
  0
LINE
  5
EA
  8
0
 62
     7
 10
61.494799999999998
 20
158.511
 30
0.0
 11
61.245399999999989
 21
158.76099999999991
 31
0.0
  0
LINE
  5
EB
  8
0
 62
     7
 10
127.258
 20
161.636
 30
0.0
 11
127.258
 21
162.88599999999991
 31
0.0
  0
LINE
  5
EC
  8
0
 62
     7
 10
128.5079999999999
 20
161.636
 30
0.0
 11
128.5079999999999
 21
162.88599999999991
 31
0.0
  0
LINE
  5
ED
  8
0
 62
     7
 10
127.258
 20
164.13599999999991
 30
0.0
 11
127.258
 21
165.38599999999991
 31
0.0
  0
LINE
  5
EE
  8
0
 62
     7
 10
128.5079999999999
 20
164.13599999999991
 30
0.0
 11
128.5079999999999
 21
165.38599999999991
 31
0.0
  0
LINE
  5
EF
  8
0
 62
     7
 10
126.8329999999999
 20
160.386
 30
0.0
 11
126.8329999999999
 21
161.636
 31
0.0
  0
LINE
  5
F0
  8
0
 62
     7
 10
126.8329999999999
 20
161.636
 30
0.0
 11
128.93299999999991
 21
161.636
 31
0.0
  0
LINE
  5
F1
  8
0
 62
     7
 10
128.93299999999991
 20
161.636
 30
0.0
 11
128.93299999999991
 21
160.386
 31
0.0
  0
LINE
  5
F2
  8
0
 62
     7
 10
128.93299999999991
 20
160.386
 30
0.0
 11
126.8329999999999
 21
160.386
 31
0.0
  0
LINE
  5
F3
  8
0
 62
     7
 10
121.6329999999999
 20
162.88599999999991
 30
0.0
 11
121.6329999999999
 21
164.13599999999991
 31
0.0
  0
LINE
  5
F4
  8
0
 62
     7
 10
121.6329999999999
 20
164.13599999999991
 30
0.0
 11
134.1329999999999
 21
164.13599999999991
 31
0.0
  0
LINE
  5
F5
  8
0
 62
     7
 10
134.1329999999999
 20
164.13599999999991
 30
0.0
 11
134.1329999999999
 21
162.88599999999991
 31
0.0
  0
LINE
  5
F6
  8
0
 62
     7
 10
134.1329999999999
 20
162.88599999999991
 30
0.0
 11
121.6329999999999
 21
162.88599999999991
 31
0.0
  0
LINE
  5
F7
  8
0
 62
     7
 10
121.6329999999999
 20
165.38599999999991
 30
0.0
 11
121.6329999999999
 21
165.761
 31
0.0
  0
LINE
  5
F8
  8
0
 62
     7
 10
121.6329999999999
 20
165.761
 30
0.0
 11
134.1329999999999
 21
165.761
 31
0.0
  0
LINE
  5
F9
  8
0
 62
     7
 10
134.1329999999999
 20
165.761
 30
0.0
 11
134.1329999999999
 21
165.38599999999991
 31
0.0
  0
LINE
  5
FA
  8
0
 62
     7
 10
134.1329999999999
 20
165.38599999999991
 30
0.0
 11
121.6329999999999
 21
165.38599999999991
 31
0.0
  0
LINE
  5
FB
  8
0
 62
     7
 10
122.3829999999999
 20
165.761
 30
0.0
 11
122.3829999999999
 21
166.01099999999991
 31
0.0
  0
LINE
  5
FC
  8
0
 62
     7
 10
122.3829999999999
 20
166.01099999999991
 30
0.0
 11
133.3829999999999
 21
166.01099999999991
 31
0.0
  0
LINE
  5
FD
  8
0
 62
     7
 10
133.3829999999999
 20
166.01099999999991
 30
0.0
 11
133.3829999999999
 21
165.761
 31
0.0
  0
LINE
  5
FE
  8
0
 62
     7
 10
133.3829999999999
 20
165.761
 30
0.0
 11
122.3829999999999
 21
165.761
 31
0.0
  0
LINE
  5
FF
  8
0
 62
     7
 10
128.13499999999991
 20
173.51099999999991
 30
0.0
 11
128.13499999999991
 21
172.06200000000001
 31
0.0
  0
ARC
  5
100
  8
0
 62
     7
 10
127.88029899999989
 20
172.06316799999991
 30
0.0
 40
0.254641
 50
315.05220500000001
 51
359.67665799999997
  0
ARC
  5
101
  8
0
 62
     7
 10
127.8834149999999
 20
172.059134
 30
0.0
 40
0.249586
 50
269.84809100000001
 51
315.20229799999998
  0
ARC
  5
102
  8
0
 62
     7
 10
127.88417800000001
 20
172.065844
 30
0.0
 40
0.2563
 50
225.424915
 51
269.68138699999997
  0
ARC
  5
103
  8
0
 62
     7
 10
127.887514
 20
172.063424
 30
0.0
 40
0.256949
 50
180.37753499999999
 51
224.516223
  0
LINE
  5
104
  8
0
 62
     7
 10
127.631
 20
172.06200000000001
 30
0.0
 11
127.631
 21
173.51099999999991
 31
0.0
  0
LINE
  5
105
  8
0
 62
     7
 10
131.91699999999989
 20
171.494
 30
0.0
 11
131.91699999999989
 21
173.51099999999991
 31
0.0
  0
LINE
  5
106
  8
0
 62
     7
 10
123.7859999999999
 20
171.494
 30
0.0
 11
131.91699999999989
 21
171.494
 31
0.0
  0
LINE
  5
107
  8
0
 62
     7
 10
131.91699999999989
 20
171.494
 30
0.0
 11
132.23199999999991
 21
173.51099999999991
 31
0.0
  0
LINE
  5
108
  8
0
 62
     7
 10
123.7859999999999
 20
173.51099999999991
 30
0.0
 11
123.7859999999999
 21
171.494
 31
0.0
  0
LINE
  5
109
  8
0
 62
     7
 10
123.7859999999999
 20
171.494
 30
0.0
 11
123.4709999999999
 21
173.51099999999991
 31
0.0
  0
LINE
  5
10A
  8
0
 62
     7
 10
123.1659999999999
 20
173.76300000000001
 30
0.0
 11
132.59899999999999
 21
173.76300000000001
 31
0.0
  0
LINE
  5
10B
  8
0
 62
     7
 10
132.59899999999999
 20
173.76300000000001
 30
0.0
 11
133.041
 21
173.76300000000001
 31
0.0
  0
LINE
  5
10C
  8
0
 62
     7
 10
133.041
 20
173.76300000000001
 30
0.0
 11
133.041
 21
173.51099999999991
 31
0.0
  0
LINE
  5
10D
  8
0
 62
     7
 10
133.041
 20
173.51099999999991
 30
0.0
 11
122.66200000000001
 21
173.51099999999991
 31
0.0
  0
LINE
  5
10E
  8
0
 62
     7
 10
122.66200000000001
 20
173.51099999999991
 30
0.0
 11
122.66200000000001
 21
173.76300000000001
 31
0.0
  0
LINE
  5
10F
  8
0
 62
     7
 10
122.66200000000001
 20
173.76300000000001
 30
0.0
 11
123.1659999999999
 21
173.76300000000001
 31
0.0
  0
LINE
  5
110
  8
0
 62
     7
 10
64.840699999999998
 20
157.994
 30
0.0
 11
64.323300000000003
 21
158.511
 31
0.0
  0
LINE
  5
111
  8
0
 62
     7
 10
62.358199999999997
 20
158.511
 30
0.0
 11
61.840699999999998
 21
157.994
 31
0.0
  0
LINE
  5
112
  8
0
 62
     7
 10
64.840699999999998
 20
156.89299999999989
 30
0.0
 11
63.222200000000001
 21
158.511
 31
0.0
  0
LINE
  5
113
  8
0
 62
     7
 10
63.459200000000003
 20
158.511
 30
0.0
 11
61.840699999999998
 21
156.89299999999989
 31
0.0
  0
LINE
  5
114
  8
0
 62
     7
 10
64.840699999999998
 20
155.792
 30
0.0
 11
62.121099999999998
 21
158.511
 31
0.0
  0
LINE
  5
115
  8
0
 62
     7
 10
64.560299999999998
 20
158.511
 30
0.0
 11
61.840699999999998
 21
155.792
 31
0.0
  0
LINE
  5
116
  8
0
 62
     7
 10
64.119299999999996
 20
155.41200000000001
 30
0.0
 11
61.840699999999998
 21
157.69099999999989
 31
0.0
  0
LINE
  5
117
  8
0
 62
     7
 10
64.840699999999998
 20
157.69099999999989
 30
0.0
 11
62.561399999999999
 21
155.41200000000001
 31
0.0
  0
LINE
  5
118
  8
0
 62
     7
 10
63.018300000000004
 20
155.41200000000001
 30
0.0
 11
61.840699999999998
 21
156.59
 31
0.0
  0
LINE
  5
119
  8
0
 62
     7
 10
64.840699999999998
 20
156.59
 30
0.0
 11
63.662500000000001
 21
155.41200000000001
 31
0.0
  0
LINE
  5
11A
  8
0
 62
     7
 10
67.979200000000006
 20
157.994
 30
0.0
 11
67.461799999999997
 21
158.511
 31
0.0
  0
LINE
  5
11B
  8
0
 62
     7
 10
65.496700000000004
 20
158.511
 30
0.0
 11
64.979200000000006
 21
157.994
 31
0.0
  0
LINE
  5
11C
  8
0
 62
     7
 10
67.979200000000006
 20
156.89299999999989
 30
0.0
 11
66.360699999999994
 21
158.511
 31
0.0
  0
LINE
  5
11D
  8
0
 62
     7
 10
66.597700000000003
 20
158.511
 30
0.0
 11
64.979200000000006
 21
156.89299999999989
 31
0.0
  0
LINE
  5
11E
  8
0
 62
     7
 10
67.979200000000006
 20
155.792
 30
0.0
 11
65.259699999999995
 21
158.511
 31
0.0
  0
LINE
  5
11F
  8
0
 62
     7
 10
67.698800000000006
 20
158.511
 30
0.0
 11
64.979200000000006
 21
155.792
 31
0.0
  0
LINE
  5
120
  8
0
 62
     7
 10
67.257800000000003
 20
155.41200000000001
 30
0.0
 11
64.979200000000006
 21
157.69099999999989
 31
0.0
  0
LINE
  5
121
  8
0
 62
     7
 10
67.979200000000006
 20
157.69099999999989
 30
0.0
 11
65.6999
 21
155.41200000000001
 31
0.0
  0
LINE
  5
122
  8
0
 62
     7
 10
66.156800000000004
 20
155.41200000000001
 30
0.0
 11
64.979200000000006
 21
156.59
 31
0.0
  0
LINE
  5
123
  8
0
 62
     7
 10
67.979200000000006
 20
156.59
 30
0.0
 11
66.801000000000002
 21
155.41200000000001
 31
0.0
  0
LINE
  5
124
  8
0
 62
     7
 10
64.840699999999998
 20
129.20099999999991
 30
0.0
 11
64.840699999999998
 21
158.511
 31
0.0
  0
LINE
  5
125
  8
0
 62
     7
 10
61.840699999999998
 20
129.20099999999991
 30
0.0
 11
61.840699999999998
 21
158.511
 31
0.0
  0
LINE
  5
126
  8
0
  6
AIGENLINE001
 62
     7
 10
63.340699999999998
 20
161.39699999999999
 30
0.0
 11
63.340699999999998
 21
92.072500000000005
 31
0.0
  0
LINE
  5
127
  8
0
 62
     7
 10
59.151600000000002
 20
161.636
 30
0.0
 11
59.151600000000002
 21
162.88599999999991
 31
0.0
  0
LINE
  5
128
  8
0
 62
     7
 10
60.401699999999991
 20
161.636
 30
0.0
 11
60.401699999999991
 21
162.88599999999991
 31
0.0
  0
LINE
  5
129
  8
0
 62
     7
 10
59.151600000000002
 20
164.13599999999991
 30
0.0
 11
59.151600000000002
 21
165.38599999999991
 31
0.0
  0
LINE
  5
12A
  8
0
 62
     7
 10
60.401699999999991
 20
164.13599999999991
 30
0.0
 11
60.401699999999991
 21
165.38599999999991
 31
0.0
  0
LINE
  5
12B
  8
0
  6
AIGENLINE001
 62
     7
 10
59.776699999999991
 20
159.339
 30
0.0
 11
59.776699999999991
 21
167.03399999999999
 31
0.0
  0
LINE
  5
12C
  8
0
 62
     7
 10
58.726700000000001
 20
160.386
 30
0.0
 11
58.726700000000001
 21
161.636
 31
0.0
  0
LINE
  5
12D
  8
0
 62
     7
 10
58.726700000000001
 20
161.636
 30
0.0
 11
60.826599999999999
 21
161.636
 31
0.0
  0
LINE
  5
12E
  8
0
 62
     7
 10
60.826599999999999
 20
161.636
 30
0.0
 11
60.826599999999999
 21
160.386
 31
0.0
  0
LINE
  5
12F
  8
0
 62
     7
 10
60.826599999999999
 20
160.386
 30
0.0
 11
58.726700000000001
 21
160.386
 31
0.0
  0
LINE
  5
130
  8
0
 62
     7
 10
69.651799999999994
 20
161.636
 30
0.0
 11
69.651799999999994
 21
162.88599999999991
 31
0.0
  0
LINE
  5
131
  8
0
 62
     7
 10
70.901700000000005
 20
161.636
 30
0.0
 11
70.901700000000005
 21
162.88599999999991
 31
0.0
  0
LINE
  5
132
  8
0
 62
     7
 10
69.651799999999994
 20
164.13599999999991
 30
0.0
 11
69.651799999999994
 21
165.38599999999991
 31
0.0
  0
LINE
  5
133
  8
0
 62
     7
 10
70.901700000000005
 20
164.13599999999991
 30
0.0
 11
70.901700000000005
 21
165.38599999999991
 31
0.0
  0
LINE
  5
134
  8
0
  6
AIGENLINE001
 62
     7
 10
70.276799999999994
 20
159.339
 30
0.0
 11
70.276799999999994
 21
167.03399999999999
 31
0.0
  0
LINE
  5
135
  8
0
  6
AIGENLINE001
 62
     7
 10
65.026799999999994
 20
95.050399999999996
 30
0.0
 11
65.026799999999994
 21
205.9499999999999
 31
0.0
  0
LINE
  5
136
  8
0
 62
     7
 10
69.226699999999994
 20
160.386
 30
0.0
 11
69.226699999999994
 21
161.636
 31
0.0
  0
LINE
  5
137
  8
0
 62
     7
 10
69.226699999999994
 20
161.636
 30
0.0
 11
71.326800000000006
 21
161.636
 31
0.0
  0
LINE
  5
138
  8
0
 62
     7
 10
71.326800000000006
 20
161.636
 30
0.0
 11
71.326800000000006
 21
160.386
 31
0.0
  0
LINE
  5
139
  8
0
 62
     7
 10
71.326800000000006
 20
160.386
 30
0.0
 11
69.226699999999994
 21
160.386
 31
0.0
  0
LINE
  5
13A
  8
0
 62
     7
 10
58.776600000000002
 20
162.88599999999991
 30
0.0
 11
58.776600000000002
 21
164.13599999999991
 31
0.0
  0
LINE
  5
13B
  8
0
 62
     7
 10
58.776600000000002
 20
164.13599999999991
 30
0.0
 11
71.276899999999998
 21
164.13599999999991
 31
0.0
  0
LINE
  5
13C
  8
0
 62
     7
 10
71.276899999999998
 20
164.13599999999991
 30
0.0
 11
71.276899999999998
 21
162.88599999999991
 31
0.0
  0
LINE
  5
13D
  8
0
 62
     7
 10
71.276899999999998
 20
162.88599999999991
 30
0.0
 11
58.776600000000002
 21
162.88599999999991
 31
0.0
  0
LINE
  5
13E
  8
0
 62
     7
 10
58.776600000000002
 20
165.38599999999991
 30
0.0
 11
58.776600000000002
 21
165.761
 31
0.0
  0
LINE
  5
13F
  8
0
 62
     7
 10
58.776600000000002
 20
165.761
 30
0.0
 11
71.276899999999998
 21
165.761
 31
0.0
  0
LINE
  5
140
  8
0
 62
     7
 10
71.276899999999998
 20
165.761
 30
0.0
 11
71.276899999999998
 21
165.38599999999991
 31
0.0
  0
LINE
  5
141
  8
0
 62
     7
 10
71.276899999999998
 20
165.38599999999991
 30
0.0
 11
58.776600000000002
 21
165.38599999999991
 31
0.0
  0
LINE
  5
142
  8
0
 62
     7
 10
59.526600000000002
 20
165.761
 30
0.0
 11
59.526600000000002
 21
166.01099999999991
 31
0.0
  0
LINE
  5
143
  8
0
 62
     7
 10
59.526600000000002
 20
166.01099999999991
 30
0.0
 11
70.526899999999998
 21
166.01099999999991
 31
0.0
  0
LINE
  5
144
  8
0
 62
     7
 10
70.526899999999998
 20
166.01099999999991
 30
0.0
 11
70.526899999999998
 21
165.761
 31
0.0
  0
LINE
  5
145
  8
0
 62
     7
 10
70.526899999999998
 20
165.761
 30
0.0
 11
59.526600000000002
 21
165.761
 31
0.0
  0
LINE
  5
146
  8
0
 62
     7
 10
65.278899999999993
 20
173.51099999999991
 30
0.0
 11
65.278899999999993
 21
172.06200000000001
 31
0.0
  0
ARC
  5
147
  8
0
 62
     7
 10
65.023482000000001
 20
172.06316199999989
 30
0.0
 40
0.255465
 50
315.23841099999993
 51
359.67903200000001
  0
ARC
  5
148
  8
0
 62
     7
 10
65.026876000000001
 20
172.06128200000001
 30
0.0
 40
0.251734
 50
269.97376000000003
 51
314.998175
  0
ARC
  5
149
  8
0
 62
     7
 10
65.028182999999999
 20
172.06499600000001
 30
0.0
 40
0.255452
 50
225.347014
 51
269.68109099999998
  0
ARC
  5
14A
  8
0
 62
     7
 10
65.031188999999998
 20
172.06363899999991
 30
0.0
 40
0.256618
 50
180.42604299999999
 51
224.65655299999989
  0
LINE
  5
14B
  8
0
 62
     7
 10
64.774600000000007
 20
172.06200000000001
 30
0.0
 11
64.774600000000007
 21
173.51099999999991
 31
0.0
  0
LINE
  5
14C
  8
0
 62
     7
 10
69.061000000000007
 20
171.494
 30
0.0
 11
69.061000000000007
 21
173.51099999999991
 31
0.0
  0
LINE
  5
14D
  8
0
 62
     7
 10
60.930199999999999
 20
171.494
 30
0.0
 11
69.061000000000007
 21
171.494
 31
0.0
  0
LINE
  5
14E
  8
0
 62
     7
 10
69.061000000000007
 20
171.494
 30
0.0
 11
69.375900000000001
 21
173.51099999999991
 31
0.0
  0
LINE
  5
14F
  8
0
 62
     7
 10
60.930199999999999
 20
173.51099999999991
 30
0.0
 11
60.930199999999999
 21
171.494
 31
0.0
  0
LINE
  5
150
  8
0
 62
     7
 10
60.930199999999999
 20
171.494
 30
0.0
 11
60.614899999999999
 21
173.51099999999991
 31
0.0
  0
ARC
  5
151
  8
0
 62
     7
 10
60.232631000000012
 20
173.99474499999999
 30
0.0
 40
0.244184
 50
263.98455799999988
 51
288.57005699999991
  0
ARC
  5
152
  8
0
 62
     7
 10
60.233815
 20
173.99115199999989
 30
0.0
 40
0.24074
 50
218.91470399999989
 51
263.61487899999997
  0
ARC
  5
153
  8
0
 62
     7
 10
60.234028000000002
 20
173.9900649999999
 30
0.0
 40
0.240225
 50
173.891177
 51
218.68099100000001
  0
LINE
  5
154
  8
0
 62
     7
 10
59.995199999999997
 20
174.01599999999991
 30
0.0
 11
59.995199999999997
 21
194.625
 31
0.0
  0
LINE
  5
155
  8
0
 62
     7
 10
59.995199999999997
 20
194.625
 30
0.0
 11
69.9953
 21
194.625
 31
0.0
  0
LINE
  5
156
  8
0
 62
     7
 10
69.9953
 20
194.625
 30
0.0
 11
69.9953
 21
174.01599999999991
 31
0.0
  0
ARC
  5
157
  8
0
 62
     7
 10
69.778979000000007
 20
173.984106
 30
0.0
 40
0.218614
 50
351.70939700000002
 51
8.2906029999999991
  0
ARC
  5
158
  8
0
 62
     7
 10
69.773089999999996
 20
173.98497800000001
 30
0.0
 40
0.224568
 50
307.08111600000001
 51
351.70607699999999
  0
ARC
  5
159
  8
0
 62
     7
 10
69.773165000000006
 20
173.98915600000001
 30
0.0
 40
0.22787
 50
262.42493599999989
 51
306.43262099999993
  0
LINE
  5
15A
  8
0
 62
     7
 10
60.310400000000001
 20
173.76300000000001
 30
0.0
 11
69.743099999999998
 21
173.76300000000001
 31
0.0
  0
LINE
  5
15B
  8
0
 62
     7
 10
69.743099999999998
 20
173.76300000000001
 30
0.0
 11
70.184799999999996
 21
173.76300000000001
 31
0.0
  0
LINE
  5
15C
  8
0
 62
     7
 10
70.184799999999996
 20
173.76300000000001
 30
0.0
 11
70.184799999999996
 21
173.51099999999991
 31
0.0
  0
LINE
  5
15D
  8
0
 62
     7
 10
70.184799999999996
 20
173.51099999999991
 30
0.0
 11
59.805999999999997
 21
173.51099999999991
 31
0.0
  0
LINE
  5
15E
  8
0
 62
     7
 10
59.805999999999997
 20
173.51099999999991
 30
0.0
 11
59.805999999999997
 21
173.76300000000001
 31
0.0
  0
LINE
  5
15F
  8
0
 62
     7
 10
59.805999999999997
 20
173.76300000000001
 30
0.0
 11
60.310400000000001
 21
173.76300000000001
 31
0.0
  0
LINE
  5
160
  8
0
 62
     7
 10
128.49999999999989
 20
157.994
 30
0.0
 11
127.983
 21
158.511
 31
0.0
  0
LINE
  5
161
  8
0
 62
     7
 10
126.0179999999999
 20
158.511
 30
0.0
 11
125.5
 21
157.994
 31
0.0
  0
LINE
  5
162
  8
0
 62
     7
 10
128.49999999999989
 20
156.89299999999989
 30
0.0
 11
126.88200000000001
 21
158.511
 31
0.0
  0
LINE
  5
163
  8
0
 62
     7
 10
127.119
 20
158.511
 30
0.0
 11
125.5
 21
156.89299999999989
 31
0.0
  0
LINE
  5
164
  8
0
 62
     7
 10
128.49999999999989
 20
155.792
 30
0.0
 11
125.78100000000001
 21
158.511
 31
0.0
  0
LINE
  5
165
  8
0
 62
     7
 10
128.22
 20
158.511
 30
0.0
 11
125.5
 21
155.792
 31
0.0
  0
LINE
  5
166
  8
0
 62
     7
 10
127.7789999999999
 20
155.41200000000001
 30
0.0
 11
125.5
 21
157.69099999999989
 31
0.0
  0
LINE
  5
167
  8
0
 62
     7
 10
128.49999999999989
 20
157.69099999999989
 30
0.0
 11
126.221
 21
155.41200000000001
 31
0.0
  0
LINE
  5
168
  8
0
 62
     7
 10
126.678
 20
155.41200000000001
 30
0.0
 11
125.5
 21
156.59
 31
0.0
  0
LINE
  5
169
  8
0
 62
     7
 10
128.49999999999989
 20
156.59
 30
0.0
 11
127.322
 21
155.41200000000001
 31
0.0
  0
ARC
  5
16A
  8
0
 62
     7
 10
64.091787999999994
 20
128.054744
 30
0.0
 40
1.0646219999999991
 50
240.32413500000001
 51
269.92409600000002
  0
ARC
  5
16B
  8
0
 62
     7
 10
63.916088999999999
 20
127.713172
 30
0.0
 40
0.681062
 50
212.34834699999999
 51
238.939674
  0
ARC
  5
16C
  8
0
 62
     7
 10
64.088965000000002
 20
128.05528000000001
 30
0.0
 40
1.065158
 50
270.07599099999987
 51
299.66824899999989
  0
ARC
  5
16D
  8
0
 62
     7
 10
64.265671999999995
 20
127.71192000000001
 30
0.0
 40
0.679543
 50
301.05231299999991
 51
327.69551000000001
  0
ARC
  5
16E
  8
0
 62
     7
 10
64.088965999999999
 20
126.64294199999991
 30
0.0
 40
1.0647999999999991
 50
60.320795999999987
 51
89.924006000000006
  0
ARC
  5
16F
  8
0
 62
     7
 10
64.265784999999994
 20
126.986486
 30
0.0
 40
0.678974
 50
32.246316999999991
 51
58.929879000000007
  0
ARC
  5
170
  8
0
 62
     7
 10
64.091787999999994
 20
126.643477
 30
0.0
 40
1.064263999999999
 50
90.075906999999987
 51
119.686823
  0
ARC
  5
171
  8
0
 62
     7
 10
63.915975000000003
 20
126.985237
 30
0.0
 40
0.6804899999999999
 50
121.0781309999999
 51
147.70982799999999
  0
ARC
  5
172
  8
0
 62
     7
 10
62.588964000000011
 20
126.642117
 30
0.0
 40
1.065625
 50
60.332545000000003
 51
89.924186999999989
  0
ARC
  5
173
  8
0
 62
     7
 10
62.764327000000002
 20
126.983547
 30
0.0
 40
0.6823560000000001
 50
32.359071999999991
 51
58.936844999999998
  0
ARC
  5
174
  8
0
 62
     7
 10
62.59178399999999
 20
126.643477
 30
0.0
 40
1.064263999999999
 50
90.075906999999987
 51
119.686823
  0
ARC
  5
175
  8
0
 62
     7
 10
62.415969999999987
 20
126.985237
 30
0.0
 40
0.6804899999999999
 50
121.0781309999999
 51
147.70982799999999
  0
ARC
  5
176
  8
0
 62
     7
 10
62.589652999999998
 20
128.49557200000001
 30
0.0
 40
1.064263999999999
 50
60.313157999999987
 51
89.924072999999993
  0
ARC
  5
177
  8
0
 62
     7
 10
62.765466000000004
 20
128.837332
 30
0.0
 40
0.6804899999999999
 50
32.290152999999997
 51
58.921849000000009
  0
ARC
  5
178
  8
0
 62
     7
 10
62.592477000000002
 20
128.494316
 30
0.0
 40
1.0655209999999991
 50
90.076064999999986
 51
119.6689079999999
  0
ARC
  5
179
  8
0
 62
     7
 10
62.415393000000002
 20
128.83824899999991
 30
0.0
 40
0.6792200000000001
 50
121.050224
 51
147.73360500000001
  0
ARC
  5
17A
  8
0
 62
     7
 10
62.592477000000002
 20
129.9073939999999
 30
0.0
 40
1.0655209999999991
 50
240.33109200000001
 51
269.92393499999997
  0
ARC
  5
17B
  8
0
 62
     7
 10
62.415393000000002
 20
129.56346099999999
 30
0.0
 40
0.6792200000000001
 50
212.26639499999999
 51
238.9497759999999
  0
ARC
  5
17C
  8
0
 62
     7
 10
62.589652999999998
 20
129.90613699999989
 30
0.0
 40
1.064263999999999
 50
270.07592699999992
 51
299.68684200000001
  0
ARC
  5
17D
  8
0
 62
     7
 10
62.765466000000004
 20
129.56437700000001
 30
0.0
 40
0.6804899999999999
 50
301.07815099999999
 51
327.70984700000002
  0
ARC
  5
17E
  8
0
 62
     7
 10
64.092131000000009
 20
129.90731199999999
 30
0.0
 40
1.065439
 50
240.32992399999989
 51
269.92422999999991
  0
ARC
  5
17F
  8
0
 62
     7
 10
63.915880000000001
 20
129.564333
 30
0.0
 40
0.6803860000000001
 50
212.29124200000001
 51
238.929059
  0
ARC
  5
180
  8
0
 62
     7
 10
64.089309
 20
129.90685799999989
 30
0.0
 40
1.0649850000000001
 50
270.07601799999998
 51
299.67656099999999
  0
ARC
  5
181
  8
0
 62
     7
 10
64.265388999999999
 20
129.56470999999999
 30
0.0
 40
0.6807350000000002
 50
301.058269
 51
327.68982
  0
LINE
  5
182
  8
0
 62
     7
 10
64.590599999999995
 20
96.010900000000007
 30
0.0
 11
62.090800000000002
 21
96.010900000000007
 31
0.0
  0
LINE
  5
183
  8
0
 62
     7
 10
64.590599999999995
 20
93.511199999999988
 30
0.0
 11
62.090800000000002
 21
93.511199999999988
 31
0.0
  0
LINE
  5
184
  8
0
 62
     7
 10
61.49519999999999
 20
105.102
 30
0.0
 11
61.49519999999999
 21
103.41200000000001
 31
0.0
  0
LINE
  5
185
  8
0
 62
     7
 10
61.49519999999999
 20
105.102
 30
0.0
 11
63.340699999999998
 21
105.102
 31
0.0
  0
LINE
  5
186
  8
0
 62
     7
 10
61.768700000000003
 20
103.139
 30
0.0
 11
61.768700000000003
 21
100.913
 31
0.0
  0
LINE
  5
187
  8
0
 62
     7
 10
61.768700000000003
 20
103.139
 30
0.0
 11
61.49519999999999
 21
103.41200000000001
 31
0.0
  0
LINE
  5
188
  8
0
 62
     7
 10
62.849400000000003
 20
103.139
 30
0.0
 11
62.849400000000003
 21
100.913
 31
0.0
  0
LINE
  5
189
  8
0
 62
     7
 10
62.458799999999989
 20
103.139
 30
0.0
 11
62.458799999999989
 21
100.913
 31
0.0
  0
LINE
  5
18A
  8
0
 62
     7
 10
62.458799999999989
 20
103.139
 30
0.0
 11
61.768700000000003
 21
103.139
 31
0.0
  0
LINE
  5
18B
  8
0
 62
     7
 10
63.340699999999998
 20
103.139
 30
0.0
 11
62.849400000000003
 21
103.139
 31
0.0
  0
ARC
  5
18C
  8
0
 62
     7
 10
61.785682999999999
 20
100.4786439999999
 30
0.0
 40
0.4682300000000001
 50
182.03326399999989
 51
267.92301200000003
  0
ARC
  5
18D
  8
0
 62
     7
 10
61.785706999999988
 20
100.44467999999991
 30
0.0
 40
0.4682810000000001
 50
92.079687000000007
 51
177.87649500000001
  0
LINE
  5
18E
  8
0
 62
     7
 10
62.458799999999989
 20
100.913
 30
0.0
 11
61.768700000000003
 21
100.913
 31
0.0
  0
LINE
  5
18F
  8
0
 62
     7
 10
63.340699999999998
 20
100.913
 30
0.0
 11
62.849400000000003
 21
100.913
 31
0.0
  0
LINE
  5
190
  8
0
 62
     7
 10
62.090800000000002
 20
93.511199999999988
 30
0.0
 11
62.090800000000002
 21
100.011
 31
0.0
  0
LINE
  5
191
  8
0
 62
     7
 10
63.340699999999998
 20
100.011
 30
0.0
 11
61.768700000000003
 21
100.011
 31
0.0
  0
LINE
  5
192
  8
0
 62
     7
 10
65.185900000000004
 20
105.102
 30
0.0
 11
65.185900000000004
 21
103.41200000000001
 31
0.0
  0
LINE
  5
193
  8
0
 62
     7
 10
65.185900000000004
 20
105.102
 30
0.0
 11
63.340699999999998
 21
105.102
 31
0.0
  0
LINE
  5
194
  8
0
 62
     7
 10
64.912700000000001
 20
103.139
 30
0.0
 11
64.912700000000001
 21
100.913
 31
0.0
  0
LINE
  5
195
  8
0
 62
     7
 10
64.912700000000001
 20
103.139
 30
0.0
 11
65.185900000000004
 21
103.41200000000001
 31
0.0
  0
LINE
  5
196
  8
0
 62
     7
 10
63.832000000000001
 20
103.139
 30
0.0
 11
63.832000000000001
 21
100.913
 31
0.0
  0
LINE
  5
197
  8
0
 62
     7
 10
64.222700000000003
 20
103.139
 30
0.0
 11
64.222700000000003
 21
100.913
 31
0.0
  0
LINE
  5
198
  8
0
 62
     7
 10
64.222700000000003
 20
103.139
 30
0.0
 11
64.912700000000001
 21
103.139
 31
0.0
  0
LINE
  5
199
  8
0
 62
     7
 10
63.340699999999998
 20
103.139
 30
0.0
 11
63.832000000000001
 21
103.139
 31
0.0
  0
ARC
  5
19A
  8
0
 62
     7
 10
64.895797000000002
 20
100.444743
 30
0.0
 40
0.468216
 50
2.1160509999999988
 51
87.927726000000007
  0
ARC
  5
19B
  8
0
 62
     7
 10
64.895045999999994
 20
100.479354
 30
0.0
 40
0.4689670000000001
 50
272.1607009999999
 51
357.88306299999999
  0
LINE
  5
19C
  8
0
 62
     7
 10
64.222700000000003
 20
100.913
 30
0.0
 11
64.912700000000001
 21
100.913
 31
0.0
  0
LINE
  5
19D
  8
0
 62
     7
 10
63.340699999999998
 20
100.913
 30
0.0
 11
63.832000000000001
 21
100.913
 31
0.0
  0
LINE
  5
19E
  8
0
 62
     7
 10
64.590599999999995
 20
93.511199999999988
 30
0.0
 11
64.590599999999995
 21
100.011
 31
0.0
  0
LINE
  5
19F
  8
0
 62
     7
 10
63.340699999999998
 20
100.011
 30
0.0
 11
64.912700000000001
 21
100.011
 31
0.0
  0
LINE
  5
1A0
  8
0
 62
     7
 10
64.840699999999998
 20
105.102
 30
0.0
 11
64.840699999999998
 21
127.349
 31
0.0
  0
LINE
  5
1A1
  8
0
 62
     7
 10
61.840699999999998
 20
105.102
 30
0.0
 11
61.840699999999998
 21
127.349
 31
0.0
  0
LINE
  5
1A2
  8
0
 62
     7
 10
66.801000000000002
 20
89.238499999999988
 30
0.0
 11
64.590599999999995
 21
88.646000000000015
 31
0.0
  0
LINE
  5
1A3
  8
0
 62
     7
 10
64.590599999999995
 20
88.646000000000015
 30
0.0
 11
66.801000000000002
 21
88.054100000000005
 31
0.0
  0
LINE
  5
1A4
  8
0
 62
     7
 10
66.801000000000002
 20
88.054100000000005
 30
0.0
 11
66.801000000000002
 21
89.238499999999988
 31
0.0
  0
LINE
  5
1A5
  8
0
 62
     7
 10
59.880600000000001
 20
88.068600000000004
 30
0.0
 11
62.091200000000001
 21
88.660399999999996
 31
0.0
  0
LINE
  5
1A6
  8
0
 62
     7
 10
62.091200000000001
 20
88.660399999999996
 30
0.0
 11
59.880600000000001
 21
89.252999999999986
 31
0.0
  0
LINE
  5
1A7
  8
0
 62
     7
 10
59.880600000000001
 20
89.252999999999986
 30
0.0
 11
59.880600000000001
 21
88.068600000000004
 31
0.0
  0
LINE
  5
1A8
  8
0
 62
     7
 10
54.121099999999998
 20
88.646000000000015
 30
0.0
 11
67.937399999999997
 21
88.646000000000015
 31
0.0
  0
LINE
  5
1A9
  8
0
 62
     7
 10
64.590599999999995
 20
92.932400000000001
 30
0.0
 11
64.590599999999995
 21
88.154700000000005
 31
0.0
  0
LINE
  5
1AA
  8
0
 62
     7
 10
62.091200000000001
 20
92.932400000000001
 30
0.0
 11
62.091200000000001
 21
88.154700000000005
 31
0.0
  0
LINE
  5
1AB
  8
0
  6
AIGENLINE001
 62
     7
 10
127.0
 20
159.84499999999991
 30
0.0
 11
127.0
 21
123.71299999999999
 31
0.0
  0
LINE
  5
1AC
  8
0
 62
     7
 10
128.49999999999989
 20
129.20099999999991
 30
0.0
 11
128.49999999999989
 21
158.511
 31
0.0
  0
LINE
  5
1AD
  8
0
 62
     7
 10
125.5
 20
129.20099999999991
 30
0.0
 11
125.5
 21
158.511
 31
0.0
  0
LINE
  5
1AE
  8
0
 62
     7
 10
65.229699999999994
 20
96.010900000000007
 30
0.0
 11
64.591000000000008
 21
96.010900000000007
 31
0.0
  0
LINE
  5
1AF
  8
0
 62
     7
 10
77.177700000000002
 20
95.722199999999987
 30
0.0
 11
77.769900000000007
 21
93.511199999999988
 31
0.0
  0
LINE
  5
1B0
  8
0
 62
     7
 10
77.769900000000007
 20
93.511199999999988
 30
0.0
 11
78.362300000000005
 21
95.722199999999987
 31
0.0
  0
LINE
  5
1B1
  8
0
 62
     7
 10
78.362300000000005
 20
95.722199999999987
 30
0.0
 11
77.177700000000002
 21
95.722199999999987
 31
0.0
  0
LINE
  5
1B2
  8
0
 62
     7
 10
78.347700000000003
 20
171.28700000000001
 30
0.0
 11
77.755399999999995
 21
173.49700000000001
 31
0.0
  0
LINE
  5
1B3
  8
0
 62
     7
 10
77.755399999999995
 20
173.49700000000001
 30
0.0
 11
77.162999999999997
 21
171.28700000000001
 31
0.0
  0
LINE
  5
1B4
  8
0
 62
     7
 10
77.162999999999997
 20
171.28700000000001
 30
0.0
 11
78.347700000000003
 21
171.28700000000001
 31
0.0
  0
LINE
  5
1B5
  8
0
 62
     7
 10
77.755399999999995
 20
93.510499999999979
 30
0.0
 11
77.755399999999995
 21
173.49799999999999
 31
0.0
  0
LINE
  5
1B6
  8
0
 62
     7
 10
71.3172
 20
173.512
 30
0.0
 11
78.276700000000005
 21
173.512
 31
0.0
  0
LINE
  5
1B7
  8
0
 62
     7
 10
68.928399999999996
 20
93.510499999999979
 30
0.0
 11
78.508200000000002
 21
93.510499999999979
 31
0.0
  0
LINE
  5
1B8
  8
0
 62
     7
 10
145.01699999999991
 20
98.222700000000003
 30
0.0
 11
145.60900000000001
 21
96.011600000000001
 31
0.0
  0
LINE
  5
1B9
  8
0
 62
     7
 10
145.60900000000001
 20
96.011600000000001
 30
0.0
 11
146.20099999999999
 21
98.222700000000003
 31
0.0
  0
LINE
  5
1BA
  8
0
 62
     7
 10
146.20099999999999
 20
98.222700000000003
 30
0.0
 11
145.01699999999991
 21
98.222700000000003
 31
0.0
  0
LINE
  5
1BB
  8
0
 62
     7
 10
146.18700000000001
 20
171.28700000000001
 30
0.0
 11
145.59399999999999
 21
173.49700000000001
 31
0.0
  0
LINE
  5
1BC
  8
0
 62
     7
 10
145.59399999999999
 20
173.49700000000001
 30
0.0
 11
145.00200000000001
 21
171.28700000000001
 31
0.0
  0
LINE
  5
1BD
  8
0
 62
     7
 10
145.00200000000001
 20
171.28700000000001
 30
0.0
 11
146.18700000000001
 21
171.28700000000001
 31
0.0
  0
LINE
  5
1BE
  8
0
 62
     7
 10
145.59399999999999
 20
96.010900000000007
 30
0.0
 11
145.59399999999999
 21
173.49799999999999
 31
0.0
  0
LINE
  5
1BF
  8
0
 62
     7
 10
130.6329999999999
 20
96.010900000000007
 30
0.0
 11
129.1329999999999
 21
96.010900000000007
 31
0.0
  0
LINE
  5
1C0
  8
0
 62
     7
 10
126.9229999999999
 20
114.539
 30
0.0
 11
129.1329999999999
 21
115.13200000000001
 31
0.0
  0
LINE
  5
1C1
  8
0
 62
     7
 10
129.1329999999999
 20
115.13200000000001
 30
0.0
 11
126.9229999999999
 21
115.7239999999999
 31
0.0
  0
LINE
  5
1C2
  8
0
 62
     7
 10
126.9229999999999
 20
115.7239999999999
 30
0.0
 11
126.9229999999999
 21
114.539
 31
0.0
  0
LINE
  5
1C3
  8
0
 62
     7
 10
132.84399999999999
 20
115.7239999999999
 30
0.0
 11
130.6329999999999
 21
115.13200000000001
 31
0.0
  0
LINE
  5
1C4
  8
0
 62
     7
 10
130.6329999999999
 20
115.13200000000001
 30
0.0
 11
132.84399999999999
 21
114.539
 31
0.0
  0
LINE
  5
1C5
  8
0
 62
     7
 10
132.84399999999999
 20
114.539
 30
0.0
 11
132.84399999999999
 21
115.7239999999999
 31
0.0
  0
LINE
  5
1C6
  8
0
 62
     7
 10
136.92699999999999
 20
115.13200000000001
 30
0.0
 11
125.372
 21
115.13200000000001
 31
0.0
  0
LINE
  5
1C7
  8
0
  6
AIGENLINE001
 62
     7
 10
129.8829999999999
 20
94.402100000000004
 30
0.0
 11
129.8829999999999
 21
160.125
 31
0.0
  0
LINE
  5
1C8
  8
0
 62
     7
 10
130.6329999999999
 20
96.010900000000007
 30
0.0
 11
130.6329999999999
 21
158.511
 31
0.0
  0
LINE
  5
1C9
  8
0
 62
     7
 10
129.1329999999999
 20
96.010900000000007
 30
0.0
 11
129.1329999999999
 21
158.511
 31
0.0
  0
LINE
  5
1CA
  8
0
 62
     7
 10
131.64599999999999
 20
96.010900000000007
 30
0.0
 11
146.2939999999999
 21
96.010900000000007
 31
0.0
  0
LINE
  5
1CB
  8
0
 62
     7
 10
105.845
 20
184.77799999999999
 30
0.0
 11
103.212
 21
181.0859999999999
 31
0.0
  0
LINE
  5
1CC
  8
0
 62
     7
 10
122.88200000000001
 20
188.13200000000001
 30
0.0
 11
112.358
 21
188.13200000000001
 31
0.0
  0
ARC
  5
1CD
  8
0
 62
     7
 10
112.4292499999999
 20
179.993931
 30
0.0
 40
8.1385529999999981
 50
90.503878000000014
 51
143.99993000000001
  0
LINE
  5
1CE
  8
0
  6
AIGENLINE001
 62
     7
 10
103.91200000000001
 20
186.15700000000001
 30
0.0
 11
99.972800000000007
 21
180.63599999999991
 31
0.0
  0
LINE
  5
1CF
  8
0
  6
AIGENLINE001
 62
     7
 10
127.8829999999999
 20
190.50700000000001
 30
0.0
 11
112.358
 21
190.50700000000001
 31
0.0
  0
ARC
  5
1D0
  8
0
  6
AIGENLINE001
 62
     7
 10
112.44975599999999
 20
179.95464199999989
 30
0.0
 40
10.55299299999999
 50
90.499928999999995
 51
144.00532899999999
  0
LINE
  5
1D1
  8
0
 62
     7
 10
101.977
 20
187.53599999999989
 30
0.0
 11
99.344399999999993
 21
183.84399999999999
 31
0.0
  0
LINE
  5
1D2
  8
0
 62
     7
 10
122.88200000000001
 20
192.88200000000001
 30
0.0
 11
112.358
 21
192.88200000000001
 31
0.0
  0
ARC
  5
1D3
  8
0
 62
     7
 10
112.470236
 20
179.9125389999999
 30
0.0
 40
12.969901999999999
 50
90.497241000000002
 51
144.0012759999999
  0
LINE
  5
1D4
  8
0
 62
     7
 10
101.13199999999991
 20
182.261
 30
0.0
 11
99.403000000000006
 21
183.495
 31
0.0
  0
ARC
  5
1D5
  8
0
 62
     7
 10
99.562452000000008
 20
183.70121
 30
0.0
 40
0.260633
 50
146.77125100000001
 51
232.28177500000001
  0
LINE
  5
1D6
  8
0
 62
     7
 10
102.8629999999999
 20
181.02699999999999
 30
0.0
 11
101.13199999999991
 21
182.261
 31
0.0
  0
ARC
  5
1D7
  8
0
 62
     7
 10
103.00564899999991
 20
181.2448389999999
 30
0.0
 40
0.260361
 50
236.669411
 51
322.273595
  0
LINE
  5
1D8
  8
0
 62
     7
 10
105.97
 20
184.953
 30
0.0
 11
102.10299999999989
 21
187.7109999999999
 31
0.0
  0
LINE
  5
1D9
  8
0
 62
     7
 10
67.370099999999994
 20
182.261
 30
0.0
 11
67.370099999999994
 21
190.50700000000001
 31
0.0
  0
LINE
  5
1DA
  8
0
 62
     7
 10
62.619999999999997
 20
182.261
 30
0.0
 11
62.619999999999997
 21
190.50700000000001
 31
0.0
  0
ARC
  5
1DB
  8
0
 62
     7
 10
66.506889000000001
 20
186.32900100000001
 30
0.0
 40
0.863244
 50
0.159687
 51
34.79325
  0
ARC
  5
1DC
  8
0
 62
     7
 10
66.138553000000002
 20
186.11128099999999
 30
0.0
 40
1.2903439999999999
 50
33.399538999999997
 51
50.208013000000001
  0
ARC
  5
1DD
  8
0
 62
     7
 10
65.683885000000004
 20
185.6018489999999
 30
0.0
 40
1.9729039999999991
 50
49.530852999999993
 51
64.684528999999984
  0
ARC
  5
1DE
  8
0
 62
     7
 10
65.21588100000001
 20
184.69508799999991
 30
0.0
 40
2.992913999999999
 50
64.008216000000004
 51
80.128915000000006
  0
ARC
  5
1DF
  8
0
 62
     7
 10
65.007599999999996
 20
183.80303799999999
 30
0.0
 40
3.9078140000000001
 50
79.362487999999999
 51
90.183767999999986
  0
ARC
  5
1E0
  8
0
 62
     7
 10
64.994372999999996
 20
183.75701699999999
 30
0.0
 40
3.9538150000000001
 50
89.989959999999996
 51
105.475025
  0
ARC
  5
1E1
  8
0
 62
     7
 10
64.752414000000002
 20
184.73342099999991
 30
0.0
 40
2.948375
 50
106.006241
 51
117.8055709999999
  0
ARC
  5
1E2
  8
0
 62
     7
 10
64.336119999999994
 20
185.55625900000001
 30
0.0
 40
2.0264159999999989
 50
118.246785
 51
132.0517999999999
  0
ARC
  5
1E3
  8
0
 62
     7
 10
63.830882999999993
 20
186.13632100000001
 30
0.0
 40
1.25736
 50
132.66098799999989
 51
155.4036899999999
  0
ARC
  5
1E4
  8
0
 62
     7
 10
63.481015999999997
 20
186.325155
 30
0.0
 40
0.8610369999999999
 50
157.13919899999991
 51
179.58395200000001
  0
ARC
  5
1E5
  8
0
 62
     7
 10
66.506889000000001
 20
182.25825
 30
0.0
 40
0.863244
 50
0.159687
 51
34.79325
  0
ARC
  5
1E6
  8
0
 62
     7
 10
66.138553000000002
 20
182.04053099999999
 30
0.0
 40
1.2903439999999999
 50
33.399538999999997
 51
50.208013000000001
  0
ARC
  5
1E7
  8
0
 62
     7
 10
65.683885000000004
 20
181.5310979999999
 30
0.0
 40
1.9729039999999991
 50
49.530852999999993
 51
64.684528999999984
  0
ARC
  5
1E8
  8
0
 62
     7
 10
65.21588100000001
 20
180.62433699999991
 30
0.0
 40
2.992913999999999
 50
64.008216000000004
 51
80.128915000000006
  0
ARC
  5
1E9
  8
0
 62
     7
 10
65.007599999999996
 20
179.73228700000001
 30
0.0
 40
3.9078140000000001
 50
79.362487999999999
 51
90.183767999999986
  0
ARC
  5
1EA
  8
0
 62
     7
 10
64.994372999999996
 20
179.6862659999999
 30
0.0
 40
3.9538150000000001
 50
89.989959999999996
 51
105.475025
  0
ARC
  5
1EB
  8
0
 62
     7
 10
64.752414000000002
 20
180.6626709999999
 30
0.0
 40
2.948375
 50
106.006241
 51
117.8055709999999
  0
ARC
  5
1EC
  8
0
 62
     7
 10
64.336119999999994
 20
181.48550900000001
 30
0.0
 40
2.0264159999999989
 50
118.246785
 51
132.0517999999999
  0
ARC
  5
1ED
  8
0
 62
     7
 10
63.830882999999993
 20
182.06557000000001
 30
0.0
 40
1.25736
 50
132.66098799999989
 51
155.4036899999999
  0
ARC
  5
1EE
  8
0
 62
     7
 10
63.481015999999997
 20
182.25440399999999
 30
0.0
 40
0.8610369999999999
 50
157.13919899999991
 51
179.58395200000001
  0
ARC
  5
1EF
  8
0
 62
     7
 10
63.482440000000011
 20
182.2630529999999
 30
0.0
 40
0.8624410000000001
 50
180.159233
 51
214.79994199999999
  0
ARC
  5
1F0
  8
0
 62
     7
 10
63.852438999999997
 20
182.48225600000001
 30
0.0
 40
1.291744
 50
213.41752600000001
 51
230.19986900000001
  0
ARC
  5
1F1
  8
0
 62
     7
 10
64.305377000000007
 20
182.99001899999999
 30
0.0
 40
1.9719139999999991
 50
229.53274500000001
 51
244.68971199999999
  0
ARC
  5
1F2
  8
0
 62
     7
 10
64.774556000000004
 20
183.89995999999999
 30
0.0
 40
2.995295
 50
244.017865
 51
260.1258049999999
  0
ARC
  5
1F3
  8
0
 62
     7
 10
64.983031000000011
 20
184.79925499999999
 30
0.0
 40
3.917352999999999
 50
259.377342
 51
270.17602199999999
  0
ARC
  5
1F4
  8
0
 62
     7
 10
64.995752999999993
 20
184.83412200000001
 30
0.0
 40
3.9522019999999989
 50
269.99004200000002
 51
285.47705200000001
  0
ARC
  5
1F5
  8
0
 62
     7
 10
65.236362999999983
 20
183.86258699999999
 30
0.0
 40
2.9518169999999988
 50
286.00835000000001
 51
297.79404899999997
  0
ARC
  5
1F6
  8
0
 62
     7
 10
65.656323
 20
183.03396599999991
 30
0.0
 40
2.0230239999999999
 50
298.21526299999988
 51
312.04392899999999
  0
ARC
  5
1F7
  8
0
 62
     7
 10
66.159492
 20
182.45657199999999
 30
0.0
 40
1.257328
 50
312.63687499999992
 51
335.37544600000001
  0
ARC
  5
1F8
  8
0
 62
     7
 10
66.511409999999984
 20
182.2668239999999
 30
0.0
 40
0.8587419999999999
 50
337.10098999999991
 51
359.58844499999998
  0
ARC
  5
1F9
  8
0
 62
     7
 10
64.904098000000005
 20
190.41592099999991
 30
0.0
 40
2.4677090000000002
 50
2.1125919999999989
 51
87.887398000000005
  0
ARC
  5
1FA
  8
0
 62
     7
 10
64.995066000000008
 20
190.50688799999989
 30
0.0
 40
2.3750640000000001
 50
90.0
 51
179.99996999999991
  0
ARC
  5
1FB
  8
0
 62
     7
 10
118.7967419999999
 20
189.77243300000001
 30
0.0
 40
5.1339040000000002
 50
29.427864
 51
37.278008999999997
  0
ARC
  5
1FC
  8
0
 62
     7
 10
120.23844799999991
 20
190.62733899999989
 30
0.0
 40
3.4583659999999998
 50
7.7481479999999996
 51
28.827261
  0
ARC
  5
1FD
  8
0
 62
     7
 10
119.6411209999999
 20
190.57380399999991
 30
0.0
 40
4.0575499999999991
 50
323.00459499999999
 51
7.3600359999999991
  0
LINE
  5
1FE
  8
0
 62
     7
 10
126.38799999999991
 20
167.56
 30
0.0
 11
124.178
 21
166.9679999999999
 31
0.0
  0
LINE
  5
1FF
  8
0
 62
     7
 10
124.178
 20
166.9679999999999
 30
0.0
 11
126.38799999999991
 21
166.37599999999989
 31
0.0
  0
LINE
  5
200
  8
0
 62
     7
 10
126.38799999999991
 20
166.37599999999989
 30
0.0
 11
126.38799999999991
 21
167.56
 31
0.0
  0
LINE
  5
201
  8
0
 62
     7
 10
129.43899999999991
 20
166.3899999999999
 30
0.0
 11
131.65000000000001
 21
166.982
 31
0.0
  0
LINE
  5
202
  8
0
 62
     7
 10
131.65000000000001
 20
166.982
 30
0.0
 11
129.43899999999991
 21
167.5749999999999
 31
0.0
  0
LINE
  5
203
  8
0
 62
     7
 10
129.43899999999991
 20
167.5749999999999
 30
0.0
 11
129.43899999999991
 21
166.3899999999999
 31
0.0
  0
LINE
  5
204
  8
0
 62
     7
 10
124.17700000000001
 20
166.9679999999999
 30
0.0
 11
131.65000000000001
 21
166.9679999999999
 31
0.0
  0
LINE
  5
205
  8
0
 62
     7
 10
145.00999999999991
 20
175.73599999999999
 30
0.0
 11
145.602
 21
173.5259999999999
 31
0.0
  0
LINE
  5
206
  8
0
 62
     7
 10
145.602
 20
173.5259999999999
 30
0.0
 11
146.19399999999999
 21
175.73599999999999
 31
0.0
  0
LINE
  5
207
  8
0
 62
     7
 10
146.19399999999999
 20
175.73599999999999
 30
0.0
 11
145.00999999999991
 21
175.73599999999999
 31
0.0
  0
LINE
  5
208
  8
0
 62
     7
 10
146.18000000000001
 20
204.78700000000001
 30
0.0
 11
145.58699999999999
 21
206.99700000000001
 31
0.0
  0
LINE
  5
209
  8
0
 62
     7
 10
145.58699999999999
 20
206.99700000000001
 30
0.0
 11
144.995
 21
204.78700000000001
 31
0.0
  0
LINE
  5
20A
  8
0
 62
     7
 10
144.995
 20
204.78700000000001
 30
0.0
 11
146.18000000000001
 21
204.78700000000001
 31
0.0
  0
LINE
  5
20B
  8
0
 62
     7
 10
145.58699999999999
 20
173.52500000000001
 30
0.0
 11
145.58699999999999
 21
206.99799999999999
 31
0.0
  0
LINE
  5
20C
  8
0
 62
     7
 10
125.657
 20
212.95699999999999
 30
0.0
 11
127.86799999999999
 21
213.54900000000001
 31
0.0
  0
LINE
  5
20D
  8
0
 62
     7
 10
127.86799999999999
 20
213.54900000000001
 30
0.0
 11
125.657
 21
214.14099999999999
 31
0.0
  0
LINE
  5
20E
  8
0
 62
     7
 10
125.657
 20
214.14099999999999
 30
0.0
 11
125.657
 21
212.95699999999999
 31
0.0
  0
LINE
  5
20F
  8
0
 62
     7
 10
103.357
 20
214.12700000000001
 30
0.0
 11
101.146
 21
213.53399999999999
 31
0.0
  0
LINE
  5
210
  8
0
 62
     7
 10
101.146
 20
213.53399999999999
 30
0.0
 11
103.357
 21
212.94200000000001
 31
0.0
  0
LINE
  5
211
  8
0
 62
     7
 10
103.357
 20
212.94200000000001
 30
0.0
 11
103.357
 21
214.12700000000001
 31
0.0
  0
LINE
  5
212
  8
0
 62
     7
 10
127.869
 20
213.53399999999999
 30
0.0
 11
101.146
 21
213.53399999999999
 31
0.0
  0
LINE
  5
213
  8
0
  6
AIGENLINE002
 62
     7
 10
127.8829999999999
 20
153.80500000000001
 30
0.0
 11
127.8829999999999
 21
166.453
 31
0.0
  0
LINE
  5
214
  8
0
  6
AIGENLINE002
 62
     7
 10
127.8829999999999
 20
170.86199999999991
 30
0.0
 11
127.8829999999999
 21
182.32900000000001
 31
0.0
  0
LINE
  5
215
  8
0
  6
AIGENLINE002
 62
     7
 10
127.8829999999999
 20
189.149
 30
0.0
 11
127.8829999999999
 21
205.19699999999989
 31
0.0
  0
LINE
  5
216
  8
0
 62
     7
 10
127.8829999999999
 20
205.90199999999999
 30
0.0
 11
127.8829999999999
 21
214.13399999999999
 31
0.0
  0
LINE
  5
217
  8
0
 62
     7
 10
101.13199999999991
 20
183.13499999999999
 30
0.0
 11
101.13199999999991
 21
214.13399999999999
 31
0.0
  0
LINE
  5
218
  8
0
 62
     7
 10
119.191
 20
207.012
 30
0.0
 11
146.10900000000001
 21
207.012
 31
0.0
  0
LINE
  5
219
  8
0
 62
     7
 10
133.703
 20
173.51099999999991
 30
0.0
 11
146.11600000000001
 21
173.51099999999991
 31
0.0
  0
LINE
  5
21A
  8
0
 62
     7
 10
48.544600000000003
 20
158.511
 30
0.0
 11
60.463900000000002
 21
158.511
 31
0.0
  0
LINE
  5
21B
  8
0
 62
     7
 10
54.321899999999999
 20
166.01099999999991
 30
0.0
 11
58.393000000000001
 21
166.01099999999991
 31
0.0
  0
LINE
  5
21C
  8
0
 62
     7
 10
49.760100000000001
 20
171.3009999999999
 30
0.0
 11
49.167900000000003
 21
173.51099999999991
 31
0.0
  0
LINE
  5
21D
  8
0
 62
     7
 10
49.167900000000003
 20
173.51099999999991
 30
0.0
 11
48.575499999999991
 21
171.3009999999999
 31
0.0
  0
LINE
  5
21E
  8
0
 62
     7
 10
48.575499999999991
 20
171.3009999999999
 30
0.0
 11
49.760100000000001
 21
171.3009999999999
 31
0.0
  0
LINE
  5
21F
  8
0
 62
     7
 10
49.760100000000001
 20
201.279
 30
0.0
 11
49.167900000000003
 21
203.48899999999989
 31
0.0
  0
LINE
  5
220
  8
0
 62
     7
 10
49.167900000000003
 20
203.48899999999989
 30
0.0
 11
48.575499999999991
 21
201.279
 31
0.0
  0
LINE
  5
221
  8
0
 62
     7
 10
48.575499999999991
 20
201.279
 30
0.0
 11
49.760100000000001
 21
201.279
 31
0.0
  0
LINE
  5
222
  8
0
 62
     7
 10
48.5901
 20
175.72200000000001
 30
0.0
 11
49.182299999999998
 21
173.51099999999991
 31
0.0
  0
LINE
  5
223
  8
0
 62
     7
 10
49.182299999999998
 20
173.51099999999991
 30
0.0
 11
49.774700000000003
 21
175.72200000000001
 31
0.0
  0
LINE
  5
224
  8
0
 62
     7
 10
49.774700000000003
 20
175.72200000000001
 30
0.0
 11
48.5901
 21
175.72200000000001
 31
0.0
  0
LINE
  5
225
  8
0
 62
     7
 10
48.5901
 20
160.7229999999999
 30
0.0
 11
49.182299999999998
 21
158.512
 31
0.0
  0
LINE
  5
226
  8
0
 62
     7
 10
49.182299999999998
 20
158.512
 30
0.0
 11
49.774700000000003
 21
160.7229999999999
 31
0.0
  0
LINE
  5
227
  8
0
 62
     7
 10
49.774700000000003
 20
160.7229999999999
 30
0.0
 11
48.5901
 21
160.7229999999999
 31
0.0
  0
LINE
  5
228
  8
0
 62
     7
 10
49.167900000000003
 20
203.4899999999999
 30
0.0
 11
49.167900000000003
 21
158.511
 31
0.0
  0
LINE
  5
229
  8
0
 62
     7
 10
48.464399999999998
 20
203.50399999999999
 30
0.0
 11
59.3123
 21
203.50399999999999
 31
0.0
  0
LINE
  5
22A
  8
0
 62
     7
 10
55.530500000000004
 20
171.28700000000001
 30
0.0
 11
54.938299999999991
 21
173.49700000000001
 31
0.0
  0
LINE
  5
22B
  8
0
 62
     7
 10
54.938299999999991
 20
173.49700000000001
 30
0.0
 11
54.3459
 21
171.28700000000001
 31
0.0
  0
LINE
  5
22C
  8
0
 62
     7
 10
54.3459
 20
171.28700000000001
 30
0.0
 11
55.530500000000004
 21
171.28700000000001
 31
0.0
  0
LINE
  5
22D
  8
0
 62
     7
 10
54.360500000000002
 20
168.22200000000001
 30
0.0
 11
54.9527
 21
166.01099999999991
 31
0.0
  0
LINE
  5
22E
  8
0
 62
     7
 10
54.9527
 20
166.01099999999991
 30
0.0
 11
55.545099999999998
 21
168.22200000000001
 31
0.0
  0
LINE
  5
22F
  8
0
 62
     7
 10
55.545099999999998
 20
168.22200000000001
 30
0.0
 11
54.360500000000002
 21
168.22200000000001
 31
0.0
  0
LINE
  5
230
  8
0
 62
     7
 10
54.938299999999991
 20
173.49799999999999
 30
0.0
 11
54.938299999999991
 21
166.00999999999991
 31
0.0
  0
LINE
  5
231
  8
0
 62
     7
 10
48.464399999999998
 20
173.51099999999991
 30
0.0
 11
58.7027
 21
173.51099999999991
 31
0.0
  0
LINE
  5
232
  8
0
  6
AIGENLINE003
 62
     7
 10
123.53399999999991
 20
204.916
 30
0.0
 11
117.5799999999999
 21
207.0149999999999
 31
0.0
  0
ARC
  5
233
  8
0
  6
AIGENLINE003
 62
     7
 10
117.535709
 20
206.79715300000001
 30
0.0
 40
0.222765
 50
78.407370999999998
 51
123.62482799999999
  0
ARC
  5
234
  8
0
  6
AIGENLINE003
 62
     7
 10
117.5408639999999
 20
206.79486900000001
 30
0.0
 40
0.227541
 50
124.387215
 51
152.345676
  0
LINE
  5
235
  8
0
  6
AIGENLINE003
 62
     7
 10
117.3389999999999
 20
206.89999999999989
 30
0.0
 11
116.7939999999999
 21
205.35400000000001
 31
0.0
  0
ARC
  5
236
  8
0
  6
AIGENLINE003
 62
     7
 10
117.019852
 20
205.31283500000001
 30
0.0
 40
0.230045
 50
169.56944799999999
 51
212.89084800000001
  0
ARC
  5
237
  8
0
  6
AIGENLINE003
 62
     7
 10
117.01915099999999
 20
205.31909899999999
 30
0.0
 40
0.232925
 50
214.27853599999989
 51
241.87910099999999
  0
LINE
  5
238
  8
0
  6
AIGENLINE003
 62
     7
 10
116.90899999999991
 20
205.114
 30
0.0
 11
122.863
 21
203.0149999999999
 31
0.0
  0
LINE
  5
239
  8
0
 62
     7
 10
122.914
 20
203.322
 30
0.0
 11
116.6009999999999
 21
203.322
 31
0.0
  0
ARC
  5
23A
  8
0
 62
     7
 10
116.63211099999999
 20
203.09978699999999
 30
0.0
 40
0.224365
 50
97.874537000000004
 51
142.87000900000001
  0
ARC
  5
23B
  8
0
 62
     7
 10
116.6508139999999
 20
203.09568699999991
 30
0.0
 40
0.241884
 50
144.77031099999999
 51
171.02636100000001
  0
LINE
  5
23C
  8
0
 62
     7
 10
116.41200000000001
 20
203.1329999999999
 30
0.0
 11
116.41200000000001
 21
201.494
 31
0.0
  0
ARC
  5
23D
  8
0
 62
     7
 10
116.6344239999999
 20
201.52723099999989
 30
0.0
 40
0.224967
 50
188.4355009999999
 51
232.89542700000001
  0
ARC
  5
23E
  8
0
 62
     7
 10
116.63301199999999
 20
201.52855299999999
 30
0.0
 40
0.225178
 50
233.38487699999999
 51
261.92258599999991
  0
LINE
  5
23F
  8
0
 62
     7
 10
116.6009999999999
 20
201.3059999999999
 30
0.0
 11
122.914
 21
201.3059999999999
 31
0.0
  0
LINE
  5
240
  8
0
 62
     7
 10
132.483
 20
195.12899999999999
 30
0.0
 11
132.483
 21
194.625
 31
0.0
  0
LINE
  5
241
  8
0
 62
     7
 10
123.34399999999989
 20
195.12899999999999
 30
0.0
 11
123.34399999999989
 21
194.625
 31
0.0
  0
ARC
  5
242
  8
0
 62
     7
 10
123.12942700000001
 20
203.293421
 30
0.0
 40
0.2171159999999999
 50
142.91019700000001
 51
172.42655999999999
  0
ARC
  5
243
  8
0
 62
     7
 10
123.134427
 20
203.29145699999989
 30
0.0
 40
0.222293
 50
98.128134000000017
 51
143.28371399999989
  0
LINE
  5
244
  8
0
 62
     7
 10
123.10299999999999
 20
203.512
 30
0.0
 11
132.72499999999999
 21
203.512
 31
0.0
  0
ARC
  5
245
  8
0
 62
     7
 10
132.69422399999991
 20
203.29184100000001
 30
0.0
 40
0.221756
 50
53.159859999999988
 51
82.147564000000003
  0
ARC
  5
246
  8
0
 62
     7
 10
132.68752299999991
 20
203.28775999999999
 30
0.0
 40
0.229058
 50
8.6059710000000003
 51
52.430482999999988
  0
LINE
  5
247
  8
0
 62
     7
 10
132.9139999999999
 20
203.322
 30
0.0
 11
132.9139999999999
 21
195.12899999999999
 31
0.0
  0
LINE
  5
248
  8
0
 62
     7
 10
132.9139999999999
 20
195.12899999999999
 30
0.0
 11
122.914
 21
195.12899999999999
 31
0.0
  0
LINE
  5
249
  8
0
 62
     7
 10
122.914
 20
195.12899999999999
 30
0.0
 11
122.914
 21
201.3059999999999
 31
0.0
  0
ARC
  5
24A
  8
0
 62
     7
 10
121.4327439999999
 20
202.31863100000001
 30
0.0
 40
1.794697
 50
325.635696
 51
10.00492
  0
ARC
  5
24B
  8
0
 62
     7
 10
121.46127799999999
 20
202.31640799999991
 30
0.0
 40
1.766997999999999
 50
10.236628
 51
34.68862
  0
ARC
  5
24C
  8
0
 62
     7
 10
123.1346919999999
 20
173.97962200000001
 30
0.0
 40
0.218487
 50
261.65888100000001
 51
278.34113899999988
  0
ARC
  5
24D
  8
0
 62
     7
 10
123.1360989999999
 20
173.98768100000001
 30
0.0
 40
0.226665
 50
217.48399399999991
 51
261.60257799999999
  0
ARC
  5
24E
  8
0
 62
     7
 10
123.140328
 20
173.984657
 30
0.0
 40
0.228234
 50
172.20070200000001
 51
216.23547500000001
  0
LINE
  5
24F
  8
0
 62
     7
 10
122.914
 20
174.01599999999991
 30
0.0
 11
122.914
 21
188.13200000000001
 31
0.0
  0
LINE
  5
250
  8
0
 62
     7
 10
122.914
 20
192.88200000000001
 30
0.0
 11
122.914
 21
194.625
 31
0.0
  0
LINE
  5
251
  8
0
 62
     7
 10
122.914
 20
194.625
 30
0.0
 11
132.9139999999999
 21
194.625
 31
0.0
  0
LINE
  5
252
  8
0
 62
     7
 10
132.9139999999999
 20
194.625
 30
0.0
 11
132.9139999999999
 21
174.01599999999991
 31
0.0
  0
ARC
  5
253
  8
0
 62
     7
 10
132.68779299999991
 20
173.98905400000001
 30
0.0
 40
0.227765
 50
340.34620999999999
 51
6.7005220000000003
  0
ARC
  5
254
  8
0
 62
     7
 10
132.67744999999991
 20
173.98884699999991
 30
0.0
 40
0.237464
 50
295.85855299999992
 51
341.23233499999998
  0
ARC
  5
255
  8
0
 62
     7
 10
132.67558199999999
 20
173.98977099999991
 30
0.0
 40
0.239114
 50
251.17617799999999
 51
296.16493800000001
  0
LINE
  5
256
  8
0
 62
     7
 10
63.451000000000001
 20
203.50399999999999
 30
0.0
 11
63.451000000000001
 21
201.04599999999999
 31
0.0
  0
LINE
  5
257
  8
0
 62
     7
 10
63.451000000000001
 20
201.04599999999999
 30
0.0
 11
66.539199999999994
 21
201.04599999999999
 31
0.0
  0
LINE
  5
258
  8
0
 62
     7
 10
66.539199999999994
 20
201.04599999999999
 30
0.0
 11
66.539199999999994
 21
203.50399999999999
 31
0.0
  0
ARC
  5
259
  8
0
 62
     7
 10
65.015901999999997
 20
202.23928699999999
 30
0.0
 40
0.8931629999999998
 50
0.272941
 51
44.708269999999992
  0
ARC
  5
25A
  8
0
 62
     7
 10
65.021531999999993
 20
202.2309239999999
 30
0.0
 40
0.8951
 50
45.342272999999999
 51
89.665315000000007
  0
ARC
  5
25B
  8
0
 62
     7
 10
65.031893999999994
 20
202.23199199999999
 30
0.0
 40
0.8940309999999998
 50
90.328958
 51
134.6857929999999
  0
ARC
  5
25C
  8
0
 62
     7
 10
65.03920500000001
 20
202.23827899999989
 30
0.0
 40
0.8947540000000001
 50
135.30177399999999
 51
179.66298499999999
  0
ARC
  5
25D
  8
0
 62
     7
 10
65.037214000000006
 20
202.247806
 30
0.0
 40
0.8927579999999998
 50
180.27365499999991
 51
224.7503999999999
  0
ARC
  5
25E
  8
0
 62
     7
 10
65.030888000000004
 20
202.253682
 30
0.0
 40
0.892444
 50
225.30424600000001
 51
269.73504600000001
  0
ARC
  5
25F
  8
0
 62
     7
 10
65.021635000000003
 20
202.25693399999989
 30
0.0
 40
0.8957019999999999
 50
270.32789200000002
 51
314.61049800000001
  0
ARC
  5
260
  8
0
 62
     7
 10
65.014017999999993
 20
202.2484069999999
 30
0.0
 40
0.895053
 50
315.34095400000001
 51
359.65546599999988
  0
LINE
  5
261
  8
0
 62
     7
 10
65.909099999999995
 20
202.24299999999991
 30
0.0
 11
65.909099999999995
 21
202.244
 31
0.0
  0
LINE
  5
262
  8
0
 62
     7
 10
69.564700000000002
 20
195.12899999999999
 30
0.0
 11
69.564700000000002
 21
194.625
 31
0.0
  0
LINE
  5
263
  8
0
 62
     7
 10
60.425800000000002
 20
195.12899999999999
 30
0.0
 11
60.425800000000002
 21
194.625
 31
0.0
  0
ARC
  5
264
  8
0
 62
     7
 10
69.855019999999996
 20
203.4169959999999
 30
0.0
 40
0.099407
 50
107.7131819999999
 51
119.2048409999999
  0
ARC
  5
265
  8
0
 62
     7
 10
69.868801000000005
 20
203.37589700000001
 30
0.0
 40
0.142751
 50
63.604553000000003
 51
107.96322600000001
  0
ARC
  5
266
  8
0
 62
     7
 10
69.867913000000001
 20
203.375495
 30
0.0
 40
0.143507
 50
19.030604999999991
 51
63.358385000000013
  0
ARC
  5
267
  8
0
 62
     7
 10
69.862420999999998
 20
203.37898199999989
 30
0.0
 40
0.14765
 50
334.16062599999998
 51
17.055984999999989
  0
LINE
  5
268
  8
0
 62
     7
 10
69.9953
 20
203.315
 30
0.0
 11
69.9953
 21
195.12899999999999
 31
0.0
  0
LINE
  5
269
  8
0
 62
     7
 10
69.9953
 20
195.12899999999999
 30
0.0
 11
59.995199999999997
 21
195.12899999999999
 31
0.0
  0
LINE
  5
26A
  8
0
 62
     7
 10
59.995199999999997
 20
195.12899999999999
 30
0.0
 11
59.995199999999997
 21
203.315
 31
0.0
  0
ARC
  5
26B
  8
0
 62
     7
 10
60.104348000000002
 20
203.369956
 30
0.0
 40
0.122399
 50
197.45932999999999
 51
206.8733959999999
  0
ARC
  5
26C
  8
0
 62
     7
 10
60.120660000000001
 20
203.37796099999991
 30
0.0
 40
0.140388
 50
153.36742499999991
 51
198.57861800000001
  0
ARC
  5
26D
  8
0
 62
     7
 10
60.125512000000001
 20
203.3730489999999
 30
0.0
 40
0.146944
 50
109.35308599999991
 51
152.50325699999999
  0
ARC
  5
26E
  8
0
 62
     7
 10
60.12073199999999
 20
203.37716800000001
 30
0.0
 40
0.141508
 50
63.460929000000007
 51
108.079835
  0
LINE
  5
26F
  8
0
 62
     7
 10
60.18399999999999
 20
203.50399999999999
 30
0.0
 11
69.8065
 21
203.50399999999999
 31
0.0
  0
LINE
  5
270
  8
0
 62
     7
 10
55.498899999999999
 20
229.02699999999999
 30
0.0
 11
51.75
 21
225.27799999999999
 31
0.0
  0
LINE
  5
271
  8
0
 62
     7
 10
74.656899999999993
 20
229.03399999999999
 30
0.0
 11
78.316000000000003
 21
225.37599999999989
 31
0.0
  0
ARC
  5
272
  8
0
 62
     7
 10
65.911838000000003
 20
211.863325
 30
0.0
 40
1.5447690000000001
 50
323.64811800000001
 51
359.84095000000002
  0
ARC
  5
273
  8
0
 62
     7
 10
65.529116999999999
 20
212.10851
 30
0.0
 40
1.9985580000000001
 50
302.8758259999999
 51
324.490567
  0
ARC
  5
274
  8
0
 62
     7
 10
65.161857999999995
 20
212.62712400000001
 30
0.0
 40
2.6336080000000002
 50
274.187613
 51
303.46168299999999
  0
ARC
  5
275
  8
0
 62
     7
 10
65.082875999999999
 20
213.00864899999999
 30
0.0
 40
3.0203109999999991
 50
269.97461900000002
 51
275.15344700000003
  0
ARC
  5
276
  8
0
 62
     7
 10
65.083360999999996
 20
212.92347899999999
 30
0.0
 40
2.935141999999999
 50
244.10078399999989
 51
269.96441399999998
  0
ARC
  5
277
  8
0
 62
     7
 10
64.832245
 20
212.329171
 30
0.0
 40
2.2910870000000001
 50
218.94190499999999
 51
243.25815399999999
  0
ARC
  5
278
  8
0
 62
     7
 10
64.361109999999996
 20
211.899687
 30
0.0
 40
1.6551359999999999
 50
181.40735299999989
 51
217.6290339999999
  0
ARC
  5
279
  8
0
 62
     7
 10
65.910634000000002
 20
214.73035899999991
 30
0.0
 40
1.545974
 50
323.66277700000001
 51
359.84078299999987
  0
ARC
  5
27A
  8
0
 62
     7
 10
65.530117000000004
 20
214.973963
 30
0.0
 40
1.9970549999999989
 50
302.86954300000002
 51
324.50161099999991
  0
ARC
  5
27B
  8
0
 62
     7
 10
65.162244000000001
 20
215.4931149999999
 30
0.0
 40
2.632890999999999
 50
274.18034
 51
303.46193799999992
  0
ARC
  5
27C
  8
0
 62
     7
 10
65.082875999999999
 20
215.87533099999999
 30
0.0
 40
3.0203109999999991
 50
269.97461900000002
 51
275.15344700000003
  0
ARC
  5
27D
  8
0
 62
     7
 10
65.083363000000006
 20
215.79074700000001
 30
0.0
 40
2.9357279999999988
 50
244.1063
 51
269.96438899999998
  0
ARC
  5
27E
  8
0
 62
     7
 10
64.832245
 20
215.19578799999991
 30
0.0
 40
2.2910870000000001
 50
218.94190499999999
 51
243.25815399999999
  0
ARC
  5
27F
  8
0
 62
     7
 10
64.361978000000008
 20
214.766595
 30
0.0
 40
1.655999999999999
 50
181.40251000000001
 51
217.618662
  0
LINE
  5
280
  8
0
 62
     7
 10
67.456599999999995
 20
211.85900000000001
 30
0.0
 11
67.456599999999995
 21
234.208
 31
0.0
  0
LINE
  5
281
  8
0
 62
     7
 10
62.706499999999991
 20
211.85900000000001
 30
0.0
 11
62.706499999999991
 21
234.208
 31
0.0
  0
LINE
  5
282
  8
0
 62
     7
 10
53.499200000000002
 20
223.858
 30
0.0
 11
52.249899999999997
 21
225.77699999999999
 31
0.0
  0
LINE
  5
283
  8
0
 62
     7
 10
52.249899999999997
 20
225.77699999999999
 30
0.0
 11
54.2913
 21
224.74000000000001
 31
0.0
  0
LINE
  5
284
  8
0
 62
     7
 10
54.2913
 20
224.74000000000001
 30
0.0
 11
53.499200000000002
 21
223.858
 31
0.0
  0
LINE
  5
285
  8
0
 62
     7
 10
76.664199999999994
 20
223.85900000000001
 30
0.0
 11
77.913600000000002
 21
225.77799999999991
 31
0.0
  0
LINE
  5
286
  8
0
 62
     7
 10
77.913600000000002
 20
225.77799999999991
 30
0.0
 11
75.872200000000007
 21
224.7409999999999
 31
0.0
  0
LINE
  5
287
  8
0
 62
     7
 10
75.872200000000007
 20
224.7409999999999
 30
0.0
 11
76.664199999999994
 21
223.85900000000001
 31
0.0
  0
ARC
  5
288
  8
0
 62
     7
 10
64.991590999999985
 20
238.8274439999999
 30
0.0
 40
18.364788999999998
 50
270.27848599999987
 51
314.718796
  0
ARC
  5
289
  8
0
 62
     7
 10
65.169370000000001
 20
238.8231669999999
 30
0.0
 40
18.360507999999989
 50
225.2788009999999
 51
269.723771
  0
LINE
  5
28A
  8
0
 62
     7
 10
145.76299999999989
 20
232.86699999999999
 30
0.0
 11
133.71199999999999
 21
232.86699999999999
 31
0.0
  0
LINE
  5
28B
  8
0
 62
     7
 10
63.537399999999998
 20
243.36500000000001
 30
0.0
 11
63.537399999999998
 21
233.85400000000001
 31
0.0
  0
LINE
  5
28C
  8
0
 62
     7
 10
66.625600000000006
 20
243.36500000000001
 30
0.0
 11
66.625600000000006
 21
233.85299999999989
 31
0.0
  0
ARC
  5
28D
  8
0
 62
     7
 10
65.081622999999993
 20
238.6094259999999
 30
0.0
 40
5.000157999999999
 50
269.99903299999988
 51
359.9990029999999
  0
ARC
  5
28E
  8
0
 62
     7
 10
65.081622999999993
 20
238.609252
 30
0.0
 40
4.9999839999999987
 50
179.99898300000001
 51
269.99903299999988
  0
ARC
  5
28F
  8
0
 62
     7
 10
65.081625000000003
 20
238.60942399999999
 30
0.0
 40
4.9999859999999989
 50
90.000986999999981
 51
180.0009969999999
  0
ARC
  5
290
  8
0
 62
     7
 10
65.081622999999993
 20
238.609252
 30
0.0
 40
5.000157999999999
 50
0.000997
 51
90.000967000000017
  0
LINE
  5
291
  8
0
  6
AIGENLINE001
 62
     7
 10
65.081500000000005
 20
238.60900000000001
 30
0.0
 11
74.270700000000005
 21
229.42099999999999
 31
0.0
  0
LINE
  5
292
  8
0
  6
AIGENLINE003
 62
     7
 10
69.258399999999995
 20
235.8589999999999
 30
0.0
 11
73.771799999999999
 21
231.345
 31
0.0
  0
ARC
  5
293
  8
0
  6
AIGENLINE003
 62
     7
 10
73.593126999999996
 20
231.210767
 30
0.0
 40
0.223598
 50
352.031837
 51
36.937626999999999
  0
ARC
  5
294
  8
0
  6
AIGENLINE003
 62
     7
 10
73.589167000000003
 20
231.213641
 30
0.0
 40
0.227929
 50
323.41606300000001
 51
351.45421099999987
  0
LINE
  5
295
  8
0
  6
AIGENLINE003
 62
     7
 10
73.772199999999998
 20
231.078
 30
0.0
 11
72.613299999999995
 21
229.91900000000001
 31
0.0
  0
ARC
  5
296
  8
0
  6
AIGENLINE003
 62
     7
 10
72.479792000000003
 20
230.09651799999989
 30
0.0
 40
0.222067
 50
261.91947699999997
 51
306.94135899999992
  0
ARC
  5
297
  8
0
  6
AIGENLINE003
 62
     7
 10
72.482367000000011
 20
230.10332500000001
 30
0.0
 40
0.229175
 50
233.45763700000001
 51
261.52126600000003
  0
LINE
  5
298
  8
0
  6
AIGENLINE003
 62
     7
 10
72.3459
 20
229.91900000000001
 30
0.0
 11
67.832099999999997
 21
234.43299999999991
 31
0.0
  0
LINE
  5
299
  8
0
  6
AIGENLINE001
 62
     7
 10
65.081500000000005
 20
238.60900000000001
 30
0.0
 11
55.892699999999991
 21
229.42099999999999
 31
0.0
  0
LINE
  5
29A
  8
0
  6
AIGENLINE003
 62
     7
 10
60.9054
 20
235.8589999999999
 30
0.0
 11
56.391599999999997
 21
231.345
 31
0.0
  0
ARC
  5
29B
  8
0
  6
AIGENLINE003
 62
     7
 10
56.570293000000007
 20
231.210767
 30
0.0
 40
0.223597
 50
143.06233399999999
 51
187.96820199999991
  0
ARC
  5
29C
  8
0
  6
AIGENLINE003
 62
     7
 10
56.571939999999998
 20
231.21328999999989
 30
0.0
 40
0.225589
 50
188.5448529999999
 51
216.914646
  0
LINE
  5
29D
  8
0
  6
AIGENLINE003
 62
     7
 10
56.391599999999997
 20
231.078
 30
0.0
 11
57.5505
 21
229.91900000000001
 31
0.0
  0
ARC
  5
29E
  8
0
  6
AIGENLINE003
 62
     7
 10
57.683630000000001
 20
230.09518499999999
 30
0.0
 40
0.220796
 50
232.92193299999991
 51
278.21727099999993
  0
ARC
  5
29F
  8
0
  6
AIGENLINE003
 62
     7
 10
57.68071299999999
 20
230.10387
 30
0.0
 40
0.229816
 50
278.62775599999998
 51
306.52977499999992
  0
LINE
  5
2A0
  8
0
  6
AIGENLINE003
 62
     7
 10
57.817500000000003
 20
229.91900000000001
 30
0.0
 11
62.331299999999999
 21
234.43299999999991
 31
0.0
  0
LINE
  5
2A1
  8
0
  6
AIGENLINE001
 62
     7
 10
57.1447
 20
238.60900000000001
 30
0.0
 11
72.7483
 21
238.60900000000001
 31
0.0
  0
LINE
  5
2A2
  8
0
  6
AIGENLINE001
 62
     7
 10
65.081500000000005
 20
251.405
 30
0.0
 11
65.081500000000005
 21
208.666
 31
0.0
  0
LINE
  5
2A3
  8
0
 62
     7
 10
122.6809999999999
 20
243.89699999999999
 30
0.0
 11
125.13199999999991
 21
241.447
 31
0.0
  0
LINE
  5
2A4
  8
0
 62
     7
 10
132.78
 20
234.636
 30
0.0
 11
130.798
 21
235.78099999999989
 31
0.0
  0
LINE
  5
2A5
  8
0
 62
     7
 10
130.798
 20
235.78099999999989
 30
0.0
 11
131.94200000000001
 21
233.79900000000001
 31
0.0
  0
LINE
  5
2A6
  8
0
 62
     7
 10
131.94200000000001
 20
233.79900000000001
 30
0.0
 11
132.78
 21
234.636
 31
0.0
  0
LINE
  5
2A7
  8
0
 62
     7
 10
123.15000000000001
 20
242.59100000000001
 30
0.0
 11
125.13199999999991
 21
241.447
 31
0.0
  0
LINE
  5
2A8
  8
0
 62
     7
 10
125.13199999999991
 20
241.447
 30
0.0
 11
123.988
 21
243.429
 31
0.0
  0
LINE
  5
2A9
  8
0
 62
     7
 10
123.988
 20
243.429
 30
0.0
 11
123.15000000000001
 21
242.59100000000001
 31
0.0
  0
LINE
  5
2AA
  8
0
 62
     7
 10
125.14100000000001
 20
241.4379999999999
 30
0.0
 11
130.798
 21
235.78099999999989
 31
0.0
  0
LINE
  5
2AB
  8
0
 62
     7
 10
130.798
 20
235.78099999999989
 30
0.0
 11
133.71199999999999
 21
232.86699999999999
 31
0.0
  0
LINE
  5
2AC
  8
0
  6
AIGENLINE002
 62
     7
 10
127.96899999999989
 20
232.10900000000001
 30
0.0
 11
127.96899999999989
 21
245.101
 31
0.0
  0
LINE
  5
2AD
  8
0
  6
AIGENLINE002
 62
     7
 10
121.46899999999999
 20
238.60900000000001
 30
0.0
 11
134.46899999999991
 21
238.60900000000001
 31
0.0
  0
LINE
  5
2AE
  8
0
 62
     7
 10
64.073499999999996
 20
233.71100000000001
 30
0.0
 11
64.073499999999996
 21
227.328
 31
0.0
  0
ARC
  5
2AF
  8
0
 62
     7
 10
64.294547999999992
 20
227.35886099999999
 30
0.0
 40
0.223225
 50
188.00242399999999
 51
233.03407000000001
  0
ARC
  5
2B0
  8
0
 62
     7
 10
64.295586
 20
227.36491299999989
 30
0.0
 40
0.228701
 50
233.73787400000001
 51
261.62850099999991
  0
LINE
  5
2B1
  8
0
 62
     7
 10
64.262299999999996
 20
227.13900000000001
 30
0.0
 11
65.9011
 21
227.13900000000001
 31
0.0
  0
ARC
  5
2B2
  8
0
 62
     7
 10
65.869006999999996
 20
227.35970199999991
 30
0.0
 40
0.223376
 50
278.26863600000001
 51
323.06227199999989
  0
ARC
  5
2B3
  8
0
 62
     7
 10
65.866527000000005
 20
227.36036899999991
 30
0.0
 40
0.225761
 50
323.30536499999999
 51
351.70169700000002
  0
LINE
  5
2B4
  8
0
 62
     7
 10
66.0899
 20
227.328
 30
0.0
 11
66.0899
 21
233.71100000000001
 31
0.0
  0
ARC
  5
2B5
  8
0
 62
     7
 10
127.96931099999991
 20
238.6094249999999
 30
0.0
 40
4.0003849999999987
 50
269.99878599999988
 51
359.9987569999999
  0
ARC
  5
2B6
  8
0
 62
     7
 10
127.969483
 20
238.60907900000001
 30
0.0
 40
4.0000390000000001
 50
179.9962689999999
 51
269.99631899999991
  0
ARC
  5
2B7
  8
0
 62
     7
 10
127.96922600000001
 20
238.60933799999989
 30
0.0
 40
3.9997820000000002
 50
90.0
 51
179.99996999999991
  0
ARC
  5
2B8
  8
0
 62
     7
 10
127.96956900000001
 20
238.608993
 30
0.0
 40
4.000125999999999
 50
0.004945
 51
90.004914999999997
  0
LINE
  5
2B9
  8
0
 62
     7
 10
134.21899999999991
 20
61.107799999999997
 30
0.0
 11
133.559
 21
58.233199999999989
 31
0.0
  0
LINE
  5
2BA
  8
0
 62
     7
 10
134.21899999999991
 20
55.357900000000001
 30
0.0
 11
133.559
 21
58.233199999999989
 31
0.0
  0
ARC
  5
2BB
  8
0
 62
     7
 10
160.4750139999999
 20
58.269234999999988
 30
0.0
 40
0.9834799999999999
 50
272.14374700000002
 51
357.89797799999991
  0
ARC
  5
2BC
  8
0
 62
     7
 10
160.54792399999999
 20
58.269282999999987
 30
0.0
 40
0.9835029999999999
 50
182.10481200000001
 51
267.895217
  0
ARC
  5
2BD
  8
0
 62
     7
 10
160.5472419999999
 20
58.197006999999992
 30
0.0
 40
0.9828229999999999
 50
92.066455000000005
 51
177.8917999999999
  0
ARC
  5
2BE
  8
0
 62
     7
 10
160.4756919999999
 20
58.197051000000002
 30
0.0
 40
0.9828040000000001
 50
2.1056849999999989
 51
87.894304999999989
  0
LINE
  5
2BF
  8
0
 62
     7
 10
154.15000000000001
 20
61.068800000000003
 30
0.0
 11
154.74199999999999
 21
58.8581
 31
0.0
  0
LINE
  5
2C0
  8
0
 62
     7
 10
154.74199999999999
 20
58.8581
 30
0.0
 11
155.334
 21
61.068800000000003
 31
0.0
  0
LINE
  5
2C1
  8
0
 62
     7
 10
155.334
 20
61.068800000000003
 30
0.0
 11
154.15000000000001
 21
61.068800000000003
 31
0.0
  0
LINE
  5
2C2
  8
0
 62
     7
 10
155.31999999999991
 20
55.397100000000002
 30
0.0
 11
154.727
 21
57.607900000000001
 31
0.0
  0
LINE
  5
2C3
  8
0
 62
     7
 10
154.727
 20
57.607900000000001
 30
0.0
 11
154.13499999999991
 21
55.397100000000002
 31
0.0
  0
LINE
  5
2C4
  8
0
 62
     7
 10
154.13499999999991
 20
55.397100000000002
 30
0.0
 11
155.31999999999991
 21
55.397100000000002
 31
0.0
  0
LINE
  5
2C5
  8
0
 62
     7
 10
154.727
 20
53.84170000000001
 30
0.0
 11
154.727
 21
65.568799999999996
 31
0.0
  0
LINE
  5
2C6
  8
0
 62
     7
 10
167.39399999999989
 20
41.5471
 30
0.0
 11
167.39399999999989
 21
56.7697
 31
0.0
  0
LINE
  5
2C7
  8
0
 62
     7
 10
167.39399999999989
 20
57.607900000000001
 30
0.0
 11
167.39399999999989
 21
58.8581
 31
0.0
  0
LINE
  5
2C8
  8
0
 62
     7
 10
167.39399999999989
 20
57.607900000000001
 30
0.0
 11
165.58000000000001
 21
57.607900000000001
 31
0.0
  0
LINE
  5
2C9
  8
0
 62
     7
 10
164.7109999999999
 20
57.607900000000001
 30
0.0
 11
163.87499999999989
 21
57.607900000000001
 31
0.0
  0
LINE
  5
2CA
  8
0
 62
     7
 10
159.27600000000001
 20
57.607900000000001
 30
0.0
 11
151.65600000000001
 21
57.607900000000001
 31
0.0
  0
LINE
  5
2CB
  8
0
 62
     7
 10
149.791
 20
57.607900000000001
 30
0.0
 11
143.21899999999999
 21
57.607900000000001
 31
0.0
  0
LINE
  5
2CC
  8
0
 62
     7
 10
167.39399999999989
 20
58.8581
 30
0.0
 11
165.58000000000001
 21
58.8581
 31
0.0
  0
LINE
  5
2CD
  8
0
 62
     7
 10
164.7109999999999
 20
58.8581
 30
0.0
 11
163.87499999999989
 21
58.8581
 31
0.0
  0
LINE
  5
2CE
  8
0
 62
     7
 10
159.27600000000001
 20
58.8581
 30
0.0
 11
151.584
 21
58.8581
 31
0.0
  0
LINE
  5
2CF
  8
0
 62
     7
 10
149.71899999999991
 20
58.8581
 30
0.0
 11
143.21899999999999
 21
58.8581
 31
0.0
  0
LINE
  5
2D0
  8
0
  6
AIGENLINE001
 62
     7
 10
168.89400000000001
 20
58.233199999999989
 30
0.0
 11
127.96899999999989
 21
58.233199999999989
 31
0.0
  0
ARC
  5
2D1
  8
0
 62
     7
 10
165.125439
 20
57.332374999999999
 30
0.0
 40
0.4126630000000001
 50
162.6034149999999
 51
179.776343
  0
ARC
  5
2D2
  8
0
 62
     7
 10
165.00867700000001
 20
57.360239
 30
0.0
 40
0.293029
 50
109.223181
 51
160.97631000000001
  0
ARC
  5
2D3
  8
0
 62
     7
 10
165.126316
 20
57.079289000000003
 30
0.0
 40
0.597336
 50
87.565715999999995
 51
111.00537199999999
  0
ARC
  5
2D4
  8
0
 62
     7
 10
165.154841
 20
57.002984999999988
 30
0.0
 40
0.6731090000000001
 50
76.611519999999999
 51
90.268450999999999
  0
ARC
  5
2D5
  8
0
 62
     7
 10
165.21305399999989
 20
57.268977999999997
 30
0.0
 40
0.4008950000000001
 50
44.606532000000001
 51
75.902631
  0
ARC
  5
2D6
  8
0
 62
     7
 10
165.26196100000001
 20
57.333803000000003
 30
0.0
 40
0.320772
 50
23.182237000000001
 51
42.496901000000001
  0
ARC
  5
2D7
  8
0
 62
     7
 10
165.10551399999991
 20
59.094242000000001
 30
0.0
 40
0.394797
 50
183.37295499999999
 51
201.32405900000001
  0
ARC
  5
2D8
  8
0
 62
     7
 10
164.993853
 20
59.058834999999988
 30
0.0
 40
0.278009
 50
202.89501100000001
 51
241.7573799999999
  0
ARC
  5
2D9
  8
0
 62
     7
 10
165.07235099999991
 20
59.199879000000003
 30
0.0
 40
0.4394140000000001
 50
241.44313500000001
 51
262.14528999999987
  0
ARC
  5
2DA
  8
0
 62
     7
 10
165.14463499999999
 20
59.589020999999988
 30
0.0
 40
0.8349870000000002
 50
260.88084399999991
 51
270.48388399999988
  0
ARC
  5
2DB
  8
0
 62
     7
 10
165.152007
 20
59.458227000000001
 30
0.0
 40
0.7041640000000001
 50
269.97395799999993
 51
283.39954499999999
  0
ARC
  5
2DC
  8
0
 62
     7
 10
165.2186189999999
 20
59.162143999999998
 30
0.0
 40
0.400723
 50
283.94515000000001
 51
314.98192399999999
  0
ARC
  5
2DD
  8
0
 62
     7
 10
165.27532799999989
 20
59.085746999999991
 30
0.0
 40
0.306912
 50
317.57626599999998
 51
337.51074599999993
  0
ARC
  5
2DE
  8
0
 62
     7
 10
165.12242699999999
 20
58.411384999999989
 30
0.0
 40
0.4096510000000001
 50
162.5390669999999
 51
179.774508
  0
ARC
  5
2DF
  8
0
 62
     7
 10
165.00806299999991
 20
58.438602000000003
 30
0.0
 40
0.292509
 50
109.131332
 51
160.902794
  0
ARC
  5
2E0
  8
0
 62
     7
 10
165.12631200000001
 20
58.156601999999992
 30
0.0
 40
0.598
 50
87.568007999999978
 51
110.980502
  0
ARC
  5
2E1
  8
0
 62
     7
 10
165.157006
 20
58.086111000000002
 30
0.0
 40
0.667974
 50
76.584649000000013
 51
90.456265999999985
  0
ARC
  5
2E2
  8
0
 62
     7
 10
165.21819600000001
 20
58.364942999999997
 30
0.0
 40
0.382588
 50
34.467252999999999
 51
75.810237000000001
  0
ARC
  5
2E3
  8
0
 62
     7
 10
165.24284099999991
 20
58.404229000000001
 30
0.0
 40
0.340536
 50
7.7590000000000003
 51
31.362769
  0
ARC
  5
2E4
  8
0
 62
     7
 10
165.1086929999999
 20
58.016655000000007
 30
0.0
 40
0.397973
 50
183.352631
 51
201.2366899999999
  0
ARC
  5
2E5
  8
0
 62
     7
 10
164.99350899999999
 20
57.980114
 30
0.0
 40
0.2774809999999999
 50
202.81909999999999
 51
241.77942799999991
  0
ARC
  5
2E6
  8
0
 62
     7
 10
165.071381
 20
58.120567000000001
 30
0.0
 40
0.4380670000000001
 50
241.49162000000001
 51
262.24901599999998
  0
ARC
  5
2E7
  8
0
 62
     7
 10
165.14446000000001
 20
58.517212999999998
 30
0.0
 40
0.8411579999999999
 50
260.96043399999991
 51
270.49230599999999
  0
ARC
  5
2E8
  8
0
 62
     7
 10
165.1517189999999
 20
58.324911
 30
0.0
 40
0.648825
 50
269.997142
 51
291.22474699999998
  0
ARC
  5
2E9
  8
0
 62
     7
 10
165.25108299999991
 20
58.025231999999988
 30
0.0
 40
0.333878
 50
293.94893599999989
 51
349.69000499999993
  0
LINE
  5
2EA
  8
0
 62
     7
 10
165.2709999999999
 20
57.269199999999991
 30
0.0
 11
164.7109999999999
 21
57.269199999999991
 31
0.0
  0
LINE
  5
2EB
  8
0
 62
     7
 10
165.58000000000001
 20
58.854300000000002
 30
0.0
 11
165.58000000000001
 21
57.577899999999993
 31
0.0
  0
ARC
  5
2EC
  8
0
 62
     7
 10
165.26000400000001
 20
57.589499000000004
 30
0.0
 40
0.320466
 50
271.94635299999999
 51
357.92590799999988
  0
LINE
  5
2ED
  8
0
 62
     7
 10
165.2709999999999
 20
59.165399999999998
 30
0.0
 11
164.7109999999999
 21
59.165399999999998
 31
0.0
  0
ARC
  5
2EE
  8
0
 62
     7
 10
165.25879
 20
58.844003000000001
 30
0.0
 40
0.321635
 50
1.8375419999999989
 51
87.844316000000006
  0
LINE
  5
2EF
  8
0
 62
     7
 10
164.7109999999999
 20
59.165399999999998
 30
0.0
 11
164.7109999999999
 21
57.269199999999991
 31
0.0
  0
LINE
  5
2F0
  8
0
 62
     7
 10
163.87499999999989
 20
59.189500000000002
 30
0.0
 11
163.559
 21
59.460000000000001
 31
0.0
  0
LINE
  5
2F1
  8
0
 62
     7
 10
163.87499999999989
 20
57.294699999999999
 30
0.0
 11
163.559
 21
57.0229
 31
0.0
  0
LINE
  5
2F2
  8
0
 62
     7
 10
159.59100000000001
 20
57.0229
 30
0.0
 11
159.27600000000001
 21
57.2926
 31
0.0
  0
LINE
  5
2F3
  8
0
 62
     7
 10
159.59100000000001
 20
59.45689999999999
 30
0.0
 11
159.27600000000001
 21
59.186799999999998
 31
0.0
  0
LINE
  5
2F4
  8
0
 62
     7
 10
159.27600000000001
 20
59.186799999999998
 30
0.0
 11
159.27600000000001
 21
57.2926
 31
0.0
  0
ARC
  5
2F5
  8
0
 62
     7
 10
160.2261389999999
 20
57.681672999999989
 30
0.0
 40
0.6587850000000001
 50
231.79897
 51
269.79579199999989
  0
ARC
  5
2F6
  8
0
 62
     7
 10
160.394071
 20
57.928709999999988
 30
0.0
 40
0.9569969999999999
 50
211.775745
 51
233.04467399999999
  0
ARC
  5
2F7
  8
0
 62
     7
 10
160.74262699999991
 20
58.166536000000001
 30
0.0
 40
1.3786739999999991
 50
189.34957600000001
 51
212.55007599999999
  0
ARC
  5
2F8
  8
0
 62
     7
 10
161.05283499999999
 20
58.246012999999998
 30
0.0
 40
1.6979040000000001
 50
179.910515
 51
190.2953489999999
  0
ARC
  5
2F9
  8
0
 62
     7
 10
161.01572300000001
 20
58.248061999999997
 30
0.0
 40
1.660790999999999
 50
155.5767679999999
 51
179.97917599999991
  0
ARC
  5
2FA
  8
0
 62
     7
 10
160.548745
 20
58.436940999999997
 30
0.0
 40
1.1576959999999989
 50
130.64135300000001
 51
154.53220400000001
  0
ARC
  5
2FB
  8
0
 62
     7
 10
160.2757719999999
 20
58.722026999999997
 30
0.0
 40
0.76388
 50
105.562758
 51
129.032263
  0
ARC
  5
2FC
  8
0
 62
     7
 10
162.977374
 20
58.785315000000011
 30
0.0
 40
0.6795260000000001
 50
49.933776999999999
 51
81.213689999999986
  0
ARC
  5
2FD
  8
0
 62
     7
 10
162.802536
 20
58.549388
 30
0.0
 40
0.9727879999999998
 50
30.622909
 51
50.997320999999999
  0
ARC
  5
2FE
  8
0
 62
     7
 10
162.43809699999991
 20
58.312083000000001
 30
0.0
 40
1.4074040000000001
 50
8.5528440000000021
 51
31.378924999999992
  0
ARC
  5
2FF
  8
0
 62
     7
 10
162.1287879999999
 20
58.236339000000001
 30
0.0
 40
1.7247799999999991
 50
0.066105
 51
9.5129350000000006
  0
ARC
  5
300
  8
0
 62
     7
 10
162.18538000000001
 20
58.238556000000003
 30
0.0
 40
1.668186999999999
 50
335.97011099999992
 51
359.99221699999993
  0
ARC
  5
301
  8
0
 62
     7
 10
162.65424799999991
 20
58.052146999999998
 30
0.0
 40
1.164229
 50
311.67028699999997
 51
334.95254599999993
  0
ARC
  5
302
  8
0
 62
     7
 10
162.93982199999991
 20
57.761515000000003
 30
0.0
 40
0.7575370000000001
 50
282.83027399999997
 51
310.15026899999992
  0
LINE
  5
303
  8
0
 62
     7
 10
159.57799999999989
 20
58.080899999999993
 30
0.0
 11
161.44499999999991
 21
58.080899999999993
 31
0.0
  0
LINE
  5
304
  8
0
 62
     7
 10
159.57799999999989
 20
58.375100000000003
 30
0.0
 11
161.44499999999991
 21
58.375100000000003
 31
0.0
  0
LINE
  5
305
  8
0
 62
     7
 10
159.58600000000001
 20
57.0229
 30
0.0
 11
163.566
 21
57.0229
 31
0.0
  0
LINE
  5
306
  8
0
 62
     7
 10
159.59100000000001
 20
59.45689999999999
 30
0.0
 11
163.56399999999991
 21
59.45689999999999
 31
0.0
  0
LINE
  5
307
  8
0
 62
     7
 10
163.87499999999989
 20
59.189500000000002
 30
0.0
 11
163.87499999999989
 21
57.294699999999999
 31
0.0
  0
LINE
  5
308
  8
0
 62
     7
 10
130.18100000000001
 20
42.735999999999997
 30
0.0
 11
127.97
 21
42.143799999999999
 31
0.0
  0
LINE
  5
309
  8
0
 62
     7
 10
127.97
 20
42.143799999999999
 30
0.0
 11
130.18100000000001
 21
41.551600000000001
 31
0.0
  0
LINE
  5
30A
  8
0
 62
     7
 10
130.18100000000001
 20
41.551600000000001
 30
0.0
 11
130.18100000000001
 21
42.735999999999997
 31
0.0
  0
LINE
  5
30B
  8
0
 62
     7
 10
165.18299999999991
 20
41.566000000000003
 30
0.0
 11
167.39399999999989
 21
42.158199999999987
 31
0.0
  0
LINE
  5
30C
  8
0
 62
     7
 10
167.39399999999989
 20
42.158199999999987
 30
0.0
 11
165.18299999999991
 21
42.750500000000002
 31
0.0
  0
LINE
  5
30D
  8
0
 62
     7
 10
165.18299999999991
 20
42.750500000000002
 30
0.0
 11
165.18299999999991
 21
41.566000000000003
 31
0.0
  0
LINE
  5
30E
  8
0
 62
     7
 10
127.96899999999989
 20
42.143799999999999
 30
0.0
 11
167.39399999999989
 21
42.143799999999999
 31
0.0
  0
LINE
  5
30F
  8
0
 62
     7
 10
127.96899999999989
 20
41.519500000000001
 30
0.0
 11
127.96899999999989
 21
46.167000000000002
 31
0.0
  0
LINE
  5
310
  8
0
 62
     7
 10
122.72
 20
46.335099999999997
 30
0.0
 11
122.72
 21
52.644500000000001
 31
0.0
  0
LINE
  5
311
  8
0
 62
     7
 10
131.00700000000001
 20
46.207299999999996
 30
0.0
 11
133.2179999999999
 21
46.799500000000002
 31
0.0
  0
LINE
  5
312
  8
0
 62
     7
 10
133.2179999999999
 20
46.799500000000002
 30
0.0
 11
131.00700000000001
 21
47.3917
 31
0.0
  0
LINE
  5
313
  8
0
 62
     7
 10
131.00700000000001
 20
47.3917
 30
0.0
 11
131.00700000000001
 21
46.207299999999996
 31
0.0
  0
LINE
  5
314
  8
0
 62
     7
 10
124.9309999999999
 20
47.377299999999991
 30
0.0
 11
122.72
 21
46.784999999999989
 31
0.0
  0
LINE
  5
315
  8
0
 62
     7
 10
122.72
 20
46.784999999999989
 30
0.0
 11
124.9309999999999
 21
46.192799999999991
 31
0.0
  0
LINE
  5
316
  8
0
 62
     7
 10
124.9309999999999
 20
46.192799999999991
 30
0.0
 11
124.9309999999999
 21
47.377299999999991
 31
0.0
  0
LINE
  5
317
  8
0
 62
     7
 10
133.21899999999991
 20
46.784999999999989
 30
0.0
 11
122.72
 21
46.784999999999989
 31
0.0
  0
LINE
  5
318
  8
0
 62
     7
 10
133.21899999999991
 20
46.188299999999991
 30
0.0
 11
133.21899999999991
 21
52.644500000000001
 31
0.0
  0
LINE
  5
319
  8
0
 62
     7
 10
116.4409999999999
 20
62.021799999999999
 30
0.0
 11
115.849
 21
64.232500000000002
 31
0.0
  0
LINE
  5
31A
  8
0
 62
     7
 10
115.849
 20
64.232500000000002
 30
0.0
 11
115.25700000000001
 21
62.021799999999999
 31
0.0
  0
LINE
  5
31B
  8
0
 62
     7
 10
115.25700000000001
 20
62.021799999999999
 30
0.0
 11
116.4409999999999
 21
62.021799999999999
 31
0.0
  0
LINE
  5
31C
  8
0
 62
     7
 10
115.271
 20
55.444299999999998
 30
0.0
 11
115.863
 21
53.233600000000003
 31
0.0
  0
LINE
  5
31D
  8
0
 62
     7
 10
115.863
 20
53.233600000000003
 30
0.0
 11
116.456
 21
55.444299999999998
 31
0.0
  0
LINE
  5
31E
  8
0
 62
     7
 10
116.456
 20
55.444299999999998
 30
0.0
 11
115.271
 21
55.444299999999998
 31
0.0
  0
LINE
  5
31F
  8
0
 62
     7
 10
115.849
 20
64.233199999999997
 30
0.0
 11
115.849
 21
53.232900000000001
 31
0.0
  0
LINE
  5
320
  8
0
 62
     7
 10
122.29900000000001
 20
53.232900000000001
 30
0.0
 11
115.325
 21
53.232900000000001
 31
0.0
  0
LINE
  5
321
  8
0
 62
     7
 10
119.79899999999989
 20
64.233199999999997
 30
0.0
 11
115.325
 21
64.233199999999997
 31
0.0
  0
LINE
  5
322
  8
0
 62
     7
 10
115.304
 20
75.482900000000001
 30
0.0
 11
119.405
 21
75.482900000000001
 31
0.0
  0
LINE
  5
323
  8
0
 62
     7
 10
116.4309999999999
 20
73.271399999999986
 30
0.0
 11
115.839
 21
75.482200000000006
 31
0.0
  0
LINE
  5
324
  8
0
 62
     7
 10
115.839
 20
75.482200000000006
 30
0.0
 11
115.246
 21
73.271399999999986
 31
0.0
  0
LINE
  5
325
  8
0
 62
     7
 10
115.246
 20
73.271399999999986
 30
0.0
 11
116.4309999999999
 21
73.271399999999986
 31
0.0
  0
LINE
  5
326
  8
0
 62
     7
 10
115.261
 20
66.443899999999999
 30
0.0
 11
115.85299999999999
 21
64.233199999999997
 31
0.0
  0
LINE
  5
327
  8
0
 62
     7
 10
115.85299999999999
 20
64.233199999999997
 30
0.0
 11
116.44499999999989
 21
66.443899999999999
 31
0.0
  0
LINE
  5
328
  8
0
 62
     7
 10
116.44499999999989
 20
66.443899999999999
 30
0.0
 11
115.261
 21
66.443899999999999
 31
0.0
  0
LINE
  5
329
  8
0
 62
     7
 10
115.839
 20
75.482900000000001
 30
0.0
 11
115.839
 21
64.232500000000002
 31
0.0
  0
LINE
  5
32A
  8
0
 62
     7
 10
135.96899999999999
 20
82.430599999999984
 30
0.0
 11
135.96899999999999
 21
77.735299999999995
 31
0.0
  0
LINE
  5
32B
  8
0
 62
     7
 10
119.96899999999989
 20
82.430599999999984
 30
0.0
 11
119.96899999999989
 21
77.735299999999995
 31
0.0
  0
LINE
  5
32C
  8
0
 62
     7
 10
122.17999999999989
 20
82.422700000000006
 30
0.0
 11
119.9699999999999
 21
81.830499999999986
 31
0.0
  0
LINE
  5
32D
  8
0
 62
     7
 10
119.9699999999999
 20
81.830499999999986
 30
0.0
 11
122.17999999999989
 21
81.238299999999995
 31
0.0
  0
LINE
  5
32E
  8
0
 62
     7
 10
122.17999999999989
 20
81.238299999999995
 30
0.0
 11
122.17999999999989
 21
82.422700000000006
 31
0.0
  0
LINE
  5
32F
  8
0
 62
     7
 10
133.7579999999999
 20
81.252700000000004
 30
0.0
 11
135.96899999999999
 21
81.844999999999985
 31
0.0
  0
LINE
  5
330
  8
0
 62
     7
 10
135.96899999999999
 20
81.844999999999985
 30
0.0
 11
133.7579999999999
 21
82.437200000000004
 31
0.0
  0
LINE
  5
331
  8
0
 62
     7
 10
133.7579999999999
 20
82.437200000000004
 30
0.0
 11
133.7579999999999
 21
81.252700000000004
 31
0.0
  0
LINE
  5
332
  8
0
 62
     7
 10
119.96899999999989
 20
81.830499999999986
 30
0.0
 11
135.96899999999999
 21
81.830499999999986
 31
0.0
  0
LINE
  5
333
  8
0
  6
AIGENLINE001
 62
     7
 10
127.96899999999989
 20
51.755000000000003
 30
0.0
 11
127.96899999999989
 21
77.944100000000006
 31
0.0
  0
LINE
  5
334
  8
0
 62
     7
 10
143.21899999999999
 20
55.357900000000001
 30
0.0
 11
134.21899999999991
 21
55.357900000000001
 31
0.0
  0
LINE
  5
335
  8
0
 62
     7
 10
143.21899999999999
 20
55.357900000000001
 30
0.0
 11
143.21899999999999
 21
61.107799999999997
 31
0.0
  0
LINE
  5
336
  8
0
 62
     7
 10
140.46899999999991
 20
55.357900000000001
 30
0.0
 11
140.46899999999991
 21
61.107799999999997
 31
0.0
  0
LINE
  5
337
  8
0
 62
     7
 10
143.21899999999999
 20
61.107799999999997
 30
0.0
 11
134.21899999999991
 21
61.107799999999997
 31
0.0
  0
LINE
  5
338
  8
0
 62
     7
 10
131.71999999999991
 20
68.483099999999993
 30
0.0
 11
131.71999999999991
 21
71.483099999999993
 31
0.0
  0
LINE
  5
339
  8
0
 62
     7
 10
132.59499999999991
 20
66.232699999999994
 30
0.0
 11
132.84499999999991
 21
66.482799999999983
 31
0.0
  0
LINE
  5
33A
  8
0
 62
     7
 10
132.59499999999991
 20
66.232699999999994
 30
0.0
 11
132.59499999999991
 21
64.233199999999997
 31
0.0
  0
LINE
  5
33B
  8
0
 62
     7
 10
132.96899999999999
 20
53.232900000000001
 30
0.0
 11
133.21899999999991
 21
53.482999999999997
 31
0.0
  0
LINE
  5
33C
  8
0
 62
     7
 10
132.96899999999999
 20
53.232900000000001
 30
0.0
 11
132.96899999999999
 21
55.233199999999997
 31
0.0
  0
LINE
  5
33D
  8
0
 62
     7
 10
133.21899999999991
 20
53.482999999999997
 30
0.0
 11
133.21899999999991
 21
55.233199999999997
 31
0.0
  0
LINE
  5
33E
  8
0
 62
     7
 10
134.21899999999991
 20
55.233199999999997
 30
0.0
 11
134.21899999999991
 21
55.357900000000001
 31
0.0
  0
LINE
  5
33F
  8
0
 62
     7
 10
134.21899999999991
 20
61.107799999999997
 30
0.0
 11
134.21899999999991
 21
63.233400000000003
 31
0.0
  0
LINE
  5
340
  8
0
 62
     7
 10
135.46899999999991
 20
63.233400000000003
 30
0.0
 11
135.46899999999991
 21
64.233199999999997
 31
0.0
  0
LINE
  5
341
  8
0
 62
     7
 10
132.84499999999991
 20
74.343900000000005
 30
0.0
 11
132.84499999999991
 21
64.233199999999997
 31
0.0
  0
LINE
  5
342
  8
0
 62
     7
 10
133.47599999999991
 20
75.0839
 30
0.0
 11
135.96899999999999
 21
75.482900000000001
 31
0.0
  0
ARC
  5
343
  8
0
 62
     7
 10
133.618548
 20
74.323104000000001
 30
0.0
 40
0.774073
 50
100.61925099999991
 51
178.4598969999999
  0
LINE
  5
344
  8
0
 62
     7
 10
133.59399999999991
 20
75.858400000000003
 30
0.0
 11
133.59399999999991
 21
76.233199999999997
 31
0.0
  0
LINE
  5
345
  8
0
 62
     7
 10
135.96899999999999
 20
75.858400000000003
 30
0.0
 11
135.96899999999999
 21
75.482900000000001
 31
0.0
  0
LINE
  5
346
  8
0
 62
     7
 10
135.96899999999999
 20
76.233199999999997
 30
0.0
 11
135.96899999999999
 21
76.983599999999996
 31
0.0
  0
LINE
  5
347
  8
0
 62
     7
 10
124.21899999999989
 20
68.483099999999993
 30
0.0
 11
124.21899999999989
 21
71.483099999999993
 31
0.0
  0
LINE
  5
348
  8
0
 62
     7
 10
124.21899999999989
 20
68.483099999999993
 30
0.0
 11
131.71999999999991
 21
68.483099999999993
 31
0.0
  0
LINE
  5
349
  8
0
 62
     7
 10
124.21899999999989
 20
71.483099999999993
 30
0.0
 11
131.71999999999991
 21
71.483099999999993
 31
0.0
  0
LINE
  5
34A
  8
0
 62
     7
 10
123.34399999999989
 20
66.232699999999994
 30
0.0
 11
123.09399999999989
 21
66.482799999999983
 31
0.0
  0
LINE
  5
34B
  8
0
 62
     7
 10
123.34399999999989
 20
66.232699999999994
 30
0.0
 11
123.34399999999989
 21
64.233199999999997
 31
0.0
  0
LINE
  5
34C
  8
0
 62
     7
 10
123.09399999999989
 20
66.232699999999994
 30
0.0
 11
132.84499999999991
 21
66.232699999999994
 31
0.0
  0
LINE
  5
34D
  8
0
 62
     7
 10
122.96899999999989
 20
53.232900000000001
 30
0.0
 11
122.72
 21
53.482999999999997
 31
0.0
  0
LINE
  5
34E
  8
0
 62
     7
 10
122.72
 20
53.482999999999997
 30
0.0
 11
133.21899999999991
 21
53.482999999999997
 31
0.0
  0
LINE
  5
34F
  8
0
 62
     7
 10
122.96899999999989
 20
53.232900000000001
 30
0.0
 11
122.96899999999989
 21
55.233199999999997
 31
0.0
  0
LINE
  5
350
  8
0
 62
     7
 10
122.72
 20
53.482999999999997
 30
0.0
 11
122.72
 21
55.233199999999997
 31
0.0
  0
LINE
  5
351
  8
0
 62
     7
 10
122.96899999999989
 20
53.232900000000001
 30
0.0
 11
132.96899999999999
 21
53.232900000000001
 31
0.0
  0
LINE
  5
352
  8
0
 62
     7
 10
121.71899999999989
 20
55.233199999999997
 30
0.0
 11
121.71899999999989
 21
63.233400000000003
 31
0.0
  0
LINE
  5
353
  8
0
 62
     7
 10
121.71899999999989
 20
55.233199999999997
 30
0.0
 11
134.21899999999991
 21
55.233199999999997
 31
0.0
  0
LINE
  5
354
  8
0
 62
     7
 10
120.46899999999999
 20
63.233400000000003
 30
0.0
 11
120.46899999999999
 21
64.233199999999997
 31
0.0
  0
LINE
  5
355
  8
0
 62
     7
 10
120.46899999999999
 20
63.233400000000003
 30
0.0
 11
135.46899999999991
 21
63.233400000000003
 31
0.0
  0
LINE
  5
356
  8
0
 62
     7
 10
123.09399999999989
 20
74.343900000000005
 30
0.0
 11
123.09399999999989
 21
64.233199999999997
 31
0.0
  0
LINE
  5
357
  8
0
 62
     7
 10
122.46299999999989
 20
75.0839
 30
0.0
 11
119.96899999999989
 21
75.482900000000001
 31
0.0
  0
ARC
  5
358
  8
0
 62
     7
 10
122.31985299999999
 20
74.322341000000009
 30
0.0
 40
0.774832
 50
1.5950159999999991
 51
79.387535
  0
LINE
  5
359
  8
0
 62
     7
 10
120.46899999999999
 20
64.233199999999997
 30
0.0
 11
135.46899999999991
 21
64.233199999999997
 31
0.0
  0
LINE
  5
35A
  8
0
 62
     7
 10
122.34399999999989
 20
75.858400000000003
 30
0.0
 11
122.34399999999989
 21
76.233199999999997
 31
0.0
  0
LINE
  5
35B
  8
0
 62
     7
 10
119.96899999999989
 20
75.858400000000003
 30
0.0
 11
119.96899999999989
 21
75.482900000000001
 31
0.0
  0
LINE
  5
35C
  8
0
 62
     7
 10
119.96899999999989
 20
75.482900000000001
 30
0.0
 11
135.96899999999999
 21
75.482900000000001
 31
0.0
  0
LINE
  5
35D
  8
0
 62
     7
 10
119.96899999999989
 20
75.858400000000003
 30
0.0
 11
135.96899999999999
 21
75.858400000000003
 31
0.0
  0
LINE
  5
35E
  8
0
 62
     7
 10
119.96899999999989
 20
76.233199999999997
 30
0.0
 11
119.96899999999989
 21
76.983599999999996
 31
0.0
  0
LINE
  5
35F
  8
0
 62
     7
 10
119.96899999999989
 20
76.233199999999997
 30
0.0
 11
135.96899999999999
 21
76.233199999999997
 31
0.0
  0
LINE
  5
360
  8
0
 62
     7
 10
119.96899999999989
 20
76.983599999999996
 30
0.0
 11
135.96899999999999
 21
76.983599999999996
 31
0.0
  0
ARC
  5
361
  8
0
 62
     7
 10
151.81461899999991
 20
58.616590000000002
 30
0.0
 40
0.333353
 50
133.7439169999999
 51
142.35218399999999
  0
ARC
  5
362
  8
0
 62
     7
 10
151.92391499999991
 20
58.519525000000002
 30
0.0
 40
0.4792860000000001
 50
141.14528899999991
 51
169.01172399999999
  0
ARC
  5
363
  8
0
 62
     7
 10
151.81867600000001
 20
58.553392000000002
 30
0.0
 40
0.369757
 50
171.05539999999991
 51
215.44965699999989
  0
ARC
  5
364
  8
0
 62
     7
 10
152.0205179999999
 20
58.676138000000002
 30
0.0
 40
0.605614
 50
213.834247
 51
227.0081779999999
  0
ARC
  5
365
  8
0
 62
     7
 10
151.32733999999991
 20
58.541584
 30
0.0
 40
0.39892
 50
44.618989999999997
 51
52.346415000000007
  0
ARC
  5
366
  8
0
 62
     7
 10
151.2565919999999
 20
58.458041999999999
 30
0.0
 40
0.5080510000000001
 50
18.499051999999999
 51
45.721164999999992
  0
ARC
  5
367
  8
0
 62
     7
 10
151.42841899999991
 20
58.532120999999997
 30
0.0
 40
0.321983
 50
327.50427300000001
 51
15.698349
  0
ARC
  5
368
  8
0
 62
     7
 10
151.2503979999999
 20
58.632996999999989
 30
0.0
 40
0.5264310000000001
 50
312.72224799999992
 51
328.653435
  0
ARC
  5
369
  8
0
 62
     7
 10
152.10868500000001
 20
57.718995999999997
 30
0.0
 40
0.727416
 50
133.54478
 51
146.68222099999991
  0
ARC
  5
36A
  8
0
 62
     7
 10
151.81387399999991
 20
57.919694999999997
 30
0.0
 40
0.370865
 50
147.5748449999999
 51
178.27186599999999
  0
ARC
  5
36B
  8
0
 62
     7
 10
151.75790699999999
 20
57.937241999999998
 30
0.0
 40
0.314793
 50
181.15811099999999
 51
217.50873300000001
  0
ARC
  5
36C
  8
0
 62
     7
 10
151.931634
 20
58.051488999999997
 30
0.0
 40
0.5223870000000001
 50
215.84667799999991
 51
238.12585799999991
  0
ARC
  5
36D
  8
0
 62
     7
 10
149.55654499999989
 20
57.851672999999998
 30
0.0
 40
0.337715
 50
313.87192799999991
 51
322.36093700000009
  0
ARC
  5
36E
  8
0
 62
     7
 10
149.4503959999999
 20
57.945442999999997
 30
0.0
 40
0.4791280000000001
 50
321.23315000000002
 51
349.10494
  0
ARC
  5
36F
  8
0
 62
     7
 10
149.55397599999989
 20
57.911992000000012
 30
0.0
 40
0.37133
 50
351.15288099999992
 51
35.417028000000002
  0
ARC
  5
370
  8
0
 62
     7
 10
149.35050599999991
 20
57.788156000000008
 30
0.0
 40
0.609152
 50
33.818371999999989
 51
46.931133000000003
  0
ARC
  5
371
  8
0
 62
     7
 10
150.03952200000001
 20
57.915444999999998
 30
0.0
 40
0.387726
 50
224.46518399999991
 51
232.40891500000001
  0
ARC
  5
372
  8
0
 62
     7
 10
150.11798899999991
 20
58.007356000000009
 30
0.0
 40
0.508219
 50
198.46469500000001
 51
225.66374300000001
  0
ARC
  5
373
  8
0
 62
     7
 10
149.9464449999999
 20
57.933546
 30
0.0
 40
0.3225099999999999
 50
147.570875
 51
195.67816899999991
  0
ARC
  5
374
  8
0
 62
     7
 10
150.124495
 20
57.832664999999999
 30
0.0
 40
0.526994
 50
132.79280199999991
 51
148.69414499999991
  0
ARC
  5
375
  8
0
 62
     7
 10
149.26670100000001
 20
58.746481000000003
 30
0.0
 40
0.7263720000000001
 50
313.47607199999999
 51
326.64443599999993
  0
ARC
  5
376
  8
0
 62
     7
 10
149.56010699999999
 20
58.546523000000001
 30
0.0
 40
0.371397
 50
327.52313800000002
 51
358.19661600000001
  0
ARC
  5
377
  8
0
 62
     7
 10
149.61650499999999
 20
58.528789000000003
 30
0.0
 40
0.314873
 50
1.1003940000000001
 51
37.453614000000002
  0
ARC
  5
378
  8
0
 62
     7
 10
149.44345100000001
 20
58.415385000000001
 30
0.0
 40
0.521436
 50
35.781835000000008
 51
58.107568000000008
  0
TEXT
  5
379
  8
_________2
 62
     7
 10
21.402799999999999
 20
51.886200000000002
 30
0.0
 40
3.9357000000000002
  1
・国産洗面器とのセットの場合は、国産の
 41
0.5
  0
TEXT
  5
37A
  8
_________2
 62
     7
 10
21.402799999999999
 20
46.9666
 30
0.0
 40
3.9357000000000002
  1
  排水ヘッド部を別途準備してください。
 41
0.5
  0
TEXT
  5
37B
  8
_________2
 62
     7
 10
21.402799999999999
 20
42.04699999999999
 30
0.0
 40
3.9357000000000002
  1
・色番号はカタログを参照ください。
 41
0.5
  0
LINE
  5
37C
  8
_________2
 62
     7
 10
205.30099999999999
 20
127.411
 30
0.0
 11
183.55000000000001
 21
127.411
 31
0.0
  0
LINE
  5
37D
  8
_________2
 62
     7
 10
100.2999999999999
 20
-4.0910799999999998
 30
0.0
 11
100.2999999999999
 21
-21.071400000000001
 31
0.0
  0
LINE
  5
37E
  8
_________2
 62
     7
 10
100.2999999999999
 20
275.93099999999993
 30
0.0
 11
100.2999999999999
 21
258.911
 31
0.0
  0
LINE
  5
37F
  8
_________2
 62
     7
 10
17.049499999999998
 20
127.411
 30
0.0
 11
-4.70052
 21
127.411
 31
0.0
  0
LINE
  5
380
  8
_________2
 62
     7
 10
76.741
 20
29.8047
 30
0.0
 11
74.554699999999997
 21
29.8047
 31
0.0
  0
LINE
  5
381
  8
_________2
 62
     7
 10
77.233699999999999
 20
29.8047
 30
0.0
 11
76.981499999999997
 21
29.8047
 31
0.0
  0
LINE
  5
382
  8
_________2
 62
     7
 10
77.726299999999995
 20
29.8047
 30
0.0
 11
80.651200000000003
 21
29.8047
 31
0.0
  0
LINE
  5
383
  8
_________2
 62
     7
 10
77.233699999999999
 20
29.8047
 30
0.0
 11
77.485500000000002
 21
29.8047
 31
0.0
  0
LINE
  5
384
  8
_________2
 62
     7
 10
70.837100000000007
 20
29.8047
 30
0.0
 11
68.650499999999994
 21
29.8047
 31
0.0
  0
LINE
  5
385
  8
_________2
 62
     7
 10
71.329400000000007
 20
29.8047
 30
0.0
 11
71.077600000000004
 21
29.8047
 31
0.0
  0
LINE
  5
386
  8
_________2
 62
     7
 10
71.329400000000007
 20
30.2974
 30
0.0
 11
71.329400000000007
 21
32.484400000000001
 31
0.0
  0
LINE
  5
387
  8
_________2
 62
     7
 10
71.329400000000007
 20
29.8047
 30
0.0
 11
71.329400000000007
 21
30.056899999999992
 31
0.0
  0
LINE
  5
388
  8
_________2
 62
     7
 10
71.822100000000006
 20
29.8047
 30
0.0
 11
74.009
 21
29.8047
 31
0.0
  0
LINE
  5
389
  8
_________2
 62
     7
 10
71.329400000000007
 20
29.8047
 30
0.0
 11
71.581599999999995
 21
29.8047
 31
0.0
  0
LINE
  5
38A
  8
_________2
 62
     7
 10
71.329400000000007
 20
29.312799999999999
 30
0.0
 11
71.329400000000007
 21
27.125800000000002
 31
0.0
  0
LINE
  5
38B
  8
_________2
 62
     7
 10
71.329400000000007
 20
29.8047
 30
0.0
 11
71.329400000000007
 21
29.5532
 31
0.0
  0
LINE
  5
38C
  8
_________2
 62
     7
 10
75.040499999999994
 20
28.5852
 30
0.0
 11
80.218500000000006
 21
27.720400000000001
 31
0.0
  0
LINE
  5
38D
  8
_________2
 62
     7
 10
75.040499999999994
 20
31.0243
 30
0.0
 11
80.218500000000006
 21
31.889700000000001
 31
0.0
  0
LINE
  5
38E
  8
_________2
 62
     7
 10
80.218500000000006
 20
27.720400000000001
 30
0.0
 11
80.218500000000006
 21
31.889700000000001
 31
0.0
  0
LINE
  5
38F
  8
_________2
 62
     7
 10
75.040499999999994
 20
28.5852
 30
0.0
 11
75.040499999999994
 21
31.0243
 31
0.0
  0
ARC
  5
390
  8
_________2
 62
     7
 10
71.28285600000001
 20
29.757811
 30
0.0
 40
1.2673589999999999
 50
2.122214
 51
87.893958999999995
  0
ARC
  5
391
  8
_________2
 62
     7
 10
71.375959999999992
 20
29.758213000000001
 30
0.0
 40
1.2669559999999991
 50
92.104701000000006
 51
177.8952689999999
  0
ARC
  5
392
  8
_________2
 62
     7
 10
71.376357999999996
 20
29.851671
 30
0.0
 40
1.2673680000000001
 50
182.12203600000001
 51
267.877993
  0
ARC
  5
393
  8
_________2
 62
     7
 10
71.282531999999989
 20
29.851998999999989
 30
0.0
 40
1.267695999999999
 50
272.12015300000002
 51
357.863674
  0
ARC
  5
394
  8
_________2
 62
     7
 10
71.329430000000002
 20
29.804742999999998
 30
0.0
 40
2.0849849999999992
 50
0.00001
 51
89.999980000000008
  0
ARC
  5
395
  8
_________2
 62
     7
 10
71.329603000000006
 20
29.804915000000001
 30
0.0
 40
2.084813
 50
90.004733999999999
 51
180.00474399999999
  0
ARC
  5
396
  8
_________2
 62
     7
 10
71.409106000000008
 20
29.884775999999999
 30
0.0
 40
2.1657950000000001
 50
182.11776599999999
 51
267.89173399999999
  0
ARC
  5
397
  8
_________2
 62
     7
 10
71.249459000000002
 20
29.885429999999989
 30
0.0
 40
2.1664590000000001
 50
272.11546800000002
 51
357.86560400000002
  0
TEXT
  5
398
  8
_________2
 62
     7
 10
104.605
 20
1.6794899999999999
 30
0.0
 40
3.0923400000000001
  1
図番
 41
0.5
  0
LINE
  5
399
  8
_________2
 62
     7
 10
103.55
 20
5.9087199999999989
 30
0.0
 11
183.55099999999999
 21
5.9087199999999989
 31
0.0
  0
TEXT
  5
39A
  8
_________2
 62
     7
 10
104.605
 20
11.679299999999991
 30
0.0
 40
3.0923400000000001
  1
品番
 41
0.5
  0
TEXT
  5
39B
  8
_________2
 62
     7
 10
104.605
 20
31.818100000000001
 30
0.0
 40
3.0923400000000001
  1
名称
 41
0.5
  0
TEXT
  5
39C
  8
_________2
 62
     7
 10
91.845058333333341
 20
26.821999999999989
 30
0.0
 40
3.6545800000000002
  1
mm
 41
0.5
 72
     1
 11
93.367800000000003
 21
26.821999999999989
 31
0.0
  0
TEXT
  5
39D
  8
_________2
 62
     7
 10
85.643199999999993
 20
31.818100000000001
 30
0.0
 40
3.0923400000000001
  1
単位
 41
0.5
  0
TEXT
  5
39E
  8
_________2
 62
     7
 10
85.643199999999993
 20
19.410799999999991
 30
0.0
 40
3.0923400000000001
  1
尺度
 41
0.5
  0
TEXT
  5
39F
  8
_________2
 62
     7
 10
90.548758666666686
 20
13.2179
 30
0.0
 40
3.6545800000000002
  1
1 ： 4
 41
0.5
 72
     1
 11
93.959699999999998
 21
13.2179
 31
0.0
  0
TEXT
  5
3A0
  8
_________2
 62
     7
 10
135.02264999999991
 20
9.1078600000000005
 30
0.0
 40
3.9357000000000002
  1
VL.HV3CDU
 41
0.5
 72
     1
 11
143.55000000000001
 21
9.1078600000000005
 31
0.0
  0
TEXT
  5
3A1
  8
_________2
 62
     7
 10
135.35062500000001
 20
-0.8926299999999999
 30
0.0
 40
3.9357000000000002
  1
VLHV3CDU
 41
0.5
 72
     1
 11
143.55000000000001
 21
-0.8926299999999999
 31
0.0
  0
TEXT
  5
3A2
  8
_________2
 62
     7
 10
24.5868
 20
0.707283
 30
0.0
 40
3.9357000000000002
  1
  （社）日本水道協会認証品
 41
0.5
  0
TEXT
  5
3A3
  8
_________2
 62
     7
 10
109.179
 20
24.2257
 30
0.0
 40
3.9357000000000002
  1
湯水混合水栓
 41
0.5
  0
TEXT
  5
3A4
  8
_________2
 62
     7
 10
39.425300333333333
 20
13.603
 30
0.0
 40
3.6545800000000002
  1
早川
 41
0.5
 72
     1
 11
41.313499999999998
 21
13.603
 31
0.0
  0
TEXT
  5
3A5
  8
_________2
 62
     7
 10
20.790090666666661
 20
13.603
 30
0.0
 40
3.6545800000000002
  1
石原
 41
0.5
 72
     1
 11
22.73919999999999
 21
13.603
 31
0.0
  0
TEXT
  5
3A6
  8
_________2
 62
     7
 10
67.785399999999996
 20
13.2179
 30
0.0
 40
3.6545800000000002
  1
14.01.14
 41
0.5
  0
TEXT
  5
3A7
  8
_________2
 62
     7
 10
66.593100000000007
 20
19.410799999999991
 30
0.0
 40
3.0923400000000001
  1
日付
 41
0.5
  0
TEXT
  5
3A8
  8
_________2
 62
     7
 10
29.639399999999998
 20
19.410799999999991
 30
0.0
 40
3.0923400000000001
  1
検図
 41
0.5
  0
TEXT
  5
3A9
  8
_________2
 62
     7
 10
18.021100000000001
 20
5.21143
 30
0.0
 40
3.0923400000000001
  1
備考
 41
0.5
  0
TEXT
  5
3AA
  8
_________2
 62
     7
 10
18.021100000000001
 20
19.410799999999991
 30
0.0
 40
3.0923400000000001
  1
製図
 41
0.5
  0
TEXT
  5
3AB
  8
_________2
 62
     7
 10
23.788465333333338
 20
27.936800000000002
 30
0.0
 40
4.4979399999999989
  1
セラトレーディング株式会社
 41
0.5
 72
     1
 11
41.180500000000002
 21
27.936800000000002
 31
0.0
  0
LINE
  5
3AC
  8
_________2
 62
     7
 10
183.55099999999999
 20
-4.0910799999999998
 30
0.0
 11
17.049499999999998
 21
-4.0910799999999998
 31
0.0
  0
LINE
  5
3AD
  8
_________2
 62
     7
 10
17.049499999999998
 20
-4.0910799999999998
 30
0.0
 11
17.049499999999998
 21
258.911
 31
0.0
  0
LINE
  5
3AE
  8
_________2
 62
     7
 10
17.049499999999998
 20
258.911
 30
0.0
 11
183.55099999999999
 21
258.911
 31
0.0
  0
LINE
  5
3AF
  8
_________2
 62
     7
 10
183.55099999999999
 20
258.911
 30
0.0
 11
183.55099999999999
 21
-4.0910799999999998
 31
0.0
  0
LINE
  5
3B0
  8
_________2
 62
     7
 10
65.549599999999998
 20
9.4089600000000004
 30
0.0
 11
65.549599999999998
 21
35.908799999999999
 31
0.0
  0
LINE
  5
3B1
  8
_________2
 62
     7
 10
84.549700000000016
 20
9.4089600000000004
 30
0.0
 11
84.549700000000016
 21
35.908799999999999
 31
0.0
  0
LINE
  5
3B2
  8
_________2
 62
     7
 10
103.55
 20
-4.0910799999999998
 30
0.0
 11
103.55
 21
35.908799999999999
 31
0.0
  0
LINE
  5
3B3
  8
_________2
 62
     7
 10
28.549299999999992
 20
9.4089600000000004
 30
0.0
 11
28.549299999999992
 21
23.409199999999998
 31
0.0
  0
LINE
  5
3B4
  8
_________2
 62
     7
 10
17.049499999999998
 20
9.4089600000000004
 30
0.0
 11
103.55
 21
9.4089600000000004
 31
0.0
  0
LINE
  5
3B5
  8
_________2
 62
     7
 10
17.049499999999998
 20
23.409199999999998
 30
0.0
 11
103.55
 21
23.409199999999998
 31
0.0
  0
LINE
  5
3B6
  8
_________2
 62
     7
 10
103.55
 20
15.9085
 30
0.0
 11
183.55099999999999
 21
15.9085
 31
0.0
  0
LINE
  5
3B7
  8
_________2
 62
     7
 10
17.049499999999998
 20
35.908799999999999
 30
0.0
 11
183.55099999999999
 21
35.908799999999999
 31
0.0
  0
ENDSEC
  0
EOF
