  0
SECTION
  2
HEADER
  9
$ACADVER
  1
AC1009
  9
$INSBASE
 10
0.0
 20
0.0
 30
0.0
  9
$EXTMIN
 10
-4.70052
 20
-21.071400000000001
 30
0.0
  9
$EXTMAX
 10
205.30099999999999
 20
275.93099999999998
 30
0.0
  9
$LIMMIN
 10
0.0
 20
0.0
  9
$LIMMAX
 10
12.0
 20
9.0
  9
$ORTHOMODE
 70
     0
  9
$REGENMODE
 70
     1
  9
$FILLMODE
 70
     1
  9
$QTEXTMODE
 70
     0
  9
$MIRRTEXT
 70
     1
  9
$DRAGMODE
 70
     2
  9
$LTSCALE
 40
1.0
  9
$OSMODE
 70
    37
  9
$ATTMODE
 70
     1
  9
$TEXTSIZE
 40
0.0
  9
$TRACEWID
 40
0.05
  9
$TEXTSTYLE
  7
STANDARD
  9
$CLAYER
  8
0
  9
$CELTYPE
  6
CONTINUOUS
  9
$CECOLOR
 62
   256
  9
$DIMSCALE
 40
1.0
  9
$DIMASZ
 40
0.18
  9
$DIMEXO
 40
0.0625
  9
$DIMDLI
 40
0.38
  9
$DIMRND
 40
0.0
  9
$DIMDLE
 40
0.0
  9
$DIMEXE
 40
0.18
  9
$DIMTP
 40
0.0
  9
$DIMTM
 40
0.0
  9
$DIMTXT
 40
0.18
  9
$DIMCEN
 40
0.09
  9
$DIMTSZ
 40
0.0
  9
$DIMTOL
 70
     0
  9
$DIMLIM
 70
     0
  9
$DIMTIH
 70
     1
  9
$DIMTOH
 70
     1
  9
$DIMSE1
 70
     0
  9
$DIMSE2
 70
     0
  9
$DIMTAD
 70
     0
  9
$DIMZIN
 70
     0
  9
$DIMBLK
  1

  9
$DIMASO
 70
     1
  9
$DIMSHO
 70
     1
  9
$DIMPOST
  1

  9
$DIMAPOST
  1

  9
$DIMALT
 70
     0
  9
$DIMALTD
 70
     2
  9
$DIMALTF
 40
25.399999999999999
  9
$DIMLFAC
 40
1.0
  9
$DIMTOFL
 70
     0
  9
$DIMTVP
 40
0.0
  9
$DIMTIX
 70
     0
  9
$DIMSOXD
 70
     0
  9
$DIMSAH
 70
     0
  9
$DIMBLK1
  1

  9
$DIMBLK2
  1

  9
$DIMSTYLE
  2
STANDARD
  9
$DIMCLRD
 70
     0
  9
$DIMCLRE
 70
     0
  9
$DIMCLRT
 70
     0
  9
$DIMTFAC
 40
1.0
  9
$DIMGAP
 40
0.09
  9
$LUNITS
 70
     2
  9
$LUPREC
 70
     4
  9
$SKETCHINC
 40
0.1
  9
$FILLETRAD
 40
0.0
  9
$AUNITS
 70
     0
  9
$AUPREC
 70
     0
  9
$MENU
  1
.
  9
$ELEVATION
 40
0.0
  9
$PELEVATION
 40
0.0
  9
$THICKNESS
 40
0.0
  9
$LIMCHECK
 70
     0
  9
$BLIPMODE
 70
     0
  9
$CHAMFERA
 40
0.0
  9
$CHAMFERB
 40
0.0
  9
$SKPOLY
 70
     0
  9
$TDCREATE
 40
2444972.375
  9
$TDUPDATE
 40
2457718.2460040278
  9
$TDINDWG
 40
0.0000483449
  9
$TDUSRTIMER
 40
0.0000483449
  9
$USRTIMER
 70
     1
  9
$ANGBASE
 50
0.0
  9
$ANGDIR
 70
     0
  9
$PDMODE
 70
     0
  9
$PDSIZE
 40
0.0
  9
$PLINEWID
 40
0.0
  9
$COORDS
 70
     1
  9
$SPLFRAME
 70
     0
  9
$SPLINETYPE
 70
     6
  9
$SPLINESEGS
 70
     8
  9
$ATTDIA
 70
     1
  9
$ATTREQ
 70
     1
  9
$HANDLING
 70
     1
  9
$HANDSEED
  5
35E
  9
$SURFTAB1
 70
     6
  9
$SURFTAB2
 70
     6
  9
$SURFTYPE
 70
     6
  9
$SURFU
 70
     6
  9
$SURFV
 70
     6
  9
$UCSNAME
  2

  9
$UCSORG
 10
0.0
 20
0.0
 30
0.0
  9
$UCSXDIR
 10
1.0
 20
0.0
 30
0.0
  9
$UCSYDIR
 10
0.0
 20
1.0
 30
0.0
  9
$PUCSNAME
  2

  9
$PUCSORG
 10
0.0
 20
0.0
 30
0.0
  9
$PUCSXDIR
 10
1.0
 20
0.0
 30
0.0
  9
$PUCSYDIR
 10
0.0
 20
1.0
 30
0.0
  9
$USERI1
 70
     0
  9
$USERI2
 70
     0
  9
$USERI3
 70
     0
  9
$USERI4
 70
     0
  9
$USERI5
 70
     0
  9
$USERR1
 40
0.0
  9
$USERR2
 40
0.0
  9
$USERR3
 40
0.0
  9
$USERR4
 40
0.0
  9
$USERR5
 40
0.0
  9
$WORLDVIEW
 70
     1
  9
$SHADEDGE
 70
     3
  9
$SHADEDIF
 70
    70
  9
$TILEMODE
 70
     1
  9
$MAXACTVP
 70
    48
  9
$PLIMCHECK
 70
     0
  9
$PEXTMIN
 10
1.0000000000000000E+020
 20
1.0000000000000000E+020
 30
1.0000000000000000E+020
  9
$PEXTMAX
 10
-1.0000000000000000E+020
 20
-1.0000000000000000E+020
 30
-1.0000000000000000E+020
  9
$PLIMMIN
 10
0.0
 20
0.0
  9
$PLIMMAX
 10
12.0
 20
9.0
  9
$UNITMODE
 70
     0
  9
$VISRETAIN
 70
     1
  9
$PLINEGEN
 70
     0
  9
$PSLTSCALE
 70
     1
  0
ENDSEC
  0
SECTION
  2
TABLES
  0
TABLE
  2
VPORT
 70
     1
  0
VPORT
  2
*ACTIVE
 70
     0
 10
0.0
 20
0.0
 11
1.0
 21
1.0
 12
156.29059996312719
 22
127.4298
 13
0.0
 23
0.0
 14
1.0
 24
1.0
 15
0.0
 25
0.0
 16
0.0
 26
0.0
 36
1.0
 17
0.0
 27
0.0
 37
0.0
 40
283.03955814085811
 41
1.357429718875502
 42
50.0
 43
0.0
 44
0.0
 50
0.0
 51
0.0
 71
     0
 72
   100
 73
     1
 74
     1
 75
     0
 76
     0
 77
     0
 78
     0
  0
ENDTAB
  0
TABLE
  2
LTYPE
 70
     3
  0
LTYPE
  2
CONTINUOUS
 70
     0
  3
Solid line
 72
    65
 73
     0
 40
0.0
  0
LTYPE
  2
AIGENLINE001
 70
     0
  3
generate AI->DXF Converter
 72
    65
 73
     4
 40
5.8561449999999988
 49
3.5278
 49
-0.776115
 49
0.776115
 49
-0.776115
  0
LTYPE
  2
AIGENLINE002
 70
     0
  3
generate AI->DXF Converter
 72
    65
 73
     2
 40
1.5522299999999991
 49
0.776115
 49
-0.776115
  0
ENDTAB
  0
TABLE
  2
LAYER
 70
     3
  0
LAYER
  2
0
 70
     0
 62
     7
  6
CONTINUOUS
  0
LAYER
  2
_________4
 70
     0
 62
     7
  6
CONTINUOUS
  0
LAYER
  2
_________2
 70
     0
 62
     7
  6
CONTINUOUS
  0
ENDTAB
  0
TABLE
  2
STYLE
 70
     1
  0
STYLE
  2
STANDARD
 70
     0
 40
0.0
 41
0.0
 50
0.0
 71
     0
 42
0.0
  3
TXT
  4
EXTFONT.SHX
  0
ENDTAB
  0
TABLE
  2
VIEW
 70
     0
  0
ENDTAB
  0
TABLE
  2
UCS
 70
     0
  0
ENDTAB
  0
TABLE
  2
APPID
 70
     3
  0
APPID
  2
ACAD
 70
     0
  0
APPID
  2
ACAD_NAV_VCDISPLAY
 70
     0
  0
APPID
  2
ACAD_MLEADERVER
 70
     0
  0
ENDTAB
  0
TABLE
  2
DIMSTYLE
 70
     1
  0
DIMSTYLE
  2
STANDARD
 70
     0
  3

  4

  5

  6

  7

 40
1.0
 41
0.18
 42
0.0625
 43
0.38
 44
0.18
 45
0.0
 46
0.0
 47
0.0
 48
0.0
140
0.18
141
0.09
142
0.0
143
25.399999999999999
144
1.0
145
0.0
146
1.0
147
0.09
 71
     0
 72
     0
 73
     1
 74
     1
 75
     0
 76
     0
 77
     0
 78
     0
170
     0
171
     2
172
     0
173
     0
174
     0
175
     0
176
     0
177
     0
178
     0
  0
ENDTAB
  0
ENDSEC
  0
SECTION
  2
BLOCKS
  0
BLOCK
  8
0
  2
$MODEL_SPACE
 70
     0
 10
0.0
 20
0.0
 30
0.0
  3
$MODEL_SPACE
  1

  0
ENDBLK
  5
1A
  8
0
  0
BLOCK
 67
     1
  8
0
  2
$PAPER_SPACE
 70
     0
 10
0.0
 20
0.0
 30
0.0
  3
$PAPER_SPACE
  1

  0
ENDBLK
  5
17
 67
     1
  8
0
  0
ENDSEC
  0
SECTION
  2
ENTITIES
  0
TEXT
  5
24
  8
0
 62
     7
 10
141.8552875
 20
127.30500000000001
 30
0.0
 40
3.0923400000000001
  1
%%c30
 41
0.5
 72
     1
 11
143.78800000000001
 21
127.30500000000001
 31
0.0
  0
TEXT
  5
25
  8
0
 62
     7
 10
41.857500000000002
 20
124.2903725
 30
0.0
 40
3.0923400000000001
  1
60
 50
90.0
 41
0.5
 72
     1
 11
41.857500000000002
 21
125.45
 31
0.0
  0
TEXT
  5
26
  8
0
 62
     7
 10
47.703000000000003
 20
124.9114225
 30
0.0
 40
3.0923400000000001
  1
max.50
 50
90.0
 41
0.5
 72
     1
 11
47.703000000000003
 21
128.648
 31
0.0
  0
TEXT
  5
27
  8
0
 62
     7
 10
48.065100000000001
 20
48.184100000000001
 30
0.0
 40
3.0923400000000001
  1
%%c10
 41
0.5
  0
TEXT
  5
28
  8
0
 62
     7
 10
132.97799999999989
 20
159.19900000000001
 30
0.0
 40
3.0923400000000001
  1
閉
 41
0.5
  0
TEXT
  5
29
  8
0
 62
     7
 10
124.376986
 20
155.49199999999999
 30
0.0
 40
3.0923400000000001
  1
開
 41
0.5
 72
     2
 11
125.717
 21
155.49199999999999
 31
0.0
  0
TEXT
  5
2A
  8
0
 62
     7
 10
68.418099999999995
 20
154.52000000000001
 30
0.0
 40
3.0923400000000001
  1
水
 41
0.5
  0
TEXT
  5
2B
  8
0
 62
     7
 10
46.609707999999998
 20
154.52000000000001
 30
0.0
 40
3.0923400000000001
  1
湯
 41
0.5
 72
     2
 11
48.052799999999991
 21
154.52000000000001
 31
0.0
  0
TEXT
  5
2C
  8
0
 62
     7
 10
63.2224
 20
201.34999999999999
 30
0.0
 40
3.0923400000000001
  1
360%%d：スパウト回転角度
 41
0.5
  0
TEXT
  5
2D
  8
0
 62
     7
 10
119.909646
 20
218.661
 30
0.0
 40
3.0923400000000001
  1
水栓取付穴
 41
0.5
 72
     1
 11
124.342
 21
218.661
 31
0.0
  0
TEXT
  5
2E
  8
0
 62
     7
 10
135.34552500000001
 20
137.52099999999999
 30
0.0
 40
3.0923400000000001
  1
55
 41
0.5
 72
     1
 11
136.63399999999999
 21
137.52099999999999
 31
0.0
  0
TEXT
  5
2F
  8
0
 62
     7
 10
149.33952500000001
 20
137.52099999999999
 30
0.0
 40
3.0923400000000001
  1
45
 41
0.5
 72
     1
 11
150.62799999999999
 21
137.52099999999999
 31
0.0
  0
TEXT
  5
30
  8
0
 62
     7
 10
145.3523725
 20
159.38399999999999
 30
0.0
 40
3.0923400000000001
  1
30
 41
0.5
 72
     1
 11
146.512
 21
159.38399999999999
 31
0.0
  0
TEXT
  5
31
  8
0
 62
     7
 10
123.795
 20
197.14227
 30
0.0
 40
3.0923400000000001
  1
%%c19
 50
90.0
 41
0.5
 72
     2
 11
123.795
 21
200.75
 31
0.0
  0
TEXT
  5
32
  8
0
 62
     7
 10
124.059135
 20
168.06299999999999
 30
0.0
 40
3.0923400000000001
  1
200
 41
0.5
 72
     1
 11
125.863
 21
168.06299999999999
 31
0.0
  0
TEXT
  5
33
  8
0
 62
     7
 10
132.578
 20
91.269087500000012
 30
0.0
 40
3.0923400000000001
  1
480
 50
90.0
 41
0.5
 72
     1
 11
132.578
 21
93.201800000000006
 31
0.0
  0
TEXT
  5
34
  8
0
 62
     7
 10
86.865499999999997
 20
160.07043999999999
 30
0.0
 40
3.0923400000000001
  1
235
 50
90.0
 41
0.5
 72
     1
 11
86.865499999999997
 21
162.13200000000001
 31
0.0
  0
TEXT
  5
35
  8
0
 62
     7
 10
162.119
 20
146.26928749999999
 30
0.0
 40
3.0923400000000001
  1
%%c40
 50
90.0
 41
0.5
 72
     1
 11
162.119
 21
148.202
 31
0.0
  0
TEXT
  5
36
  8
0
 62
     7
 10
114.38
 20
152.51352499999999
 30
0.0
 40
3.0923400000000001
  1
45
 50
90.0
 41
0.5
 72
     1
 11
114.38
 21
153.80199999999999
 31
0.0
  0
TEXT
  5
37
  8
0
 62
     7
 10
114.38
 20
139.4243725
 30
0.0
 40
3.0923400000000001
  1
60
 50
90.0
 41
0.5
 72
     1
 11
114.38
 21
140.584
 31
0.0
  0
TEXT
  5
38
  8
0
 62
     7
 10
94.859399999999994
 20
151.166135
 30
0.0
 40
3.0923400000000001
  1
165
 50
90.0
 41
0.5
 72
     1
 11
94.859399999999994
 21
152.97
 31
0.0
  0
TEXT
  5
39
  8
0
 62
     7
 10
135.27613600000001
 20
224.57599999999999
 30
0.0
 40
3.0923400000000001
  1
%%c32～35
 41
0.5
 72
     2
 11
144.34700000000001
 21
224.57599999999999
 31
0.0
  0
TEXT
  5
3A
  8
0
 62
     7
 10
47.223899999999993
 20
137.07499999999999
 30
0.0
 40
3.0923400000000001
  1
%%c37
 41
0.5
  0
LINE
  5
3B
  8
_________4
 62
     7
 10
61.579099999999997
 20
117.432
 30
0.0
 11
61.061599999999999
 21
117.95
 31
0.0
  0
LINE
  5
3C
  8
_________4
 62
     7
 10
59.096499999999999
 20
117.95
 30
0.0
 11
58.579099999999997
 21
117.432
 31
0.0
  0
LINE
  5
3D
  8
_________4
 62
     7
 10
61.579099999999997
 20
116.331
 30
0.0
 11
59.960500000000003
 21
117.95
 31
0.0
  0
LINE
  5
3E
  8
_________4
 62
     7
 10
60.197600000000001
 20
117.95
 30
0.0
 11
58.579099999999997
 21
116.331
 31
0.0
  0
LINE
  5
3F
  8
_________4
 62
     7
 10
61.579099999999997
 20
115.23
 30
0.0
 11
58.859499999999997
 21
117.95
 31
0.0
  0
LINE
  5
40
  8
_________4
 62
     7
 10
61.2986
 20
117.95
 30
0.0
 11
58.579099999999997
 21
115.23
 31
0.0
  0
LINE
  5
41
  8
_________4
 62
     7
 10
60.857700000000001
 20
114.84999999999999
 30
0.0
 11
58.579099999999997
 21
117.129
 31
0.0
  0
LINE
  5
42
  8
_________4
 62
     7
 10
61.579099999999997
 20
117.129
 30
0.0
 11
59.299799999999998
 21
114.84999999999999
 31
0.0
  0
LINE
  5
43
  8
_________4
 62
     7
 10
59.756599999999999
 20
114.84999999999999
 30
0.0
 11
58.579099999999997
 21
116.02800000000001
 31
0.0
  0
LINE
  5
44
  8
_________4
 62
     7
 10
61.579099999999997
 20
116.02800000000001
 30
0.0
 11
60.40079999999999
 21
114.84999999999999
 31
0.0
  0
ARC
  5
45
  8
_________4
 62
     7
 10
60.829529000000001
 20
90.150324999999995
 30
0.0
 40
1.0623489999999991
 50
240.291155
 51
269.95598000000001
  0
ARC
  5
46
  8
_________4
 62
     7
 10
60.654440999999998
 20
89.811057999999989
 30
0.0
 40
0.681094
 50
212.34984800000001
 51
238.939581
  0
ARC
  5
47
  8
_________4
 62
     7
 10
60.827894999999998
 20
90.150858999999997
 30
0.0
 40
1.062883
 50
270.04410799999999
 51
299.70122900000001
  0
ARC
  5
48
  8
_________4
 62
     7
 10
61.003990000000002
 20
89.809805000000011
 30
0.0
 40
0.679575
 50
301.05240600000008
 51
327.69400899999999
  0
ARC
  5
49
  8
_________4
 62
     7
 10
60.827894999999998
 20
88.743031999999985
 30
0.0
 40
1.062562
 50
60.288912000000003
 51
89.955888999999985
  0
ARC
  5
4A
  8
_________4
 62
     7
 10
61.004119999999993
 20
89.084339
 30
0.0
 40
0.678974
 50
32.246316999999998
 51
58.929879000000007
  0
ARC
  5
4B
  8
_________4
 62
     7
 10
60.829529000000001
 20
88.743566000000001
 30
0.0
 40
1.0620289999999999
 50
90.044023999999993
 51
119.718706
  0
ARC
  5
4C
  8
_________4
 62
     7
 10
60.654310000000002
 20
89.083091000000024
 30
0.0
 40
0.6804899999999999
 50
121.0781309999999
 51
147.70982799999999
  0
ARC
  5
4D
  8
_________4
 62
     7
 10
59.327893000000003
 20
88.742209000000003
 30
0.0
 40
1.0633859999999999
 50
60.300679000000002
 51
89.956052999999983
  0
ARC
  5
4E
  8
_________4
 62
     7
 10
59.502662000000001
 20
89.081400000000016
 30
0.0
 40
0.6823560000000001
 50
32.359071999999998
 51
58.936844999999998
  0
ARC
  5
4F
  8
_________4
 62
     7
 10
59.32952499999999
 20
88.743566000000001
 30
0.0
 40
1.0620289999999999
 50
90.044023999999993
 51
119.718706
  0
ARC
  5
50
  8
_________4
 62
     7
 10
59.154305999999998
 20
89.083091000000024
 30
0.0
 40
0.6804899999999999
 50
121.0781309999999
 51
147.70982799999999
  0
LINE
  5
51
  8
_________4
 62
     7
 10
61.579099999999997
 20
91.298699999999997
 30
0.0
 11
61.579099999999997
 21
117.95
 31
0.0
  0
LINE
  5
52
  8
_________4
 62
     7
 10
58.579099999999997
 20
91.298699999999997
 30
0.0
 11
58.579099999999997
 21
117.95
 31
0.0
  0
ARC
  5
53
  8
_________4
 62
     7
 10
59.327987999999998
 20
90.593425999999994
 30
0.0
 40
1.064263999999999
 50
60.313157999999987
 51
89.924072999999993
  0
ARC
  5
54
  8
_________4
 62
     7
 10
59.503801000000003
 20
90.935186000000016
 30
0.0
 40
0.6804899999999999
 50
32.290152999999997
 51
58.921849000000009
  0
ARC
  5
55
  8
_________4
 62
     7
 10
59.330812999999999
 20
90.592168999999998
 30
0.0
 40
1.0655209999999991
 50
90.076064999999986
 51
119.668908
  0
ARC
  5
56
  8
_________4
 62
     7
 10
59.153728000000001
 20
90.936102000000005
 30
0.0
 40
0.6792200000000001
 50
121.050224
 51
147.73360500000001
  0
ARC
  5
57
  8
_________4
 62
     7
 10
59.330812999999999
 20
92.005246999999997
 30
0.0
 40
1.0655209999999991
 50
240.33109200000001
 51
269.92393499999997
  0
ARC
  5
58
  8
_________4
 62
     7
 10
59.153728000000001
 20
91.661314000000004
 30
0.0
 40
0.6792200000000001
 50
212.26639499999999
 51
238.94977600000001
  0
ARC
  5
59
  8
_________4
 62
     7
 10
59.327987999999998
 20
92.003990000000002
 30
0.0
 40
1.064263999999999
 50
270.07592699999998
 51
299.68684200000001
  0
ARC
  5
5A
  8
_________4
 62
     7
 10
59.503801000000003
 20
91.662229999999994
 30
0.0
 40
0.6804899999999999
 50
301.07815099999999
 51
327.70984700000008
  0
ARC
  5
5B
  8
_________4
 62
     7
 10
60.830466999999999
 20
92.005165000000005
 30
0.0
 40
1.065439
 50
240.32992400000001
 51
269.92423000000002
  0
ARC
  5
5C
  8
_________4
 62
     7
 10
60.654215999999998
 20
91.662186000000005
 30
0.0
 40
0.6803860000000001
 50
212.29124200000001
 51
238.929059
  0
ARC
  5
5D
  8
_________4
 62
     7
 10
60.82764499999999
 20
92.004710999999986
 30
0.0
 40
1.0649850000000001
 50
270.07601799999998
 51
299.67656099999999
  0
ARC
  5
5E
  8
_________4
 62
     7
 10
61.003725000000003
 20
91.662563000000006
 30
0.0
 40
0.6807350000000002
 50
301.058269
 51
327.68982
  0
LINE
  5
5F
  8
_________4
 62
     7
 10
61.32889999999999
 20
55.701700000000002
 30
0.0
 11
58.8292
 21
55.701700000000002
 31
0.0
  0
LINE
  5
60
  8
_________4
 62
     7
 10
61.32889999999999
 20
53.201599999999999
 30
0.0
 11
58.8292
 21
53.201599999999999
 31
0.0
  0
LINE
  5
61
  8
_________4
 62
     7
 10
58.785800000000002
 20
64.792299999999997
 30
0.0
 11
60.07909999999999
 21
64.792299999999997
 31
0.0
  0
LINE
  5
62
  8
_________4
 62
     7
 10
59.587800000000001
 20
62.829599999999999
 30
0.0
 11
59.587800000000001
 21
60.603400000000001
 31
0.0
  0
LINE
  5
63
  8
_________4
 62
     7
 10
59.197099999999999
 20
62.829599999999999
 30
0.0
 11
59.197099999999999
 21
60.603400000000001
 31
0.0
  0
LINE
  5
64
  8
_________4
 62
     7
 10
59.197099999999999
 20
62.829599999999999
 30
0.0
 11
58.506999999999991
 21
62.829599999999999
 31
0.0
  0
LINE
  5
65
  8
_________4
 62
     7
 10
60.07909999999999
 20
62.829599999999999
 30
0.0
 11
59.587800000000001
 21
62.829599999999999
 31
0.0
  0
LINE
  5
66
  8
_________4
 62
     7
 10
59.197099999999999
 20
60.603400000000001
 30
0.0
 11
58.506999999999991
 21
60.603400000000001
 31
0.0
  0
LINE
  5
67
  8
_________4
 62
     7
 10
60.07909999999999
 20
60.603400000000001
 30
0.0
 11
59.587800000000001
 21
60.603400000000001
 31
0.0
  0
LINE
  5
68
  8
_________4
 62
     7
 10
58.8292
 20
53.201599999999999
 30
0.0
 11
58.8292
 21
59.701500000000003
 31
0.0
  0
LINE
  5
69
  8
_________4
 62
     7
 10
60.07909999999999
 20
59.701500000000003
 30
0.0
 11
58.506999999999991
 21
59.701500000000003
 31
0.0
  0
LINE
  5
6A
  8
_________4
 62
     7
 10
61.924300000000002
 20
64.792299999999997
 30
0.0
 11
61.924300000000002
 21
63.103200000000001
 31
0.0
  0
LINE
  5
6B
  8
_________4
 62
     7
 10
61.924300000000002
 20
64.792299999999997
 30
0.0
 11
60.07909999999999
 21
64.792299999999997
 31
0.0
  0
LINE
  5
6C
  8
_________4
 62
     7
 10
61.6511
 20
62.829599999999999
 30
0.0
 11
61.6511
 21
60.603400000000001
 31
0.0
  0
LINE
  5
6D
  8
_________4
 62
     7
 10
61.6511
 20
62.829599999999999
 30
0.0
 11
61.924300000000002
 21
63.103200000000001
 31
0.0
  0
LINE
  5
6E
  8
_________4
 62
     7
 10
60.57030000000001
 20
62.829599999999999
 30
0.0
 11
60.57030000000001
 21
60.603400000000001
 31
0.0
  0
LINE
  5
6F
  8
_________4
 62
     7
 10
60.960999999999999
 20
62.829599999999999
 30
0.0
 11
60.960999999999999
 21
60.603400000000001
 31
0.0
  0
LINE
  5
70
  8
_________4
 62
     7
 10
60.960999999999999
 20
62.829599999999999
 30
0.0
 11
61.6511
 21
62.829599999999999
 31
0.0
  0
LINE
  5
71
  8
_________4
 62
     7
 10
60.07909999999999
 20
62.829599999999999
 30
0.0
 11
60.57030000000001
 21
62.829599999999999
 31
0.0
  0
ARC
  5
72
  8
_________4
 62
     7
 10
61.633715000000002
 20
60.135089000000001
 30
0.0
 40
0.468634
 50
2.1214019999999998
 51
87.878587999999993
  0
ARC
  5
73
  8
_________4
 62
     7
 10
61.633724999999998
 20
60.169773999999997
 30
0.0
 40
0.468624
 50
272.12021800000002
 51
357.87979200000001
  0
LINE
  5
74
  8
_________4
 62
     7
 10
60.960999999999999
 20
60.603400000000001
 30
0.0
 11
61.6511
 21
60.603400000000001
 31
0.0
  0
LINE
  5
75
  8
_________4
 62
     7
 10
60.07909999999999
 20
60.603400000000001
 30
0.0
 11
60.57030000000001
 21
60.603400000000001
 31
0.0
  0
LINE
  5
76
  8
_________4
 62
     7
 10
61.32889999999999
 20
53.201599999999999
 30
0.0
 11
61.32889999999999
 21
59.701500000000003
 31
0.0
  0
LINE
  5
77
  8
_________4
 62
     7
 10
60.07909999999999
 20
59.701500000000003
 30
0.0
 11
61.6511
 21
59.701500000000003
 31
0.0
  0
LINE
  5
78
  8
_________4
 62
     7
 10
61.579099999999997
 20
64.792699999999996
 30
0.0
 11
61.579099999999997
 21
89.446600000000004
 31
0.0
  0
LINE
  5
79
  8
_________4
 62
     7
 10
58.579099999999997
 20
64.792699999999996
 30
0.0
 11
58.579099999999997
 21
89.446600000000004
 31
0.0
  0
LINE
  5
7A
  8
_________4
  6
AIGENLINE001
 62
     7
 10
60.07909999999999
 20
51.603400000000001
 30
0.0
 11
60.07909999999999
 21
119.624
 31
0.0
  0
LINE
  5
7B
  8
0
 62
     7
 10
147.256
 20
122.325
 30
0.0
 11
147.256
 21
117.95
 31
0.0
  0
LINE
  5
7C
  8
0
 62
     7
 10
147.256
 20
131.202
 30
0.0
 11
147.256
 21
125.45
 31
0.0
  0
LINE
  5
7D
  8
0
 62
     7
 10
147.506
 20
125.45
 30
0.0
 11
147.506
 21
131.202
 31
0.0
  0
LINE
  5
7E
  8
0
 62
     7
 10
140.256
 20
131.202
 30
0.0
 11
140.256
 21
125.45
 31
0.0
  0
LINE
  5
7F
  8
0
 62
     7
 10
140.00700000000001
 20
125.45
 30
0.0
 11
140.00700000000001
 21
131.202
 31
0.0
  0
LINE
  5
80
  8
0
 62
     7
 10
147.256
 20
124.825
 30
0.0
 11
147.256
 21
123.575
 31
0.0
  0
LINE
  5
81
  8
0
 62
     7
 10
147.506
 20
123.575
 30
0.0
 11
147.506
 21
124.825
 31
0.0
  0
LINE
  5
82
  8
0
 62
     7
 10
140.256
 20
124.825
 30
0.0
 11
140.256
 21
123.575
 31
0.0
  0
LINE
  5
83
  8
0
 62
     7
 10
140.00700000000001
 20
123.575
 30
0.0
 11
140.00700000000001
 21
124.825
 31
0.0
  0
LINE
  5
84
  8
0
 62
     7
 10
140.256
 20
122.325
 30
0.0
 11
140.256
 21
117.95
 31
0.0
  0
LINE
  5
85
  8
0
 62
     7
 10
140.00700000000001
 20
118.2
 30
0.0
 11
140.00700000000001
 21
122.325
 31
0.0
  0
LINE
  5
86
  8
0
 62
     7
 10
140.00700000000001
 20
118.2
 30
0.0
 11
147.506
 21
118.2
 31
0.0
  0
LINE
  5
87
  8
0
 62
     7
 10
147.506
 20
122.325
 30
0.0
 11
147.506
 21
118.2
 31
0.0
  0
LINE
  5
88
  8
0
 62
     7
 10
147.506
 20
118.2
 30
0.0
 11
147.255
 21
117.95
 31
0.0
  0
LINE
  5
89
  8
0
 62
     7
 10
147.255
 20
117.95
 30
0.0
 11
140.256
 21
117.95
 31
0.0
  0
LINE
  5
8A
  8
0
 62
     7
 10
140.256
 20
117.95
 30
0.0
 11
140.00700000000001
 21
118.2
 31
0.0
  0
LINE
  5
8B
  8
0
 62
     7
 10
61.969700000000003
 20
122.325
 30
0.0
 11
61.969700000000003
 21
117.95
 31
0.0
  0
LINE
  5
8C
  8
0
 62
     7
 10
61.969700000000003
 20
131.202
 30
0.0
 11
61.969700000000003
 21
125.45
 31
0.0
  0
LINE
  5
8D
  8
0
 62
     7
 10
62.219900000000003
 20
125.45
 30
0.0
 11
62.219900000000003
 21
131.202
 31
0.0
  0
LINE
  5
8E
  8
0
 62
     7
 10
54.969900000000003
 20
131.202
 30
0.0
 11
54.969900000000003
 21
125.45
 31
0.0
  0
LINE
  5
8F
  8
0
 62
     7
 10
54.720500000000001
 20
125.45
 30
0.0
 11
54.720500000000001
 21
131.202
 31
0.0
  0
LINE
  5
90
  8
0
 62
     7
 10
61.969700000000003
 20
124.825
 30
0.0
 11
61.969700000000003
 21
123.575
 31
0.0
  0
LINE
  5
91
  8
0
 62
     7
 10
62.219900000000003
 20
123.575
 30
0.0
 11
62.219900000000003
 21
124.825
 31
0.0
  0
LINE
  5
92
  8
0
 62
     7
 10
54.969900000000003
 20
124.825
 30
0.0
 11
54.969900000000003
 21
123.575
 31
0.0
  0
LINE
  5
93
  8
0
 62
     7
 10
54.720500000000001
 20
123.575
 30
0.0
 11
54.720500000000001
 21
124.825
 31
0.0
  0
LINE
  5
94
  8
0
 62
     7
 10
54.969900000000003
 20
122.325
 30
0.0
 11
54.969900000000003
 21
117.95
 31
0.0
  0
LINE
  5
95
  8
0
 62
     7
 10
54.720500000000001
 20
118.2
 30
0.0
 11
54.720500000000001
 21
122.325
 31
0.0
  0
LINE
  5
96
  8
0
 62
     7
 10
54.720500000000001
 20
118.2
 30
0.0
 11
62.219900000000003
 21
118.2
 31
0.0
  0
LINE
  5
97
  8
0
 62
     7
 10
62.219900000000003
 20
122.325
 30
0.0
 11
62.219900000000003
 21
118.2
 31
0.0
  0
LINE
  5
98
  8
0
 62
     7
 10
62.219900000000003
 20
118.2
 30
0.0
 11
61.968400000000003
 21
117.95
 31
0.0
  0
LINE
  5
99
  8
0
 62
     7
 10
61.968400000000003
 20
117.95
 30
0.0
 11
54.969900000000003
 21
117.95
 31
0.0
  0
LINE
  5
9A
  8
0
 62
     7
 10
54.969900000000003
 20
117.95
 30
0.0
 11
54.720500000000001
 21
118.2
 31
0.0
  0
LINE
  5
9B
  8
0
 62
     7
 10
143.16300000000001
 20
121.075
 30
0.0
 11
143.16300000000001
 21
122.325
 31
0.0
  0
LINE
  5
9C
  8
0
 62
     7
 10
144.41300000000001
 20
121.075
 30
0.0
 11
144.41300000000001
 21
122.325
 31
0.0
  0
LINE
  5
9D
  8
0
 62
     7
 10
143.16300000000001
 20
123.575
 30
0.0
 11
143.16300000000001
 21
124.825
 31
0.0
  0
LINE
  5
9E
  8
0
 62
     7
 10
144.41300000000001
 20
123.575
 30
0.0
 11
144.41300000000001
 21
124.825
 31
0.0
  0
LINE
  5
9F
  8
0
 62
     7
 10
142.738
 20
119.825
 30
0.0
 11
142.738
 21
121.075
 31
0.0
  0
LINE
  5
A0
  8
0
 62
     7
 10
142.738
 20
121.075
 30
0.0
 11
144.83799999999999
 21
121.075
 31
0.0
  0
LINE
  5
A1
  8
0
 62
     7
 10
144.83799999999999
 20
121.075
 30
0.0
 11
144.83799999999999
 21
119.825
 31
0.0
  0
LINE
  5
A2
  8
0
 62
     7
 10
144.83799999999999
 20
119.825
 30
0.0
 11
142.738
 21
119.825
 31
0.0
  0
LINE
  5
A3
  8
0
 62
     7
 10
137.53800000000001
 20
122.325
 30
0.0
 11
137.53800000000001
 21
123.575
 31
0.0
  0
LINE
  5
A4
  8
0
 62
     7
 10
137.53800000000001
 20
123.575
 30
0.0
 11
150.03800000000001
 21
123.575
 31
0.0
  0
LINE
  5
A5
  8
0
 62
     7
 10
150.03800000000001
 20
123.575
 30
0.0
 11
150.03800000000001
 21
122.325
 31
0.0
  0
LINE
  5
A6
  8
0
 62
     7
 10
150.03800000000001
 20
122.325
 30
0.0
 11
137.53800000000001
 21
122.325
 31
0.0
  0
LINE
  5
A7
  8
0
 62
     7
 10
137.53800000000001
 20
124.825
 30
0.0
 11
137.53800000000001
 21
125.2
 31
0.0
  0
LINE
  5
A8
  8
0
 62
     7
 10
137.53800000000001
 20
125.2
 30
0.0
 11
150.03800000000001
 21
125.2
 31
0.0
  0
LINE
  5
A9
  8
0
 62
     7
 10
150.03800000000001
 20
125.2
 30
0.0
 11
150.03800000000001
 21
124.825
 31
0.0
  0
LINE
  5
AA
  8
0
 62
     7
 10
150.03800000000001
 20
124.825
 30
0.0
 11
137.53800000000001
 21
124.825
 31
0.0
  0
LINE
  5
AB
  8
0
 62
     7
 10
138.28800000000001
 20
125.2
 30
0.0
 11
138.28800000000001
 21
125.45
 31
0.0
  0
LINE
  5
AC
  8
0
 62
     7
 10
138.28800000000001
 20
125.45
 30
0.0
 11
149.2879999999999
 21
125.45
 31
0.0
  0
LINE
  5
AD
  8
0
 62
     7
 10
149.2879999999999
 20
125.45
 30
0.0
 11
149.2879999999999
 21
125.2
 31
0.0
  0
LINE
  5
AE
  8
0
 62
     7
 10
149.2879999999999
 20
125.2
 30
0.0
 11
138.28800000000001
 21
125.2
 31
0.0
  0
LINE
  5
AF
  8
0
 62
     7
 10
142.29400000000001
 20
126.999
 30
0.0
 11
140.083
 21
126.407
 31
0.0
  0
LINE
  5
B0
  8
0
 62
     7
 10
140.083
 20
126.407
 30
0.0
 11
142.29400000000001
 21
125.815
 31
0.0
  0
LINE
  5
B1
  8
0
 62
     7
 10
142.29400000000001
 20
125.815
 30
0.0
 11
142.29400000000001
 21
126.999
 31
0.0
  0
LINE
  5
B2
  8
0
 62
     7
 10
145.34399999999999
 20
125.82899999999999
 30
0.0
 11
147.55500000000001
 21
126.42100000000001
 31
0.0
  0
LINE
  5
B3
  8
0
 62
     7
 10
147.55500000000001
 20
126.42100000000001
 30
0.0
 11
145.34399999999999
 21
127.014
 31
0.0
  0
LINE
  5
B4
  8
0
 62
     7
 10
145.34399999999999
 20
127.014
 30
0.0
 11
145.34399999999999
 21
125.82899999999999
 31
0.0
  0
LINE
  5
B5
  8
0
 62
     7
 10
140.083
 20
126.407
 30
0.0
 11
147.55600000000001
 21
126.407
 31
0.0
  0
LINE
  5
B6
  8
0
 62
     7
 10
145.28800000000001
 20
117.43300000000001
 30
0.0
 11
144.77099999999999
 21
117.95
 31
0.0
  0
LINE
  5
B7
  8
0
 62
     7
 10
142.80600000000001
 20
117.95
 30
0.0
 11
142.28800000000001
 21
117.43300000000001
 31
0.0
  0
LINE
  5
B8
  8
0
 62
     7
 10
145.28800000000001
 20
116.33199999999999
 30
0.0
 11
143.66999999999999
 21
117.95
 31
0.0
  0
LINE
  5
B9
  8
0
 62
     7
 10
143.90700000000001
 20
117.95
 30
0.0
 11
142.28800000000001
 21
116.33199999999999
 31
0.0
  0
LINE
  5
BA
  8
0
 62
     7
 10
145.28800000000001
 20
115.23099999999999
 30
0.0
 11
142.56899999999999
 21
117.95
 31
0.0
  0
LINE
  5
BB
  8
0
 62
     7
 10
145.0079999999999
 20
117.95
 30
0.0
 11
142.28800000000001
 21
115.23099999999999
 31
0.0
  0
LINE
  5
BC
  8
0
 62
     7
 10
144.56700000000001
 20
114.84999999999999
 30
0.0
 11
142.28800000000001
 21
117.13
 31
0.0
  0
LINE
  5
BD
  8
0
 62
     7
 10
145.28800000000001
 20
117.13
 30
0.0
 11
143.00899999999999
 21
114.84999999999999
 31
0.0
  0
LINE
  5
BE
  8
0
 62
     7
 10
143.46600000000001
 20
114.84999999999999
 30
0.0
 11
142.28800000000001
 21
116.02800000000001
 31
0.0
  0
LINE
  5
BF
  8
0
 62
     7
 10
145.28800000000001
 20
116.02800000000001
 30
0.0
 11
144.11000000000001
 21
114.84999999999999
 31
0.0
  0
ARC
  5
C0
  8
0
 62
     7
 10
144.53864400000001
 20
90.149336000000005
 30
0.0
 40
1.062049
 50
240.281588
 51
269.95597400000003
  0
ARC
  5
C1
  8
0
 62
     7
 10
144.36368400000001
 20
89.810047999999995
 30
0.0
 40
0.680846
 50
212.296753
 51
238.91391200000001
  0
ARC
  5
C2
  8
0
 62
     7
 10
144.53701100000001
 20
90.149336000000005
 30
0.0
 40
1.062049
 50
270.04404599999998
 51
299.71843200000001
  0
ARC
  5
C3
  8
0
 62
     7
 10
144.71197100000001
 20
89.810047999999995
 30
0.0
 40
0.680846
 50
301.08610800000002
 51
327.70326699999998
  0
ARC
  5
C4
  8
0
 62
     7
 10
144.53701100000001
 20
88.743200999999999
 30
0.0
 40
1.062049
 50
60.281568000000007
 51
89.955954000000006
  0
ARC
  5
C5
  8
0
 62
     7
 10
144.71197100000001
 20
89.082490000000007
 30
0.0
 40
0.680846
 50
32.296733000000003
 51
58.913891999999997
  0
ARC
  5
C6
  8
0
 62
     7
 10
144.53864400000001
 20
88.743200999999999
 30
0.0
 40
1.062049
 50
90.044026000000002
 51
119.718412
  0
ARC
  5
C7
  8
0
 62
     7
 10
144.36368400000001
 20
89.082490000000007
 30
0.0
 40
0.680846
 50
121.086088
 51
147.703247
  0
ARC
  5
C8
  8
0
 62
     7
 10
143.037003
 20
88.741763000000006
 30
0.0
 40
1.0634870000000001
 50
60.302123000000002
 51
89.955772999999979
  0
ARC
  5
C9
  8
0
 62
     7
 10
143.21249499999999
 20
89.081824999999995
 30
0.0
 40
0.6813380000000001
 50
32.336767999999999
 51
58.953650000000003
  0
ARC
  5
CA
  8
0
 62
     7
 10
143.03863999999999
 20
88.743200999999999
 30
0.0
 40
1.062049
 50
90.044026000000002
 51
119.718412
  0
ARC
  5
CB
  8
0
 62
     7
 10
142.86367999999999
 20
89.082490000000007
 30
0.0
 40
0.680846
 50
121.086088
 51
147.703247
  0
LINE
  5
CC
  8
0
 62
     7
 10
145.03800000000001
 20
55.701300000000003
 30
0.0
 11
142.53800000000001
 21
55.701300000000003
 31
0.0
  0
LINE
  5
CD
  8
0
 62
     7
 10
145.03800000000001
 20
53.2012
 30
0.0
 11
142.53800000000001
 21
53.2012
 31
0.0
  0
LINE
  5
CE
  8
0
 62
     7
 10
141.94300000000001
 20
64.791600000000003
 30
0.0
 11
141.94300000000001
 21
63.102800000000002
 31
0.0
  0
LINE
  5
CF
  8
0
 62
     7
 10
141.94300000000001
 20
64.791600000000003
 30
0.0
 11
143.78800000000001
 21
64.791600000000003
 31
0.0
  0
LINE
  5
D0
  8
0
 62
     7
 10
142.21700000000001
 20
62.829300000000003
 30
0.0
 11
142.21700000000001
 21
60.603099999999998
 31
0.0
  0
LINE
  5
D1
  8
0
 62
     7
 10
142.21700000000001
 20
62.829300000000003
 30
0.0
 11
141.94300000000001
 21
63.102800000000002
 31
0.0
  0
LINE
  5
D2
  8
0
 62
     7
 10
143.297
 20
62.829300000000003
 30
0.0
 11
143.297
 21
60.603099999999998
 31
0.0
  0
LINE
  5
D3
  8
0
 62
     7
 10
142.90600000000001
 20
62.829300000000003
 30
0.0
 11
142.90600000000001
 21
60.603099999999998
 31
0.0
  0
LINE
  5
D4
  8
0
 62
     7
 10
142.90600000000001
 20
62.829300000000003
 30
0.0
 11
142.21700000000001
 21
62.829300000000003
 31
0.0
  0
LINE
  5
D5
  8
0
 62
     7
 10
143.78800000000001
 20
62.829300000000003
 30
0.0
 11
143.297
 21
62.829300000000003
 31
0.0
  0
ARC
  5
D6
  8
0
 62
     7
 10
142.23380700000001
 20
60.169761999999999
 30
0.0
 40
0.4689550000000001
 50
182.20157699999999
 51
267.88599399999998
  0
ARC
  5
D7
  8
0
 62
     7
 10
142.233464
 20
60.134791999999997
 30
0.0
 40
0.468573
 50
92.073751000000001
 51
177.926219
  0
LINE
  5
D8
  8
0
 62
     7
 10
142.90600000000001
 20
60.603099999999998
 30
0.0
 11
142.21700000000001
 21
60.603099999999998
 31
0.0
  0
LINE
  5
D9
  8
0
 62
     7
 10
143.78800000000001
 20
60.603099999999998
 30
0.0
 11
143.297
 21
60.603099999999998
 31
0.0
  0
LINE
  5
DA
  8
0
 62
     7
 10
142.53800000000001
 20
53.2012
 30
0.0
 11
142.53800000000001
 21
59.701099999999997
 31
0.0
  0
LINE
  5
DB
  8
0
 62
     7
 10
143.78800000000001
 20
59.701099999999997
 30
0.0
 11
142.21700000000001
 21
59.701099999999997
 31
0.0
  0
LINE
  5
DC
  8
0
 62
     7
 10
145.63300000000001
 20
64.791600000000003
 30
0.0
 11
145.63300000000001
 21
63.102800000000002
 31
0.0
  0
LINE
  5
DD
  8
0
 62
     7
 10
145.63300000000001
 20
64.791600000000003
 30
0.0
 11
143.78800000000001
 21
64.791600000000003
 31
0.0
  0
LINE
  5
DE
  8
0
 62
     7
 10
145.36000000000001
 20
62.829300000000003
 30
0.0
 11
145.36000000000001
 21
60.603099999999998
 31
0.0
  0
LINE
  5
DF
  8
0
 62
     7
 10
145.36000000000001
 20
62.829300000000003
 30
0.0
 11
145.63300000000001
 21
63.102800000000002
 31
0.0
  0
LINE
  5
E0
  8
0
 62
     7
 10
144.279
 20
62.829300000000003
 30
0.0
 11
144.279
 21
60.603099999999998
 31
0.0
  0
LINE
  5
E1
  8
0
 62
     7
 10
144.66999999999999
 20
62.829300000000003
 30
0.0
 11
144.66999999999999
 21
60.603099999999998
 31
0.0
  0
LINE
  5
E2
  8
0
 62
     7
 10
144.66999999999999
 20
62.829300000000003
 30
0.0
 11
145.36000000000001
 21
62.829300000000003
 31
0.0
  0
LINE
  5
E3
  8
0
 62
     7
 10
143.78800000000001
 20
62.829300000000003
 30
0.0
 11
144.279
 21
62.829300000000003
 31
0.0
  0
ARC
  5
E4
  8
0
 62
     7
 10
145.34248500000001
 20
60.134399999999999
 30
0.0
 40
0.468979
 50
2.119858999999999
 51
87.88013100000002
  0
ARC
  5
E5
  8
0
 62
     7
 10
145.343558
 20
60.168736000000003
 30
0.0
 40
0.4678930000000001
 50
271.99328100000002
 51
357.91918700000002
  0
LINE
  5
E6
  8
0
 62
     7
 10
144.66999999999999
 20
60.603099999999998
 30
0.0
 11
145.36000000000001
 21
60.603099999999998
 31
0.0
  0
LINE
  5
E7
  8
0
 62
     7
 10
143.78800000000001
 20
60.603099999999998
 30
0.0
 11
144.279
 21
60.603099999999998
 31
0.0
  0
LINE
  5
E8
  8
0
 62
     7
 10
145.03800000000001
 20
53.2012
 30
0.0
 11
145.03800000000001
 21
59.701099999999997
 31
0.0
  0
LINE
  5
E9
  8
0
 62
     7
 10
143.78800000000001
 20
59.701099999999997
 30
0.0
 11
145.36000000000001
 21
59.701099999999997
 31
0.0
  0
LINE
  5
EA
  8
0
 62
     7
 10
145.28800000000001
 20
64.792299999999997
 30
0.0
 11
145.28800000000001
 21
89.446299999999994
 31
0.0
  0
LINE
  5
EB
  8
0
 62
     7
 10
142.28800000000001
 20
64.792299999999997
 30
0.0
 11
142.28800000000001
 21
89.446299999999994
 31
0.0
  0
LINE
  5
EC
  8
0
  6
AIGENLINE001
 62
     7
 10
143.78800000000001
 20
154.44999999999999
 30
0.0
 11
143.78800000000001
 21
130.58699999999999
 31
0.0
  0
LINE
  5
ED
  8
0
  6
AIGENLINE001
 62
     7
 10
143.78800000000001
 20
125.94199999999999
 30
0.0
 11
143.78800000000001
 21
51.762500000000003
 31
0.0
  0
LINE
  5
EE
  8
0
 62
     7
 10
145.28800000000001
 20
91.298699999999997
 30
0.0
 11
145.28800000000001
 21
117.95
 31
0.0
  0
LINE
  5
EF
  8
0
 62
     7
 10
142.28800000000001
 20
91.298699999999997
 30
0.0
 11
142.28800000000001
 21
117.95
 31
0.0
  0
ARC
  5
F0
  8
0
 62
     7
 10
143.037103
 20
90.593405000000004
 30
0.0
 40
1.064284999999999
 50
60.313450999999993
 51
89.92407
  0
ARC
  5
F1
  8
0
 62
     7
 10
143.21265600000001
 20
90.934928999999997
 30
0.0
 40
0.680846
 50
32.296733000000003
 51
58.913891999999997
  0
ARC
  5
F2
  8
0
 62
     7
 10
143.03992700000001
 20
90.592375000000004
 30
0.0
 40
1.065315
 50
90.076038999999966
 51
119.67184399999999
  0
ARC
  5
F3
  8
0
 62
     7
 10
142.86184800000001
 20
90.937932999999987
 30
0.0
 40
0.6771110000000001
 50
121.054113
 51
147.804101
  0
ARC
  5
F4
  8
0
 62
     7
 10
143.03992700000001
 20
92.005041000000006
 30
0.0
 40
1.065315
 50
240.32815600000001
 51
269.92396100000002
  0
ARC
  5
F5
  8
0
 62
     7
 10
142.86184800000001
 20
91.659482999999994
 30
0.0
 40
0.6771110000000001
 50
212.195899
 51
238.945887
  0
ARC
  5
F6
  8
0
 62
     7
 10
143.037103
 20
92.004011000000006
 30
0.0
 40
1.064284999999999
 50
270.07593000000003
 51
299.68654900000001
  0
ARC
  5
F7
  8
0
 62
     7
 10
143.21265600000001
 20
91.662486999999999
 30
0.0
 40
0.680846
 50
301.08610800000002
 51
327.70326699999998
  0
ARC
  5
F8
  8
0
 62
     7
 10
144.53992500000001
 20
92.006320000000002
 30
0.0
 40
1.066594
 50
240.34635800000001
 51
269.92436900000001
  0
ARC
  5
F9
  8
0
 62
     7
 10
144.363269
 20
91.662183999999996
 30
0.0
 40
0.680333
 50
212.29384200000001
 51
238.936094
  0
ARC
  5
FA
  8
0
 62
     7
 10
144.53710699999999
 20
92.004011000000006
 30
0.0
 40
1.064284999999999
 50
270.07593000000003
 51
299.68654900000001
  0
ARC
  5
FB
  8
0
 62
     7
 10
144.71266
 20
91.662486999999999
 30
0.0
 40
0.680846
 50
301.08610800000002
 51
327.70326699999998
  0
LINE
  5
FC
  8
0
 62
     7
 10
52.626800000000003
 20
121.075
 30
0.0
 11
52.626800000000003
 21
122.325
 31
0.0
  0
LINE
  5
FD
  8
0
 62
     7
 10
53.876800000000003
 20
121.075
 30
0.0
 11
53.876800000000003
 21
122.325
 31
0.0
  0
LINE
  5
FE
  8
0
 62
     7
 10
52.626800000000003
 20
123.575
 30
0.0
 11
52.626800000000003
 21
124.825
 31
0.0
  0
LINE
  5
FF
  8
0
 62
     7
 10
53.876800000000003
 20
123.575
 30
0.0
 11
53.876800000000003
 21
124.825
 31
0.0
  0
LINE
  5
100
  8
0
  6
AIGENLINE001
 62
     7
 10
53.251899999999999
 20
118.77800000000001
 30
0.0
 11
53.251899999999999
 21
126.47199999999999
 31
0.0
  0
LINE
  5
101
  8
0
 62
     7
 10
52.201799999999999
 20
119.825
 30
0.0
 11
52.201799999999999
 21
121.075
 31
0.0
  0
LINE
  5
102
  8
0
 62
     7
 10
52.201799999999999
 20
121.075
 30
0.0
 11
54.3018
 21
121.075
 31
0.0
  0
LINE
  5
103
  8
0
 62
     7
 10
54.3018
 20
121.075
 30
0.0
 11
54.3018
 21
119.825
 31
0.0
  0
LINE
  5
104
  8
0
 62
     7
 10
54.3018
 20
119.825
 30
0.0
 11
52.201799999999999
 21
119.825
 31
0.0
  0
LINE
  5
105
  8
0
 62
     7
 10
63.126999999999988
 20
121.075
 30
0.0
 11
63.126999999999988
 21
122.325
 31
0.0
  0
LINE
  5
106
  8
0
 62
     7
 10
64.376800000000003
 20
121.075
 30
0.0
 11
64.376800000000003
 21
122.325
 31
0.0
  0
LINE
  5
107
  8
0
 62
     7
 10
63.126999999999988
 20
123.575
 30
0.0
 11
63.126999999999988
 21
124.825
 31
0.0
  0
LINE
  5
108
  8
0
 62
     7
 10
64.376800000000003
 20
123.575
 30
0.0
 11
64.376800000000003
 21
124.825
 31
0.0
  0
LINE
  5
109
  8
0
  6
AIGENLINE001
 62
     7
 10
63.751899999999992
 20
118.77800000000001
 30
0.0
 11
63.751899999999992
 21
126.47199999999999
 31
0.0
  0
LINE
  5
10A
  8
0
 62
     7
 10
62.701799999999992
 20
119.825
 30
0.0
 11
62.701799999999992
 21
121.075
 31
0.0
  0
LINE
  5
10B
  8
0
 62
     7
 10
62.701799999999992
 20
121.075
 30
0.0
 11
64.801999999999992
 21
121.075
 31
0.0
  0
LINE
  5
10C
  8
0
 62
     7
 10
64.801999999999992
 20
121.075
 30
0.0
 11
64.801999999999992
 21
119.825
 31
0.0
  0
LINE
  5
10D
  8
0
 62
     7
 10
64.801999999999992
 20
119.825
 30
0.0
 11
62.701799999999992
 21
119.825
 31
0.0
  0
LINE
  5
10E
  8
0
 62
     7
 10
52.2517
 20
122.325
 30
0.0
 11
52.2517
 21
123.575
 31
0.0
  0
LINE
  5
10F
  8
0
 62
     7
 10
52.2517
 20
123.575
 30
0.0
 11
64.751999999999995
 21
123.575
 31
0.0
  0
LINE
  5
110
  8
0
 62
     7
 10
64.751999999999995
 20
123.575
 30
0.0
 11
64.751999999999995
 21
122.325
 31
0.0
  0
LINE
  5
111
  8
0
 62
     7
 10
64.751999999999995
 20
122.325
 30
0.0
 11
52.2517
 21
122.325
 31
0.0
  0
LINE
  5
112
  8
0
 62
     7
 10
52.2517
 20
124.825
 30
0.0
 11
52.2517
 21
125.2
 31
0.0
  0
LINE
  5
113
  8
0
 62
     7
 10
52.2517
 20
125.2
 30
0.0
 11
64.751999999999995
 21
125.2
 31
0.0
  0
LINE
  5
114
  8
0
 62
     7
 10
64.751999999999995
 20
125.2
 30
0.0
 11
64.751999999999995
 21
124.825
 31
0.0
  0
LINE
  5
115
  8
0
 62
     7
 10
64.751999999999995
 20
124.825
 30
0.0
 11
52.2517
 21
124.825
 31
0.0
  0
LINE
  5
116
  8
0
 62
     7
 10
53.00180000000001
 20
125.2
 30
0.0
 11
53.00180000000001
 21
125.45
 31
0.0
  0
LINE
  5
117
  8
0
 62
     7
 10
53.00180000000001
 20
125.45
 30
0.0
 11
64.001999999999995
 21
125.45
 31
0.0
  0
LINE
  5
118
  8
0
 62
     7
 10
64.001999999999995
 20
125.45
 30
0.0
 11
64.001999999999995
 21
125.2
 31
0.0
  0
LINE
  5
119
  8
0
 62
     7
 10
64.001999999999995
 20
125.2
 30
0.0
 11
53.00180000000001
 21
125.2
 31
0.0
  0
LINE
  5
11A
  8
0
 62
     7
 10
42.019799999999989
 20
117.95
 30
0.0
 11
53.938999999999993
 21
117.95
 31
0.0
  0
LINE
  5
11B
  8
0
 62
     7
 10
47.796999999999997
 20
125.45
 30
0.0
 11
51.868099999999998
 21
125.45
 31
0.0
  0
LINE
  5
11C
  8
0
 62
     7
 10
43.235199999999999
 20
130.739
 30
0.0
 11
42.643000000000001
 21
132.94999999999999
 31
0.0
  0
LINE
  5
11D
  8
0
 62
     7
 10
42.643000000000001
 20
132.94999999999999
 30
0.0
 11
42.050600000000003
 21
130.739
 31
0.0
  0
LINE
  5
11E
  8
0
 62
     7
 10
42.050600000000003
 20
130.739
 30
0.0
 11
43.235199999999999
 21
130.739
 31
0.0
  0
LINE
  5
11F
  8
0
 62
     7
 10
42.065199999999997
 20
120.16200000000001
 30
0.0
 11
42.657400000000003
 21
117.95099999999999
 31
0.0
  0
LINE
  5
120
  8
0
 62
     7
 10
42.657400000000003
 20
117.95099999999999
 30
0.0
 11
43.2498
 21
120.16200000000001
 31
0.0
  0
LINE
  5
121
  8
0
 62
     7
 10
43.2498
 20
120.16200000000001
 30
0.0
 11
42.065199999999997
 21
120.16200000000001
 31
0.0
  0
LINE
  5
122
  8
0
 62
     7
 10
42.643000000000001
 20
132.94999999999999
 30
0.0
 11
42.643000000000001
 21
117.95
 31
0.0
  0
LINE
  5
123
  8
0
 62
     7
 10
49.005600000000001
 20
130.726
 30
0.0
 11
48.413400000000003
 21
132.93600000000001
 31
0.0
  0
LINE
  5
124
  8
0
 62
     7
 10
48.413400000000003
 20
132.93600000000001
 30
0.0
 11
47.820999999999998
 21
130.726
 31
0.0
  0
LINE
  5
125
  8
0
 62
     7
 10
47.820999999999998
 20
130.726
 30
0.0
 11
49.005600000000001
 21
130.726
 31
0.0
  0
LINE
  5
126
  8
0
 62
     7
 10
47.835599999999999
 20
127.661
 30
0.0
 11
48.427799999999998
 21
125.45
 31
0.0
  0
LINE
  5
127
  8
0
 62
     7
 10
48.427799999999998
 20
125.45
 30
0.0
 11
49.020200000000003
 21
127.661
 31
0.0
  0
LINE
  5
128
  8
0
 62
     7
 10
49.020200000000003
 20
127.661
 30
0.0
 11
47.835599999999999
 21
127.661
 31
0.0
  0
LINE
  5
129
  8
0
 62
     7
 10
48.413400000000003
 20
132.93700000000001
 30
0.0
 11
48.413400000000003
 21
125.449
 31
0.0
  0
LINE
  5
12A
  8
0
 62
     7
 10
41.939500000000002
 20
132.94999999999999
 30
0.0
 11
52.177900000000001
 21
132.94999999999999
 31
0.0
  0
LINE
  5
12B
  8
0
  6
AIGENLINE001
 62
     7
 10
58.501899999999999
 20
105.652
 30
0.0
 11
58.501899999999999
 21
193.91399999999999
 31
0.0
  0
LINE
  5
12C
  8
0
 62
     7
 10
58.440600000000003
 20
117.432
 30
0.0
 11
57.923099999999998
 21
117.95
 31
0.0
  0
LINE
  5
12D
  8
0
 62
     7
 10
55.957999999999998
 20
117.95
 30
0.0
 11
55.4405
 21
117.432
 31
0.0
  0
LINE
  5
12E
  8
0
 62
     7
 10
58.440600000000003
 20
116.331
 30
0.0
 11
56.821999999999989
 21
117.95
 31
0.0
  0
LINE
  5
12F
  8
0
 62
     7
 10
57.059100000000001
 20
117.95
 30
0.0
 11
55.4405
 21
116.331
 31
0.0
  0
LINE
  5
130
  8
0
 62
     7
 10
58.440600000000003
 20
115.23
 30
0.0
 11
55.720999999999997
 21
117.95
 31
0.0
  0
LINE
  5
131
  8
0
 62
     7
 10
58.1601
 20
117.95
 30
0.0
 11
55.4405
 21
115.23
 31
0.0
  0
LINE
  5
132
  8
0
 62
     7
 10
57.719200000000001
 20
114.84999999999999
 30
0.0
 11
55.4405
 21
117.129
 31
0.0
  0
LINE
  5
133
  8
0
 62
     7
 10
58.440600000000003
 20
117.129
 30
0.0
 11
56.161299999999997
 21
114.84999999999999
 31
0.0
  0
LINE
  5
134
  8
0
 62
     7
 10
56.618099999999998
 20
114.84999999999999
 30
0.0
 11
55.4405
 21
116.02800000000001
 31
0.0
  0
LINE
  5
135
  8
0
 62
     7
 10
58.440600000000003
 20
116.02800000000001
 30
0.0
 11
57.26230000000001
 21
114.84999999999999
 31
0.0
  0
ARC
  5
136
  8
0
 62
     7
 10
57.691028000000003
 20
90.150324999999995
 30
0.0
 40
1.0623489999999991
 50
240.291155
 51
269.95598000000001
  0
ARC
  5
137
  8
0
 62
     7
 10
57.515940000000001
 20
89.811057999999989
 30
0.0
 40
0.681094
 50
212.34984800000001
 51
238.939581
  0
ARC
  5
138
  8
0
 62
     7
 10
57.689393000000003
 20
90.150858999999997
 30
0.0
 40
1.062883
 50
270.04410799999999
 51
299.70122900000001
  0
ARC
  5
139
  8
0
 62
     7
 10
57.865487999999999
 20
89.809805000000011
 30
0.0
 40
0.679575
 50
301.05240600000008
 51
327.69400899999999
  0
ARC
  5
13A
  8
0
 62
     7
 10
57.689393000000003
 20
88.743031999999985
 30
0.0
 40
1.062562
 50
60.288912000000003
 51
89.955888999999985
  0
ARC
  5
13B
  8
0
 62
     7
 10
57.865618000000012
 20
89.084339
 30
0.0
 40
0.678974
 50
32.246316999999998
 51
58.929879000000007
  0
ARC
  5
13C
  8
0
 62
     7
 10
57.691027000000012
 20
88.743566000000001
 30
0.0
 40
1.0620289999999999
 50
90.044023999999993
 51
119.718706
  0
ARC
  5
13D
  8
0
 62
     7
 10
57.515807999999993
 20
89.083091000000024
 30
0.0
 40
0.6804899999999999
 50
121.0781309999999
 51
147.70982799999999
  0
ARC
  5
13E
  8
0
 62
     7
 10
56.189391999999998
 20
88.742209000000003
 30
0.0
 40
1.0633859999999999
 50
60.300679000000002
 51
89.956052999999983
  0
ARC
  5
13F
  8
0
 62
     7
 10
56.364160999999989
 20
89.081400000000016
 30
0.0
 40
0.6823560000000001
 50
32.359071999999998
 51
58.936844999999998
  0
ARC
  5
140
  8
0
 62
     7
 10
56.191023000000001
 20
88.743566000000001
 30
0.0
 40
1.0620289999999999
 50
90.044023999999993
 51
119.718706
  0
ARC
  5
141
  8
0
 62
     7
 10
56.015804000000003
 20
89.083091000000024
 30
0.0
 40
0.6804899999999999
 50
121.0781309999999
 51
147.70982799999999
  0
LINE
  5
142
  8
0
 62
     7
 10
58.440600000000003
 20
91.298699999999997
 30
0.0
 11
58.440600000000003
 21
117.95
 31
0.0
  0
LINE
  5
143
  8
0
 62
     7
 10
55.4405
 20
91.298699999999997
 30
0.0
 11
55.4405
 21
117.95
 31
0.0
  0
ARC
  5
144
  8
0
 62
     7
 10
56.189485999999988
 20
90.593425999999994
 30
0.0
 40
1.064263999999999
 50
60.313157999999987
 51
89.924072999999993
  0
ARC
  5
145
  8
0
 62
     7
 10
56.365299
 20
90.935186000000016
 30
0.0
 40
0.6804899999999999
 50
32.290152999999997
 51
58.921849000000009
  0
ARC
  5
146
  8
0
 62
     7
 10
56.192310999999997
 20
90.592168999999998
 30
0.0
 40
1.0655209999999991
 50
90.076064999999986
 51
119.668908
  0
ARC
  5
147
  8
0
 62
     7
 10
56.015225999999998
 20
90.936102000000005
 30
0.0
 40
0.6792200000000001
 50
121.050224
 51
147.73360500000001
  0
ARC
  5
148
  8
0
 62
     7
 10
56.192310999999997
 20
92.005246999999997
 30
0.0
 40
1.0655209999999991
 50
240.33109200000001
 51
269.92393499999997
  0
ARC
  5
149
  8
0
 62
     7
 10
56.015225999999998
 20
91.661314000000004
 30
0.0
 40
0.6792200000000001
 50
212.26639499999999
 51
238.94977600000001
  0
ARC
  5
14A
  8
0
 62
     7
 10
56.189485999999988
 20
92.003990000000002
 30
0.0
 40
1.064263999999999
 50
270.07592699999998
 51
299.68684200000001
  0
ARC
  5
14B
  8
0
 62
     7
 10
56.365299
 20
91.662229999999994
 30
0.0
 40
0.6804899999999999
 50
301.07815099999999
 51
327.70984700000008
  0
ARC
  5
14C
  8
0
 62
     7
 10
57.691965000000003
 20
92.005165000000005
 30
0.0
 40
1.065439
 50
240.32992400000001
 51
269.92423000000002
  0
ARC
  5
14D
  8
0
 62
     7
 10
57.515714000000003
 20
91.662186000000005
 30
0.0
 40
0.6803860000000001
 50
212.29124200000001
 51
238.929059
  0
ARC
  5
14E
  8
0
 62
     7
 10
57.689143000000008
 20
92.004710999999986
 30
0.0
 40
1.0649850000000001
 50
270.07601799999998
 51
299.67656099999999
  0
ARC
  5
14F
  8
0
 62
     7
 10
57.865223
 20
91.662563000000006
 30
0.0
 40
0.6807350000000002
 50
301.058269
 51
327.68982
  0
LINE
  5
150
  8
0
 62
     7
 10
58.190399999999997
 20
55.701700000000002
 30
0.0
 11
55.690699999999993
 21
55.701700000000002
 31
0.0
  0
LINE
  5
151
  8
0
 62
     7
 10
58.190399999999997
 20
53.201599999999999
 30
0.0
 11
55.690699999999993
 21
53.201599999999999
 31
0.0
  0
LINE
  5
152
  8
0
 62
     7
 10
55.094999999999999
 20
64.792299999999997
 30
0.0
 11
55.094999999999999
 21
63.103200000000001
 31
0.0
  0
LINE
  5
153
  8
0
 62
     7
 10
55.094999999999999
 20
64.792299999999997
 30
0.0
 11
56.940600000000003
 21
64.792299999999997
 31
0.0
  0
LINE
  5
154
  8
0
 62
     7
 10
55.368499999999997
 20
62.829599999999999
 30
0.0
 11
55.368499999999997
 21
60.603400000000001
 31
0.0
  0
LINE
  5
155
  8
0
 62
     7
 10
55.368499999999997
 20
62.829599999999999
 30
0.0
 11
55.094999999999999
 21
63.103200000000001
 31
0.0
  0
LINE
  5
156
  8
0
 62
     7
 10
56.449300000000001
 20
62.829599999999999
 30
0.0
 11
56.449300000000001
 21
60.603400000000001
 31
0.0
  0
LINE
  5
157
  8
0
 62
     7
 10
56.058599999999991
 20
62.829599999999999
 30
0.0
 11
56.058599999999991
 21
60.603400000000001
 31
0.0
  0
LINE
  5
158
  8
0
 62
     7
 10
56.058599999999991
 20
62.829599999999999
 30
0.0
 11
55.368499999999997
 21
62.829599999999999
 31
0.0
  0
LINE
  5
159
  8
0
 62
     7
 10
56.940600000000003
 20
62.829599999999999
 30
0.0
 11
56.449300000000001
 21
62.829599999999999
 31
0.0
  0
ARC
  5
15A
  8
0
 62
     7
 10
55.368547
 20
60.152436000000002
 30
0.0
 40
0.4509660000000001
 50
179.99996999999999
 51
270.00002000000001
  0
ARC
  5
15B
  8
0
 62
     7
 10
55.368547
 20
60.152436000000002
 30
0.0
 40
0.4509660000000001
 50
90.0
 51
179.99996999999999
  0
LINE
  5
15C
  8
0
 62
     7
 10
56.058599999999991
 20
60.603400000000001
 30
0.0
 11
55.368499999999997
 21
60.603400000000001
 31
0.0
  0
LINE
  5
15D
  8
0
 62
     7
 10
56.940600000000003
 20
60.603400000000001
 30
0.0
 11
56.449300000000001
 21
60.603400000000001
 31
0.0
  0
LINE
  5
15E
  8
0
 62
     7
 10
55.690699999999993
 20
53.201599999999999
 30
0.0
 11
55.690699999999993
 21
59.701500000000003
 31
0.0
  0
LINE
  5
15F
  8
0
 62
     7
 10
56.940600000000003
 20
59.701500000000003
 30
0.0
 11
55.368499999999997
 21
59.701500000000003
 31
0.0
  0
LINE
  5
160
  8
0
 62
     7
 10
58.785800000000002
 20
64.792299999999997
 30
0.0
 11
58.785800000000002
 21
63.103200000000001
 31
0.0
  0
LINE
  5
161
  8
0
 62
     7
 10
58.785800000000002
 20
64.792299999999997
 30
0.0
 11
56.940600000000003
 21
64.792299999999997
 31
0.0
  0
LINE
  5
162
  8
0
 62
     7
 10
58.512599999999992
 20
62.829599999999999
 30
0.0
 11
58.512599999999992
 21
60.603400000000001
 31
0.0
  0
LINE
  5
163
  8
0
 62
     7
 10
58.512599999999992
 20
62.829599999999999
 30
0.0
 11
58.785800000000002
 21
63.103200000000001
 31
0.0
  0
LINE
  5
164
  8
0
 62
     7
 10
57.431800000000003
 20
62.829599999999999
 30
0.0
 11
57.431800000000003
 21
60.603400000000001
 31
0.0
  0
LINE
  5
165
  8
0
 62
     7
 10
57.822499999999998
 20
62.829599999999999
 30
0.0
 11
57.822499999999998
 21
60.603400000000001
 31
0.0
  0
LINE
  5
166
  8
0
 62
     7
 10
57.822499999999998
 20
62.829599999999999
 30
0.0
 11
58.512599999999992
 21
62.829599999999999
 31
0.0
  0
LINE
  5
167
  8
0
 62
     7
 10
56.940600000000003
 20
62.829599999999999
 30
0.0
 11
57.431800000000003
 21
62.829599999999999
 31
0.0
  0
ARC
  5
168
  8
0
 62
     7
 10
58.495213
 20
60.135089000000001
 30
0.0
 40
0.468634
 50
2.1214019999999998
 51
87.878587999999993
  0
ARC
  5
169
  8
0
 62
     7
 10
58.495223000000003
 20
60.169773999999997
 30
0.0
 40
0.468624
 50
272.12021800000002
 51
357.87979200000001
  0
LINE
  5
16A
  8
0
 62
     7
 10
57.822499999999998
 20
60.603400000000001
 30
0.0
 11
58.512599999999992
 21
60.603400000000001
 31
0.0
  0
LINE
  5
16B
  8
0
 62
     7
 10
56.940600000000003
 20
60.603400000000001
 30
0.0
 11
57.431800000000003
 21
60.603400000000001
 31
0.0
  0
LINE
  5
16C
  8
0
 62
     7
 10
58.190399999999997
 20
53.201599999999999
 30
0.0
 11
58.190399999999997
 21
59.701500000000003
 31
0.0
  0
LINE
  5
16D
  8
0
 62
     7
 10
56.940600000000003
 20
59.701500000000003
 30
0.0
 11
58.512599999999992
 21
59.701500000000003
 31
0.0
  0
LINE
  5
16E
  8
0
 62
     7
 10
58.440600000000003
 20
64.792699999999996
 30
0.0
 11
58.440600000000003
 21
89.446600000000004
 31
0.0
  0
LINE
  5
16F
  8
0
 62
     7
 10
55.4405
 20
64.792699999999996
 30
0.0
 11
55.4405
 21
89.446600000000004
 31
0.0
  0
LINE
  5
170
  8
0
  6
AIGENLINE001
 62
     7
 10
56.940600000000003
 20
119.624
 30
0.0
 11
56.940600000000003
 21
51.762900000000002
 31
0.0
  0
LINE
  5
171
  8
0
 62
     7
 10
48.065100000000001
 20
47.484099999999991
 30
0.0
 11
61.802
 21
47.484099999999991
 31
0.0
  0
LINE
  5
172
  8
0
 62
     7
 10
58.190399999999997
 20
52.623100000000001
 30
0.0
 11
58.190399999999997
 21
46.992400000000004
 31
0.0
  0
LINE
  5
173
  8
0
 62
     7
 10
55.690699999999993
 20
52.623100000000001
 30
0.0
 11
55.690699999999993
 21
46.992400000000004
 31
0.0
  0
LINE
  5
174
  8
0
 62
     7
 10
130.03700000000001
 20
136.697
 30
0.0
 11
155.03800000000001
 21
136.697
 31
0.0
  0
LINE
  5
175
  8
0
 62
     7
 10
115.06
 20
133.202
 30
0.0
 11
115.06
 21
159.452
 31
0.0
  0
LINE
  5
176
  8
0
 62
     7
 10
163.51900000000001
 20
153.202
 30
0.0
 11
163.51900000000001
 21
143.202
 31
0.0
  0
ARC
  5
177
  8
0
 62
     7
 10
58.467731999999998
 20
238.00358700000001
 30
0.0
 40
33.054955999999997
 50
252.745306
 51
270.058605
  0
ARC
  5
178
  8
0
 62
     7
 10
58.496569999999998
 20
238.26874000000001
 30
0.0
 40
33.320092000000002
 50
270.00855000000001
 51
287.16122999999999
  0
LINE
  5
179
  8
0
 62
     7
 10
65.287400000000005
 20
206.55500000000001
 30
0.0
 11
68.328000000000003
 21
206.43199999999999
 31
0.0
  0
LINE
  5
17A
  8
0
 62
     7
 10
68.328000000000003
 20
206.43199999999999
 30
0.0
 11
65.632900000000006
 21
205.018
 31
0.0
  0
LINE
  5
17B
  8
0
 62
     7
 10
65.632900000000006
 20
205.018
 30
0.0
 11
65.287400000000005
 21
206.55500000000001
 31
0.0
  0
LINE
  5
17C
  8
0
 62
     7
 10
51.703999999999994
 20
206.559
 30
0.0
 11
48.662999999999997
 21
206.43600000000001
 31
0.0
  0
LINE
  5
17D
  8
0
 62
     7
 10
48.662999999999997
 20
206.43600000000001
 30
0.0
 11
51.358400000000003
 21
205.02199999999999
 31
0.0
  0
LINE
  5
17E
  8
0
 62
     7
 10
51.358400000000003
 20
205.02199999999999
 30
0.0
 11
51.703999999999994
 21
206.559
 31
0.0
  0
ARC
  5
17F
  8
0
 62
     7
 10
143.662767
 20
181.95248900000001
 30
0.0
 40
5.2500150000000003
 50
0.00001
 51
89.999980000000008
  0
ARC
  5
180
  8
0
  6
AIGENLINE001
 62
     7
 10
143.66293899999999
 20
181.95266100000001
 30
0.0
 40
7.6249070000000003
 50
359.998716
 51
89.998685999999992
  0
ARC
  5
181
  8
0
 62
     7
 10
143.66293899999999
 20
181.952316
 30
0.0
 40
9.9999710000000004
 50
0.000997
 51
90.000967000000017
  0
ARC
  5
182
  8
0
 62
     7
 10
108.91238800000001
 20
181.952662
 30
0.0
 40
5.2498430000000003
 50
90.001879999999986
 51
180.00189
  0
ARC
  5
183
  8
0
  6
AIGENLINE001
 62
     7
 10
108.912733
 20
181.95231699999999
 30
0.0
 40
7.6252519999999997
 50
89.998705999999984
 51
179.99867599999999
  0
ARC
  5
184
  8
0
 62
     7
 10
108.912216
 20
181.95248900000001
 30
0.0
 40
9.9997990000000012
 50
90.0
 51
179.99996999999999
  0
LINE
  5
185
  8
0
 62
     7
 10
68.466200000000001
 20
161.285
 30
0.0
 11
69.608199999999997
 21
159.30799999999999
 31
0.0
  0
LINE
  5
186
  8
0
 62
     7
 10
69.608199999999997
 20
159.30799999999999
 30
0.0
 11
67.631100000000004
 21
160.44900000000001
 31
0.0
  0
LINE
  5
187
  8
0
 62
     7
 10
67.631100000000004
 20
160.44900000000001
 30
0.0
 11
68.466200000000001
 21
161.285
 31
0.0
  0
LINE
  5
188
  8
0
 62
     7
 10
48.539099999999991
 20
161.285
 30
0.0
 11
47.396700000000003
 21
159.30799999999999
 31
0.0
  0
LINE
  5
189
  8
0
 62
     7
 10
47.396700000000003
 20
159.30799999999999
 30
0.0
 11
49.373899999999999
 21
160.44900000000001
 31
0.0
  0
LINE
  5
18A
  8
0
 62
     7
 10
49.373899999999999
 20
160.44900000000001
 30
0.0
 11
48.539099999999991
 21
161.285
 31
0.0
  0
LINE
  5
18B
  8
0
 62
     7
 10
87.069000000000003
 20
135.40700000000001
 30
0.0
 11
87.659599999999983
 21
133.202
 31
0.0
  0
LINE
  5
18C
  8
0
 62
     7
 10
87.659599999999983
 20
133.202
 30
0.0
 11
88.250299999999996
 21
135.40700000000001
 31
0.0
  0
LINE
  5
18D
  8
0
 62
     7
 10
88.250299999999996
 20
135.40700000000001
 30
0.0
 11
87.069000000000003
 21
135.40700000000001
 31
0.0
  0
LINE
  5
18E
  8
0
 62
     7
 10
88.239599999999996
 20
189.74700000000001
 30
0.0
 11
87.648799999999994
 21
191.952
 31
0.0
  0
LINE
  5
18F
  8
0
 62
     7
 10
87.648799999999994
 20
191.952
 30
0.0
 11
87.057900000000004
 21
189.74700000000001
 31
0.0
  0
LINE
  5
190
  8
0
 62
     7
 10
87.057900000000004
 20
189.74700000000001
 30
0.0
 11
88.239599999999996
 21
189.74700000000001
 31
0.0
  0
LINE
  5
191
  8
0
 62
     7
 10
87.654100000000014
 20
133.202
 30
0.0
 11
87.654100000000014
 21
191.952
 31
0.0
  0
LINE
  5
192
  8
0
 62
     7
 10
114.47
 20
135.40700000000001
 30
0.0
 11
115.06
 21
133.202
 31
0.0
  0
LINE
  5
193
  8
0
 62
     7
 10
115.06
 20
133.202
 30
0.0
 11
115.651
 21
135.40700000000001
 31
0.0
  0
LINE
  5
194
  8
0
 62
     7
 10
115.651
 20
135.40700000000001
 30
0.0
 11
114.47
 21
135.40700000000001
 31
0.0
  0
LINE
  5
195
  8
0
 62
     7
 10
115.65000000000001
 20
145.99700000000001
 30
0.0
 11
115.06
 21
148.202
 31
0.0
  0
LINE
  5
196
  8
0
 62
     7
 10
115.06
 20
148.202
 30
0.0
 11
114.46899999999999
 21
145.99700000000001
 31
0.0
  0
LINE
  5
197
  8
0
 62
     7
 10
114.46899999999999
 20
145.99700000000001
 30
0.0
 11
115.65000000000001
 21
145.99700000000001
 31
0.0
  0
LINE
  5
198
  8
0
 62
     7
 10
114.47
 20
150.40799999999999
 30
0.0
 11
115.06
 21
148.202
 31
0.0
  0
LINE
  5
199
  8
0
 62
     7
 10
115.06
 20
148.202
 30
0.0
 11
115.651
 21
150.40799999999999
 31
0.0
  0
LINE
  5
19A
  8
0
 62
     7
 10
115.651
 20
150.40799999999999
 30
0.0
 11
114.47
 21
150.40799999999999
 31
0.0
  0
LINE
  5
19B
  8
0
 62
     7
 10
115.65000000000001
 20
157.24700000000001
 30
0.0
 11
115.06
 21
159.452
 31
0.0
  0
LINE
  5
19C
  8
0
 62
     7
 10
115.06
 20
159.452
 30
0.0
 11
114.46899999999999
 21
157.24700000000001
 31
0.0
  0
LINE
  5
19D
  8
0
 62
     7
 10
114.46899999999999
 20
157.24700000000001
 30
0.0
 11
115.65000000000001
 21
157.24700000000001
 31
0.0
  0
LINE
  5
19E
  8
0
 62
     7
 10
162.929
 20
145.40799999999999
 30
0.0
 11
163.51900000000001
 21
143.202
 31
0.0
  0
LINE
  5
19F
  8
0
 62
     7
 10
163.51900000000001
 20
143.202
 30
0.0
 11
164.11000000000001
 21
145.40799999999999
 31
0.0
  0
LINE
  5
1A0
  8
0
 62
     7
 10
164.11000000000001
 20
145.40799999999999
 30
0.0
 11
162.929
 21
145.40799999999999
 31
0.0
  0
LINE
  5
1A1
  8
0
 62
     7
 10
164.11000000000001
 20
150.99700000000001
 30
0.0
 11
163.51900000000001
 21
153.202
 31
0.0
  0
LINE
  5
1A2
  8
0
 62
     7
 10
163.51900000000001
 20
153.202
 30
0.0
 11
162.929
 21
150.99700000000001
 31
0.0
  0
LINE
  5
1A3
  8
0
 62
     7
 10
162.929
 20
150.99700000000001
 30
0.0
 11
164.11000000000001
 21
150.99700000000001
 31
0.0
  0
LINE
  5
1A4
  8
0
 62
     7
 10
95.062700000000007
 20
135.40700000000001
 30
0.0
 11
95.653300000000016
 21
133.202
 31
0.0
  0
LINE
  5
1A5
  8
0
 62
     7
 10
95.653300000000016
 20
133.202
 30
0.0
 11
96.244200000000006
 21
135.40700000000001
 31
0.0
  0
LINE
  5
1A6
  8
0
 62
     7
 10
96.244200000000006
 20
135.40700000000001
 30
0.0
 11
95.062700000000007
 21
135.40700000000001
 31
0.0
  0
LINE
  5
1A7
  8
0
 62
     7
 10
96.233300000000014
 20
172.21299999999999
 30
0.0
 11
95.642499999999984
 21
174.41800000000001
 31
0.0
  0
LINE
  5
1A8
  8
0
 62
     7
 10
95.642499999999984
 20
174.41800000000001
 30
0.0
 11
95.051800000000014
 21
172.21299999999999
 31
0.0
  0
LINE
  5
1A9
  8
0
 62
     7
 10
95.051800000000014
 20
172.21299999999999
 30
0.0
 11
96.233300000000014
 21
172.21299999999999
 31
0.0
  0
LINE
  5
1AA
  8
0
 62
     7
 10
95.647999999999996
 20
133.202
 30
0.0
 11
95.647999999999996
 21
174.41800000000001
 31
0.0
  0
LINE
  5
1AB
  8
0
 62
     7
 10
98.217399999999998
 20
174.41800000000001
 30
0.0
 11
95.008399999999995
 21
174.41800000000001
 31
0.0
  0
LINE
  5
1AC
  8
0
 62
     7
 10
105.22499999999999
 20
191.952
 30
0.0
 11
86.912700000000015
 21
191.952
 31
0.0
  0
LINE
  5
1AD
  8
0
 62
     7
 10
137.89500000000001
 20
133.202
 30
0.0
 11
86.648300000000006
 21
133.202
 31
0.0
  0
LINE
  5
1AE
  8
0
 62
     7
 10
53.485799999999998
 20
46.893599999999992
 30
0.0
 11
55.690699999999993
 21
47.484099999999991
 31
0.0
  0
LINE
  5
1AF
  8
0
 62
     7
 10
55.690699999999993
 20
47.484099999999991
 30
0.0
 11
53.485799999999998
 21
48.0745
 31
0.0
  0
LINE
  5
1B0
  8
0
 62
     7
 10
53.485799999999998
 20
48.0745
 30
0.0
 11
53.485799999999998
 21
46.893599999999992
 31
0.0
  0
LINE
  5
1B1
  8
0
 62
     7
 10
60.395800000000001
 20
48.0749
 30
0.0
 11
58.190399999999997
 21
47.484099999999991
 31
0.0
  0
LINE
  5
1B2
  8
0
 62
     7
 10
58.190399999999997
 20
47.484099999999991
 30
0.0
 11
60.395800000000001
 21
46.89289999999999
 31
0.0
  0
LINE
  5
1B3
  8
0
 62
     7
 10
60.395800000000001
 20
46.89289999999999
 30
0.0
 11
60.395800000000001
 21
48.0749
 31
0.0
  0
LINE
  5
1B4
  8
0
 62
     7
 10
60.922400000000003
 20
135.78899999999999
 30
0.0
 11
63.127299999999998
 21
136.38
 31
0.0
  0
LINE
  5
1B5
  8
0
 62
     7
 10
63.127299999999998
 20
136.38
 30
0.0
 11
60.922400000000003
 21
136.971
 31
0.0
  0
LINE
  5
1B6
  8
0
 62
     7
 10
60.922400000000003
 20
136.971
 30
0.0
 11
60.922400000000003
 21
135.78899999999999
 31
0.0
  0
LINE
  5
1B7
  8
0
 62
     7
 10
56.082500000000003
 20
136.96000000000001
 30
0.0
 11
53.877200000000002
 21
136.369
 31
0.0
  0
LINE
  5
1B8
  8
0
 62
     7
 10
53.877200000000002
 20
136.369
 30
0.0
 11
56.082500000000003
 21
135.77799999999999
 31
0.0
  0
LINE
  5
1B9
  8
0
 62
     7
 10
56.082500000000003
 20
135.77799999999999
 30
0.0
 11
56.082500000000003
 21
136.96000000000001
 31
0.0
  0
LINE
  5
1BA
  8
0
 62
     7
 10
63.127299999999998
 20
136.375
 30
0.0
 11
47.223899999999993
 21
136.375
 31
0.0
  0
LINE
  5
1BB
  8
0
 62
     7
 10
145.99299999999999
 20
137.27600000000001
 30
0.0
 11
143.78800000000001
 21
136.68600000000001
 31
0.0
  0
LINE
  5
1BC
  8
0
 62
     7
 10
143.78800000000001
 20
136.68600000000001
 30
0.0
 11
145.99299999999999
 21
136.095
 31
0.0
  0
LINE
  5
1BD
  8
0
 62
     7
 10
145.99299999999999
 20
136.095
 30
0.0
 11
145.99299999999999
 21
137.27600000000001
 31
0.0
  0
LINE
  5
1BE
  8
0
 62
     7
 10
132.24299999999999
 20
137.27600000000001
 30
0.0
 11
130.03700000000001
 21
136.68600000000001
 31
0.0
  0
LINE
  5
1BF
  8
0
 62
     7
 10
130.03700000000001
 20
136.68600000000001
 30
0.0
 11
132.24299999999999
 21
136.095
 31
0.0
  0
LINE
  5
1C0
  8
0
 62
     7
 10
132.24299999999999
 20
136.095
 30
0.0
 11
132.24299999999999
 21
137.27600000000001
 31
0.0
  0
LINE
  5
1C1
  8
0
 62
     7
 10
141.583
 20
136.10599999999999
 30
0.0
 11
143.78800000000001
 21
136.697
 31
0.0
  0
LINE
  5
1C2
  8
0
 62
     7
 10
143.78800000000001
 20
136.697
 30
0.0
 11
141.583
 21
137.28700000000001
 31
0.0
  0
LINE
  5
1C3
  8
0
 62
     7
 10
141.583
 20
137.28700000000001
 30
0.0
 11
141.583
 21
136.10599999999999
 31
0.0
  0
LINE
  5
1C4
  8
0
 62
     7
 10
152.83199999999999
 20
136.10599999999999
 30
0.0
 11
155.03800000000001
 21
136.697
 31
0.0
  0
LINE
  5
1C5
  8
0
 62
     7
 10
155.03800000000001
 20
136.697
 30
0.0
 11
152.83199999999999
 21
137.28700000000001
 31
0.0
  0
LINE
  5
1C6
  8
0
 62
     7
 10
152.83199999999999
 20
137.28700000000001
 30
0.0
 11
152.83199999999999
 21
136.10599999999999
 31
0.0
  0
LINE
  5
1C7
  8
0
 62
     7
 10
145.99299999999999
 20
159.06999999999999
 30
0.0
 11
143.78800000000001
 21
158.47999999999999
 31
0.0
  0
LINE
  5
1C8
  8
0
 62
     7
 10
143.78800000000001
 20
158.47999999999999
 30
0.0
 11
145.99299999999999
 21
157.88900000000001
 31
0.0
  0
LINE
  5
1C9
  8
0
 62
     7
 10
145.99299999999999
 20
157.88900000000001
 30
0.0
 11
145.99299999999999
 21
159.06999999999999
 31
0.0
  0
LINE
  5
1CA
  8
0
 62
     7
 10
149.083
 20
157.90000000000001
 30
0.0
 11
151.28800000000001
 21
158.49100000000001
 31
0.0
  0
LINE
  5
1CB
  8
0
 62
     7
 10
151.28800000000001
 20
158.49100000000001
 30
0.0
 11
149.083
 21
159.08099999999999
 31
0.0
  0
LINE
  5
1CC
  8
0
 62
     7
 10
149.083
 20
159.08099999999999
 30
0.0
 11
149.083
 21
157.90000000000001
 31
0.0
  0
LINE
  5
1CD
  8
0
 62
     7
 10
143.78800000000001
 20
158.48500000000001
 30
0.0
 11
151.28800000000001
 21
158.48500000000001
 31
0.0
  0
LINE
  5
1CE
  8
0
 62
     7
 10
143.78800000000001
 20
159.018
 30
0.0
 11
143.78800000000001
 21
154.87100000000001
 31
0.0
  0
LINE
  5
1CF
  8
0
 62
     7
 10
149.083
 20
166.59299999999999
 30
0.0
 11
151.28800000000001
 21
167.18299999999999
 31
0.0
  0
LINE
  5
1D0
  8
0
 62
     7
 10
151.28800000000001
 20
167.18299999999999
 30
0.0
 11
149.083
 21
167.774
 31
0.0
  0
LINE
  5
1D1
  8
0
 62
     7
 10
149.083
 20
167.774
 30
0.0
 11
149.083
 21
166.59299999999999
 31
0.0
  0
LINE
  5
1D2
  8
0
 62
     7
 10
103.49299999999999
 20
167.76300000000001
 30
0.0
 11
101.28700000000001
 21
167.173
 31
0.0
  0
LINE
  5
1D3
  8
0
 62
     7
 10
101.28700000000001
 20
167.173
 30
0.0
 11
103.49299999999999
 21
166.58199999999999
 31
0.0
  0
LINE
  5
1D4
  8
0
 62
     7
 10
103.49299999999999
 20
166.58199999999999
 30
0.0
 11
103.49299999999999
 21
167.76300000000001
 31
0.0
  0
LINE
  5
1D5
  8
0
 62
     7
 10
151.28800000000001
 20
167.178
 30
0.0
 11
101.28700000000001
 21
167.178
 31
0.0
  0
LINE
  5
1D6
  8
0
 62
     7
 10
101.28700000000001
 20
172.048
 30
0.0
 11
101.28700000000001
 21
166.61799999999999
 31
0.0
  0
LINE
  5
1D7
  8
0
 62
     7
 10
125.08
 20
184.99700000000001
 30
0.0
 11
124.48999999999999
 21
187.203
 31
0.0
  0
LINE
  5
1D8
  8
0
 62
     7
 10
124.48999999999999
 20
187.203
 30
0.0
 11
123.899
 21
184.99700000000001
 31
0.0
  0
LINE
  5
1D9
  8
0
 62
     7
 10
123.899
 20
184.99700000000001
 30
0.0
 11
125.08
 21
184.99700000000001
 31
0.0
  0
LINE
  5
1DA
  8
0
 62
     7
 10
123.90900000000001
 20
194.15799999999999
 30
0.0
 11
124.501
 21
191.952
 31
0.0
  0
LINE
  5
1DB
  8
0
 62
     7
 10
124.501
 20
191.952
 30
0.0
 11
125.092
 21
194.15799999999999
 31
0.0
  0
LINE
  5
1DC
  8
0
 62
     7
 10
125.092
 20
194.15799999999999
 30
0.0
 11
123.90900000000001
 21
194.15799999999999
 31
0.0
  0
LINE
  5
1DD
  8
0
 62
     7
 10
124.495
 20
200.75
 30
0.0
 11
124.495
 21
184.364
 31
0.0
  0
LINE
  5
1DE
  8
0
 62
     7
 10
56.127200000000002
 20
232.001
 30
0.0
 11
60.876899999999999
 21
232.001
 31
0.0
  0
LINE
  5
1DF
  8
0
 62
     7
 10
56.127200000000002
 20
200.001
 30
0.0
 11
56.127200000000002
 21
250.001
 31
0.0
  0
LINE
  5
1E0
  8
0
 62
     7
 10
60.876899999999999
 20
200.001
 30
0.0
 11
60.876899999999999
 21
250.001
 31
0.0
  0
ARC
  5
1E1
  8
0
 62
     7
 10
58.502052999999997
 20
200.00094200000001
 30
0.0
 40
2.374890999999999
 50
179.995814
 51
269.9958640000001
  0
ARC
  5
1E2
  8
0
 62
     7
 10
58.501880000000007
 20
200.001116
 30
0.0
 40
2.3750640000000001
 50
270.00002000000001
 51
359.99999000000003
  0
ARC
  5
1E3
  8
0
 62
     7
 10
58.501880000000007
 20
250.00147999999999
 30
0.0
 40
2.3750640000000001
 50
0.00001
 51
89.999980000000008
  0
ARC
  5
1E4
  8
0
 62
     7
 10
58.502052999999997
 20
250.00165200000001
 30
0.0
 40
2.374892
 50
90.004156000000009
 51
180.004166
  0
LINE
  5
1E5
  8
0
  6
AIGENLINE001
 62
     7
 10
52.020600000000002
 20
250.001
 30
0.0
 11
65.018100000000004
 21
250.001
 31
0.0
  0
LINE
  5
1E6
  8
0
 62
     7
 10
63.001899999999999
 20
237.501
 30
0.0
 11
63.001899999999999
 21
237.876
 31
0.0
  0
LINE
  5
1E7
  8
0
 62
     7
 10
54.001899999999999
 20
237.501
 30
0.0
 11
54.001899999999999
 21
237.876
 31
0.0
  0
LINE
  5
1E8
  8
0
 62
     7
 10
56.127200000000002
 20
237.876
 30
0.0
 11
53.502200000000002
 21
237.876
 31
0.0
  0
LINE
  5
1E9
  8
0
 62
     7
 10
63.502099999999999
 20
237.876
 30
0.0
 11
60.876899999999999
 21
237.876
 31
0.0
  0
LINE
  5
1EA
  8
0
 62
     7
 10
56.127200000000002
 20
237.501
 30
0.0
 11
53.502200000000002
 21
237.501
 31
0.0
  0
LINE
  5
1EB
  8
0
 62
     7
 10
63.502099999999999
 20
237.501
 30
0.0
 11
60.876899999999999
 21
237.501
 31
0.0
  0
LINE
  5
1EC
  8
0
  6
AIGENLINE001
 62
     7
 10
58.501899999999999
 20
256.21300000000002
 30
0.0
 11
58.501899999999999
 21
195.78700000000001
 31
0.0
  0
LINE
  5
1ED
  8
0
 62
     7
 10
56.127200000000002
 20
228.751
 30
0.0
 11
53.502200000000002
 21
228.751
 31
0.0
  0
LINE
  5
1EE
  8
0
 62
     7
 10
63.502099999999999
 20
228.751
 30
0.0
 11
60.876899999999999
 21
228.751
 31
0.0
  0
LINE
  5
1EF
  8
0
 62
     7
 10
53.502200000000002
 20
237.501
 30
0.0
 11
53.502200000000002
 21
228.751
 31
0.0
  0
LINE
  5
1F0
  8
0
 62
     7
 10
53.502200000000002
 20
253.751
 30
0.0
 11
53.502200000000002
 21
237.876
 31
0.0
  0
LINE
  5
1F1
  8
0
 62
     7
 10
53.502200000000002
 20
253.751
 30
0.0
 11
63.502099999999999
 21
253.751
 31
0.0
  0
LINE
  5
1F2
  8
0
 62
     7
 10
63.502099999999999
 20
237.501
 30
0.0
 11
63.502099999999999
 21
228.751
 31
0.0
  0
LINE
  5
1F3
  8
0
 62
     7
 10
63.502099999999999
 20
253.751
 30
0.0
 11
63.502099999999999
 21
237.876
 31
0.0
  0
LINE
  5
1F4
  8
0
 62
     7
 10
143.78700000000001
 20
145.57900000000001
 30
0.0
 11
144.44200000000001
 21
145.57900000000001
 31
0.0
  0
LINE
  5
1F5
  8
0
 62
     7
 10
148.41200000000001
 20
143.202
 30
0.0
 11
145.10499999999999
 21
145.38
 31
0.0
  0
ARC
  5
1F6
  8
0
 62
     7
 10
144.441239
 20
144.370226
 30
0.0
 40
1.208372999999999
 50
56.667369999999998
 51
89.945053999999985
  0
LINE
  5
1F7
  8
0
 62
     7
 10
143.78700000000001
 20
145.57900000000001
 30
0.0
 11
143.1329999999999
 21
145.57900000000001
 31
0.0
  0
LINE
  5
1F8
  8
0
 62
     7
 10
139.16300000000001
 20
143.202
 30
0.0
 11
142.47
 21
145.38
 31
0.0
  0
ARC
  5
1F9
  8
0
 62
     7
 10
143.134963
 20
144.368391
 30
0.0
 40
1.2102090000000001
 50
90.097253000000009
 51
123.306679
  0
LINE
  5
1FA
  8
0
  6
AIGENLINE001
 62
     7
 10
156.63800000000001
 20
148.202
 30
0.0
 11
128.667
 21
148.202
 31
0.0
  0
LINE
  5
1FB
  8
0
 62
     7
 10
144.1629999999999
 20
132.952
 30
0.0
 11
144.1629999999999
 21
131.202
 31
0.0
  0
LINE
  5
1FC
  8
0
 62
     7
 10
143.41300000000001
 20
132.952
 30
0.0
 11
143.41300000000001
 21
131.202
 31
0.0
  0
LINE
  5
1FD
  8
0
 62
     7
 10
147.78800000000001
 20
132.952
 30
0.0
 11
147.78800000000001
 21
131.202
 31
0.0
  0
LINE
  5
1FE
  8
0
 62
     7
 10
139.78800000000001
 20
132.952
 30
0.0
 11
139.78800000000001
 21
131.202
 31
0.0
  0
LINE
  5
1FF
  8
0
 62
     7
 10
147.78800000000001
 20
131.202
 30
0.0
 11
139.78800000000001
 21
131.202
 31
0.0
  0
LINE
  5
200
  8
0
 62
     7
 10
148.91300000000001
 20
133.202
 30
0.0
 11
148.91300000000001
 21
132.952
 31
0.0
  0
LINE
  5
201
  8
0
 62
     7
 10
138.66300000000001
 20
133.202
 30
0.0
 11
138.66300000000001
 21
132.952
 31
0.0
  0
LINE
  5
202
  8
0
 62
     7
 10
148.91300000000001
 20
132.952
 30
0.0
 11
138.66300000000001
 21
132.952
 31
0.0
  0
LINE
  5
203
  8
0
 62
     7
 10
139.16300000000001
 20
143.202
 30
0.0
 11
139.16300000000001
 21
133.202
 31
0.0
  0
LINE
  5
204
  8
0
 62
     7
 10
148.41300000000001
 20
143.202
 30
0.0
 11
148.41300000000001
 21
133.202
 31
0.0
  0
LINE
  5
205
  8
0
 62
     7
 10
148.91300000000001
 20
133.202
 30
0.0
 11
138.66300000000001
 21
133.202
 31
0.0
  0
LINE
  5
206
  8
0
 62
     7
 10
131.28800000000001
 20
191.953
 30
0.0
 11
131.28800000000001
 21
187.203
 31
0.0
  0
LINE
  5
207
  8
0
 62
     7
 10
153.66300000000001
 20
153.202
 30
0.0
 11
153.66300000000001
 21
181.952
 31
0.0
  0
LINE
  5
208
  8
0
  6
AIGENLINE001
 62
     7
 10
151.28800000000001
 20
181.952
 30
0.0
 11
151.28800000000001
 21
148.202
 31
0.0
  0
LINE
  5
209
  8
0
 62
     7
 10
148.91300000000001
 20
153.202
 30
0.0
 11
148.91300000000001
 21
181.952
 31
0.0
  0
LINE
  5
20A
  8
0
 62
     7
 10
58.877099999999999
 20
132.952
 30
0.0
 11
58.877099999999999
 21
131.202
 31
0.0
  0
LINE
  5
20B
  8
0
 62
     7
 10
58.127200000000002
 20
132.952
 30
0.0
 11
58.127200000000002
 21
131.202
 31
0.0
  0
LINE
  5
20C
  8
0
 62
     7
 10
62.502200000000002
 20
132.952
 30
0.0
 11
62.502200000000002
 21
131.202
 31
0.0
  0
LINE
  5
20D
  8
0
 62
     7
 10
54.502099999999999
 20
132.952
 30
0.0
 11
54.502099999999999
 21
131.202
 31
0.0
  0
LINE
  5
20E
  8
0
 62
     7
 10
62.502200000000002
 20
131.202
 30
0.0
 11
54.502099999999999
 21
131.202
 31
0.0
  0
LINE
  5
20F
  8
0
 62
     7
 10
63.627200000000002
 20
133.202
 30
0.0
 11
63.627200000000002
 21
132.952
 31
0.0
  0
LINE
  5
210
  8
0
 62
     7
 10
53.377099999999999
 20
133.202
 30
0.0
 11
53.377099999999999
 21
132.952
 31
0.0
  0
LINE
  5
211
  8
0
 62
     7
 10
63.627200000000002
 20
132.952
 30
0.0
 11
53.377099999999999
 21
132.952
 31
0.0
  0
LINE
  5
212
  8
0
 62
     7
 10
53.877200000000002
 20
146.30199999999999
 30
0.0
 11
53.877200000000002
 21
133.202
 31
0.0
  0
LINE
  5
213
  8
0
 62
     7
 10
63.127299999999998
 20
146.30199999999999
 30
0.0
 11
63.127299999999998
 21
133.202
 31
0.0
  0
LINE
  5
214
  8
0
 62
     7
 10
63.627200000000002
 20
133.202
 30
0.0
 11
53.377099999999999
 21
133.202
 31
0.0
  0
LINE
  5
215
  8
0
 62
     7
 10
59.377099999999999
 20
154.37200000000001
 30
0.0
 11
60.876899999999999
 21
154.37200000000001
 31
0.0
  0
LINE
  5
216
  8
0
 62
     7
 10
56.12680000000001
 20
154.37200000000001
 30
0.0
 11
57.626999999999988
 21
154.37200000000001
 31
0.0
  0
LINE
  5
217
  8
0
 62
     7
 10
60.876899999999999
 20
189.577
 30
0.0
 11
60.876899999999999
 21
152.602
 31
0.0
  0
LINE
  5
218
  8
0
 62
     7
 10
56.127200000000002
 20
189.577
 30
0.0
 11
56.127200000000002
 21
152.602
 31
0.0
  0
LINE
  5
219
  8
0
 62
     7
 10
57.501899999999992
 20
153.101
 30
0.0
 11
57.501899999999992
 21
143.303
 31
0.0
  0
LINE
  5
21A
  8
0
 62
     7
 10
59.502200000000002
 20
153.101
 30
0.0
 11
59.502200000000002
 21
143.303
 31
0.0
  0
ARC
  5
21B
  8
0
 62
     7
 10
58.42311999999999
 20
148.011923
 30
0.0
 40
15.896618
 50
45.282080000000001
 51
89.714251000000004
  0
ARC
  5
21C
  8
0
 62
     7
 10
58.579983999999989
 20
148.016424
 30
0.0
 40
15.892110000000001
 50
90.279713999999998
 51
134.72454400000001
  0
ARC
  5
21D
  8
0
 62
     7
 10
58.502223999999991
 20
148.20239799999999
 30
0.0
 40
4.9999000000000002
 50
0.00001
 51
89.999980000000008
  0
ARC
  5
21E
  8
0
 62
     7
 10
58.502140000000011
 20
148.20231200000001
 30
0.0
 40
4.9999859999999989
 50
89.999013000000005
 51
179.99898300000001
  0
ARC
  5
21F
  8
0
 62
     7
 10
58.502310999999999
 20
148.20231200000001
 30
0.0
 40
5.0001559999999987
 50
179.99898300000001
 51
269.999033
  0
ARC
  5
220
  8
0
 62
     7
 10
58.502051999999999
 20
148.20222799999999
 30
0.0
 40
5.0000720000000003
 50
270.00199400000002
 51
0.001964
  0
ARC
  5
221
  8
0
 62
     7
 10
151.28767400000001
 20
157.49575899999999
 30
0.0
 40
4.9298070000000003
 50
245.68720400000001
 51
294.312816
  0
LINE
  5
222
  8
0
 62
     7
 10
153.66300000000001
 20
154.37200000000001
 30
0.0
 11
148.91300000000001
 21
154.37200000000001
 31
0.0
  0
LINE
  5
223
  8
0
 62
     7
 10
138.78800000000001
 20
143.702
 30
0.0
 11
139.16200000000001
 21
143.702
 31
0.0
  0
LINE
  5
224
  8
0
 62
     7
 10
138.78800000000001
 20
152.702
 30
0.0
 11
139.16200000000001
 21
152.702
 31
0.0
  0
LINE
  5
225
  8
0
 62
     7
 10
148.41300000000001
 20
143.202
 30
0.0
 11
155.03800000000001
 21
143.202
 31
0.0
  0
LINE
  5
226
  8
0
 62
     7
 10
148.91300000000001
 20
153.202
 30
0.0
 11
139.16200000000001
 21
153.202
 31
0.0
  0
LINE
  5
227
  8
0
 62
     7
 10
155.03800000000001
 20
153.202
 30
0.0
 11
153.66300000000001
 21
153.202
 31
0.0
  0
LINE
  5
228
  8
0
  6
AIGENLINE001
 62
     7
 10
51.554099999999991
 20
242.50200000000001
 30
0.0
 11
65.3125
 21
242.50200000000001
 31
0.0
  0
LINE
  5
229
  8
0
 62
     7
 10
155.03800000000001
 20
153.202
 30
0.0
 11
155.03800000000001
 21
143.202
 31
0.0
  0
LINE
  5
22A
  8
0
  6
AIGENLINE002
 62
     7
 10
126.538
 20
158.267
 30
0.0
 11
128.21700000000001
 21
158.75999999999999
 31
0.0
  0
LINE
  5
22B
  8
0
  6
AIGENLINE002
 62
     7
 10
126.538
 20
158.267
 30
0.0
 11
128.30000000000001
 21
152.27000000000001
 31
0.0
  0
LINE
  5
22C
  8
0
  6
AIGENLINE002
 62
     7
 10
128.21700000000001
 20
158.75999999999999
 30
0.0
 11
129.9789999999999
 21
152.76400000000001
 31
0.0
  0
LINE
  5
22D
  8
0
  6
AIGENLINE002
 62
     7
 10
126.961
 20
159.929
 30
0.0
 11
129.47499999999999
 21
151.375
 31
0.0
  0
LINE
  5
22E
  8
0
  6
AIGENLINE002
 62
     7
 10
132.911
 20
143.202
 30
0.0
 11
130.75899999999999
 21
142.56999999999999
 31
0.0
  0
LINE
  5
22F
  8
0
  6
AIGENLINE002
 62
     7
 10
129.9789999999999
 20
152.76400000000001
 30
0.0
 11
127.94
 21
152.16399999999999
 31
0.0
  0
LINE
  5
230
  8
0
  6
AIGENLINE002
 62
     7
 10
127.94
 20
152.16399999999999
 30
0.0
 11
130.75899999999999
 21
142.56999999999999
 31
0.0
  0
LINE
  5
231
  8
0
 62
     7
 10
130.41300000000001
 20
159.452
 30
0.0
 11
132.16200000000001
 21
159.452
 31
0.0
  0
LINE
  5
232
  8
0
 62
     7
 10
130.41300000000001
 20
159.452
 30
0.0
 11
130.41300000000001
 21
153.202
 31
0.0
  0
LINE
  5
233
  8
0
 62
     7
 10
132.16200000000001
 20
159.452
 30
0.0
 11
132.16200000000001
 21
153.202
 31
0.0
  0
LINE
  5
234
  8
0
  6
AIGENLINE001
 62
     7
 10
131.28800000000001
 20
160.928
 30
0.0
 11
131.28800000000001
 21
152.012
 31
0.0
  0
LINE
  5
235
  8
0
 62
     7
 10
139.16200000000001
 20
153.202
 30
0.0
 11
139.16200000000001
 21
143.202
 31
0.0
  0
LINE
  5
236
  8
0
 62
     7
 10
164.21899999999999
 20
143.202
 30
0.0
 11
156.10900000000001
 21
143.202
 31
0.0
  0
LINE
  5
237
  8
0
 62
     7
 10
164.21899999999999
 20
153.202
 30
0.0
 11
156.10900000000001
 21
153.202
 31
0.0
  0
LINE
  5
238
  8
0
 62
     7
 10
138.78800000000001
 20
143.202
 30
0.0
 11
130.03700000000001
 21
143.202
 31
0.0
  0
LINE
  5
239
  8
0
 62
     7
 10
129.2939999999999
 20
159.452
 30
0.0
 11
114.36
 21
159.452
 31
0.0
  0
LINE
  5
23A
  8
0
 62
     7
 10
127.967
 20
148.202
 30
0.0
 11
114.36
 21
148.202
 31
0.0
  0
LINE
  5
23B
  8
0
 62
     7
 10
138.78800000000001
 20
153.202
 30
0.0
 11
130.03700000000001
 21
153.202
 31
0.0
  0
LINE
  5
23C
  8
0
 62
     7
 10
138.78800000000001
 20
153.202
 30
0.0
 11
138.78800000000001
 21
143.202
 31
0.0
  0
LINE
  5
23D
  8
0
 62
     7
 10
155.03800000000001
 20
142.22900000000001
 30
0.0
 11
155.03800000000001
 21
135.99700000000001
 31
0.0
  0
LINE
  5
23E
  8
0
 62
     7
 10
130.03700000000001
 20
142.22900000000001
 30
0.0
 11
130.03700000000001
 21
135.99700000000001
 31
0.0
  0
LINE
  5
23F
  8
0
 62
     7
 10
130.03700000000001
 20
153.202
 30
0.0
 11
130.03700000000001
 21
143.202
 31
0.0
  0
ARC
  5
240
  8
0
 62
     7
 10
58.502225000000003
 20
189.57739599999999
 30
0.0
 40
2.3750640000000001
 50
0.00001
 51
89.999980000000008
  0
ARC
  5
241
  8
0
 62
     7
 10
58.502311999999989
 20
189.577482
 30
0.0
 40
2.374978
 50
90.002077999999997
 51
180.00208799999999
  0
LINE
  5
242
  8
0
 62
     7
 10
143.66300000000001
 20
187.203
 30
0.0
 11
108.91200000000001
 21
187.203
 31
0.0
  0
LINE
  5
243
  8
0
 62
     7
 10
143.66300000000001
 20
191.952
 30
0.0
 11
108.91200000000001
 21
191.952
 31
0.0
  0
LINE
  5
244
  8
0
  6
AIGENLINE001
 62
     7
 10
101.28700000000001
 20
172.702
 30
0.0
 11
101.28700000000001
 21
181.952
 31
0.0
  0
LINE
  5
245
  8
0
 62
     7
 10
98.912400000000005
 20
174.41800000000001
 30
0.0
 11
98.912400000000005
 21
181.952
 31
0.0
  0
LINE
  5
246
  8
0
 62
     7
 10
56.127200000000002
 20
179.16800000000001
 30
0.0
 11
60.876899999999999
 21
179.16800000000001
 31
0.0
  0
LINE
  5
247
  8
0
 62
     7
 10
56.127200000000002
 20
174.41800000000001
 30
0.0
 11
60.876899999999999
 21
174.41800000000001
 31
0.0
  0
LINE
  5
248
  8
0
 62
     7
 10
98.912400000000005
 20
179.16800000000001
 30
0.0
 11
103.663
 21
179.16800000000001
 31
0.0
  0
LINE
  5
249
  8
0
 62
     7
 10
98.912400000000005
 20
174.41800000000001
 30
0.0
 11
103.663
 21
174.41800000000001
 31
0.0
  0
LINE
  5
24A
  8
0
 62
     7
 10
103.663
 20
174.41800000000001
 30
0.0
 11
103.663
 21
181.952
 31
0.0
  0
LINE
  5
24B
  8
0
  6
AIGENLINE001
 62
     7
 10
108.913
 20
189.577
 30
0.0
 11
143.66300000000001
 21
189.577
 31
0.0
  0
LINE
  5
24C
  8
0
 62
     7
 10
133.863
 20
130.99700000000001
 30
0.0
 11
133.27199999999999
 21
133.202
 31
0.0
  0
LINE
  5
24D
  8
0
 62
     7
 10
133.27199999999999
 20
133.202
 30
0.0
 11
132.68199999999999
 21
130.99700000000001
 31
0.0
  0
LINE
  5
24E
  8
0
 62
     7
 10
132.68199999999999
 20
130.99700000000001
 30
0.0
 11
133.863
 21
130.99700000000001
 31
0.0
  0
LINE
  5
24F
  8
0
 62
     7
 10
132.69200000000001
 20
55.4437
 30
0.0
 11
133.28299999999999
 21
53.238799999999991
 31
0.0
  0
LINE
  5
250
  8
0
 62
     7
 10
133.28299999999999
 20
53.238799999999991
 30
0.0
 11
133.875
 21
55.4437
 31
0.0
  0
LINE
  5
251
  8
0
 62
     7
 10
133.875
 20
55.4437
 30
0.0
 11
132.69200000000001
 21
55.4437
 31
0.0
  0
LINE
  5
252
  8
0
 62
     7
 10
133.27799999999999
 20
133.18199999999999
 30
0.0
 11
133.27799999999999
 21
53.258800000000001
 31
0.0
  0
LINE
  5
253
  8
0
 62
     7
 10
142.00899999999999
 20
53.201599999999999
 30
0.0
 11
132.39599999999999
 21
53.201599999999999
 31
0.0
  0
ARC
  5
254
  8
0
 62
     7
 10
124.308701
 20
232.648167
 30
0.0
 40
4.0002120000000003
 50
269.99631900000003
 51
359.99628899999999
  0
ARC
  5
255
  8
0
 62
     7
 10
124.308357
 20
232.64799300000001
 30
0.0
 40
4.0000390000000001
 50
180.00124400000001
 51
270.00125400000002
  0
ARC
  5
256
  8
0
 62
     7
 10
124.30844399999999
 20
232.647907
 30
0.0
 40
4.000125999999999
 50
90.0
 51
179.99996999999999
  0
ARC
  5
257
  8
0
 62
     7
 10
124.308615
 20
232.64773500000001
 30
0.0
 40
4.000299
 50
0.002477
 51
90.002447000000004
  0
LINE
  5
258
  8
0
 62
     7
 10
144.34700000000001
 20
223.876
 30
0.0
 11
133.09299999999999
 21
223.876
 31
0.0
  0
LINE
  5
259
  8
0
 62
     7
 10
129.12
 20
228.684
 30
0.0
 11
127.143
 21
229.82599999999999
 31
0.0
  0
LINE
  5
25A
  8
0
 62
     7
 10
127.143
 20
229.82599999999999
 30
0.0
 11
128.28399999999999
 21
227.84899999999999
 31
0.0
  0
LINE
  5
25B
  8
0
 62
     7
 10
128.28399999999999
 20
227.84899999999999
 30
0.0
 11
129.12
 21
228.684
 31
0.0
  0
LINE
  5
25C
  8
0
 62
     7
 10
119.51000000000001
 20
236.624
 30
0.0
 11
121.48699999999999
 21
235.483
 31
0.0
  0
LINE
  5
25D
  8
0
 62
     7
 10
121.48699999999999
 20
235.483
 30
0.0
 11
120.346
 21
237.459
 31
0.0
  0
LINE
  5
25E
  8
0
 62
     7
 10
120.346
 20
237.459
 30
0.0
 11
119.51000000000001
 21
236.624
 31
0.0
  0
LINE
  5
25F
  8
0
 62
     7
 10
118.681
 20
238.28899999999999
 30
0.0
 11
133.09299999999999
 21
223.876
 31
0.0
  0
LINE
  5
260
  8
0
  6
AIGENLINE001
 62
     7
 10
124.342
 20
226.25200000000001
 30
0.0
 11
124.342
 21
239.00200000000001
 31
0.0
  0
LINE
  5
261
  8
0
  6
AIGENLINE001
 62
     7
 10
117.967
 20
232.62700000000001
 30
0.0
 11
130.71700000000001
 21
232.62700000000001
 31
0.0
  0
LINE
  5
262
  8
0
  6
AIGENLINE002
 62
     7
 10
49.927999999999997
 20
155.5379999999999
 30
0.0
 11
51.165500000000002
 21
156.77600000000001
 31
0.0
  0
LINE
  5
263
  8
0
  6
AIGENLINE002
 62
     7
 10
49.927999999999997
 20
155.5379999999999
 30
0.0
 11
54.402200000000001
 21
151.06399999999999
 31
0.0
  0
LINE
  5
264
  8
0
  6
AIGENLINE002
 62
     7
 10
51.165500000000002
 20
156.77600000000001
 30
0.0
 11
55.639699999999998
 21
152.30199999999999
 31
0.0
  0
LINE
  5
265
  8
0
  6
AIGENLINE001
 62
     7
 10
49.670699999999989
 20
157.03299999999999
 30
0.0
 11
58.502200000000002
 21
148.202
 31
0.0
  0
LINE
  5
266
  8
0
  6
AIGENLINE002
 62
     7
 10
65.8386
 20
156.77600000000001
 30
0.0
 11
67.076099999999997
 21
155.53899999999999
 31
0.0
  0
LINE
  5
267
  8
0
  6
AIGENLINE002
 62
     7
 10
65.8386
 20
156.77600000000001
 30
0.0
 11
61.364600000000003
 21
152.30199999999999
 31
0.0
  0
LINE
  5
268
  8
0
  6
AIGENLINE002
 62
     7
 10
67.076099999999997
 20
155.53899999999999
 30
0.0
 11
62.6021
 21
151.065
 31
0.0
  0
LINE
  5
269
  8
0
 62
     7
 10
47.0426
 20
159.661
 30
0.0
 11
49.3506
 21
157.35300000000001
 31
0.0
  0
LINE
  5
26A
  8
0
 62
     7
 10
69.960999999999999
 20
159.66200000000001
 30
0.0
 11
67.653300000000002
 21
157.35400000000001
 31
0.0
  0
LINE
  5
26B
  8
0
  6
AIGENLINE001
 62
     7
 10
67.333799999999997
 20
157.03399999999999
 30
0.0
 11
58.502200000000002
 21
148.202
 31
0.0
  0
LINE
  5
26C
  8
0
 62
     7
 10
57.626999999999988
 20
159.452
 30
0.0
 11
59.377099999999999
 21
159.452
 31
0.0
  0
LINE
  5
26D
  8
0
 62
     7
 10
57.626999999999988
 20
159.452
 30
0.0
 11
57.626999999999988
 21
153.125
 31
0.0
  0
LINE
  5
26E
  8
0
 62
     7
 10
59.377099999999999
 20
159.452
 30
0.0
 11
59.377099999999999
 21
153.125
 31
0.0
  0
LINE
  5
26F
  8
_________2
 62
     7
 10
205.30099999999999
 20
127.411
 30
0.0
 11
183.55000000000001
 21
127.411
 31
0.0
  0
LINE
  5
270
  8
_________2
 62
     7
 10
100.3
 20
-4.0910799999999998
 30
0.0
 11
100.3
 21
-21.071400000000001
 31
0.0
  0
LINE
  5
271
  8
_________2
 62
     7
 10
100.3
 20
275.93099999999998
 30
0.0
 11
100.3
 21
258.911
 31
0.0
  0
LINE
  5
272
  8
_________2
 62
     7
 10
17.049499999999998
 20
127.411
 30
0.0
 11
-4.70052
 21
127.411
 31
0.0
  0
LINE
  5
273
  8
_________2
 62
     7
 10
76.741
 20
29.8047
 30
0.0
 11
74.554699999999997
 21
29.8047
 31
0.0
  0
LINE
  5
274
  8
_________2
 62
     7
 10
77.233699999999999
 20
29.8047
 30
0.0
 11
76.981499999999997
 21
29.8047
 31
0.0
  0
LINE
  5
275
  8
_________2
 62
     7
 10
77.726299999999995
 20
29.8047
 30
0.0
 11
80.651200000000003
 21
29.8047
 31
0.0
  0
LINE
  5
276
  8
_________2
 62
     7
 10
77.233699999999999
 20
29.8047
 30
0.0
 11
77.485500000000002
 21
29.8047
 31
0.0
  0
LINE
  5
277
  8
_________2
 62
     7
 10
70.837100000000007
 20
29.8047
 30
0.0
 11
68.650499999999994
 21
29.8047
 31
0.0
  0
LINE
  5
278
  8
_________2
 62
     7
 10
71.329400000000007
 20
29.8047
 30
0.0
 11
71.077600000000004
 21
29.8047
 31
0.0
  0
LINE
  5
279
  8
_________2
 62
     7
 10
71.329400000000007
 20
30.2974
 30
0.0
 11
71.329400000000007
 21
32.484400000000001
 31
0.0
  0
LINE
  5
27A
  8
_________2
 62
     7
 10
71.329400000000007
 20
29.8047
 30
0.0
 11
71.329400000000007
 21
30.056899999999999
 31
0.0
  0
LINE
  5
27B
  8
_________2
 62
     7
 10
71.822100000000006
 20
29.8047
 30
0.0
 11
74.009
 21
29.8047
 31
0.0
  0
LINE
  5
27C
  8
_________2
 62
     7
 10
71.329400000000007
 20
29.8047
 30
0.0
 11
71.581599999999995
 21
29.8047
 31
0.0
  0
LINE
  5
27D
  8
_________2
 62
     7
 10
71.329400000000007
 20
29.312799999999999
 30
0.0
 11
71.329400000000007
 21
27.125800000000002
 31
0.0
  0
LINE
  5
27E
  8
_________2
 62
     7
 10
71.329400000000007
 20
29.8047
 30
0.0
 11
71.329400000000007
 21
29.5532
 31
0.0
  0
LINE
  5
27F
  8
_________2
 62
     7
 10
75.040499999999994
 20
28.5852
 30
0.0
 11
80.218500000000006
 21
27.720400000000001
 31
0.0
  0
LINE
  5
280
  8
_________2
 62
     7
 10
75.040499999999994
 20
31.0243
 30
0.0
 11
80.218500000000006
 21
31.889700000000001
 31
0.0
  0
LINE
  5
281
  8
_________2
 62
     7
 10
80.218500000000006
 20
27.720400000000001
 30
0.0
 11
80.218500000000006
 21
31.889700000000001
 31
0.0
  0
LINE
  5
282
  8
_________2
 62
     7
 10
75.040499999999994
 20
28.5852
 30
0.0
 11
75.040499999999994
 21
31.0243
 31
0.0
  0
ARC
  5
283
  8
_________2
 62
     7
 10
71.28285600000001
 20
29.757811
 30
0.0
 40
1.2673589999999999
 50
2.122214
 51
87.893958999999995
  0
ARC
  5
284
  8
_________2
 62
     7
 10
71.375959999999992
 20
29.758213000000001
 30
0.0
 40
1.2669559999999991
 50
92.104701000000006
 51
177.89526900000001
  0
ARC
  5
285
  8
_________2
 62
     7
 10
71.376357999999996
 20
29.851671
 30
0.0
 40
1.2673680000000001
 50
182.12203600000001
 51
267.877993
  0
ARC
  5
286
  8
_________2
 62
     7
 10
71.282531999999989
 20
29.851998999999999
 30
0.0
 40
1.267695999999999
 50
272.12015300000002
 51
357.863674
  0
ARC
  5
287
  8
_________2
 62
     7
 10
71.329430000000002
 20
29.804742999999998
 30
0.0
 40
2.0849849999999992
 50
0.00001
 51
89.999980000000008
  0
ARC
  5
288
  8
_________2
 62
     7
 10
71.329603000000006
 20
29.804915000000001
 30
0.0
 40
2.084813
 50
90.004733999999999
 51
180.00474399999999
  0
ARC
  5
289
  8
_________2
 62
     7
 10
71.409106000000008
 20
29.884775999999999
 30
0.0
 40
2.1657950000000001
 50
182.11776599999999
 51
267.89173399999999
  0
ARC
  5
28A
  8
_________2
 62
     7
 10
71.249459000000002
 20
29.885429999999999
 30
0.0
 40
2.1664590000000001
 50
272.11546800000002
 51
357.86560400000002
  0
TEXT
  5
28B
  8
_________2
 62
     7
 10
104.605
 20
1.6794899999999999
 30
0.0
 40
3.0923400000000001
  1
図番
 41
0.5
  0
LINE
  5
28C
  8
_________2
 62
     7
 10
103.55
 20
5.9087199999999989
 30
0.0
 11
183.55099999999999
 21
5.9087199999999989
 31
0.0
  0
TEXT
  5
28D
  8
_________2
 62
     7
 10
104.605
 20
11.6793
 30
0.0
 40
3.0923400000000001
  1
品番
 41
0.5
  0
TEXT
  5
28E
  8
_________2
 62
     7
 10
104.605
 20
31.818100000000001
 30
0.0
 40
3.0923400000000001
  1
名称
 41
0.5
  0
TEXT
  5
28F
  8
_________2
 62
     7
 10
91.845058333333341
 20
26.821999999999999
 30
0.0
 40
3.6545800000000002
  1
mm
 41
0.5
 72
     1
 11
93.367800000000003
 21
26.821999999999999
 31
0.0
  0
TEXT
  5
290
  8
_________2
 62
     7
 10
85.643199999999993
 20
31.818100000000001
 30
0.0
 40
3.0923400000000001
  1
単位
 41
0.5
  0
TEXT
  5
291
  8
_________2
 62
     7
 10
85.643199999999993
 20
19.410799999999998
 30
0.0
 40
3.0923400000000001
  1
尺度
 41
0.5
  0
TEXT
  5
292
  8
_________2
 62
     7
 10
90.548758666666686
 20
13.2179
 30
0.0
 40
3.6545800000000002
  1
1 ： 4
 41
0.5
 72
     1
 11
93.959699999999998
 21
13.2179
 31
0.0
  0
TEXT
  5
293
  8
_________2
 62
     7
 10
135.67859999999999
 20
9.1078600000000005
 30
0.0
 40
3.9357000000000002
  1
VLKV1CDX
 41
0.5
 72
     1
 11
143.55000000000001
 21
9.1078600000000005
 31
0.0
  0
TEXT
  5
294
  8
_________2
 62
     7
 10
135.67859999999999
 20
-0.8926299999999999
 30
0.0
 40
3.9357000000000002
  1
VLKV1CDX
 41
0.5
 72
     1
 11
143.55000000000001
 21
-0.8926299999999999
 31
0.0
  0
TEXT
  5
295
  8
_________2
 62
     7
 10
24.5868
 20
0.707283
 30
0.0
 40
3.9357000000000002
  1
（社）日本水道協会認証品
 41
0.5
  0
TEXT
  5
296
  8
_________2
 62
     7
 10
109.179
 20
24.2257
 30
0.0
 40
3.9357000000000002
  1
ボラ　キッチン用湯水混合栓
 41
0.5
  0
TEXT
  5
297
  8
_________2
 62
     7
 10
39.364390666666672
 20
13.603
 30
0.0
 40
3.6545800000000002
  1
平井
 41
0.5
 72
     1
 11
41.313499999999998
 21
13.603
 31
0.0
  0
TEXT
  5
298
  8
_________2
 62
     7
 10
20.851000333333339
 20
13.603
 30
0.0
 40
3.6545800000000002
  1
福田
 41
0.5
 72
     1
 11
22.7392
 21
13.603
 31
0.0
  0
TEXT
  5
299
  8
_________2
 62
     7
 10
67.785399999999996
 20
13.2179
 30
0.0
 40
3.6545800000000002
  1
16.11.21
 41
0.5
  0
TEXT
  5
29A
  8
_________2
 62
     7
 10
66.593100000000007
 20
19.410799999999998
 30
0.0
 40
3.0923400000000001
  1
日付
 41
0.5
  0
TEXT
  5
29B
  8
_________2
 62
     7
 10
29.639399999999998
 20
19.410799999999998
 30
0.0
 40
3.0923400000000001
  1
検図
 41
0.5
  0
TEXT
  5
29C
  8
_________2
 62
     7
 10
18.021100000000001
 20
5.21143
 30
0.0
 40
3.0923400000000001
  1
備考
 41
0.5
  0
TEXT
  5
29D
  8
_________2
 62
     7
 10
18.021100000000001
 20
19.410799999999998
 30
0.0
 40
3.0923400000000001
  1
製図
 41
0.5
  0
TEXT
  5
29E
  8
_________2
 62
     7
 10
23.788465333333338
 20
27.936800000000002
 30
0.0
 40
4.4979399999999989
  1
セラトレーディング株式会社
 41
0.5
 72
     1
 11
41.180500000000002
 21
27.936800000000002
 31
0.0
  0
LINE
  5
29F
  8
_________2
 62
     7
 10
183.55099999999999
 20
-4.0910799999999998
 30
0.0
 11
17.049499999999998
 21
-4.0910799999999998
 31
0.0
  0
LINE
  5
2A0
  8
_________2
 62
     7
 10
17.049499999999998
 20
-4.0910799999999998
 30
0.0
 11
17.049499999999998
 21
258.911
 31
0.0
  0
LINE
  5
2A1
  8
_________2
 62
     7
 10
17.049499999999998
 20
258.911
 30
0.0
 11
183.55099999999999
 21
258.911
 31
0.0
  0
LINE
  5
2A2
  8
_________2
 62
     7
 10
183.55099999999999
 20
258.911
 30
0.0
 11
183.55099999999999
 21
-4.0910799999999998
 31
0.0
  0
LINE
  5
2A3
  8
_________2
 62
     7
 10
65.549599999999998
 20
9.4089600000000004
 30
0.0
 11
65.549599999999998
 21
35.908799999999999
 31
0.0
  0
LINE
  5
2A4
  8
_________2
 62
     7
 10
84.549700000000016
 20
9.4089600000000004
 30
0.0
 11
84.549700000000016
 21
35.908799999999999
 31
0.0
  0
LINE
  5
2A5
  8
_________2
 62
     7
 10
103.55
 20
-4.0910799999999998
 30
0.0
 11
103.55
 21
35.908799999999999
 31
0.0
  0
LINE
  5
2A6
  8
_________2
 62
     7
 10
28.549299999999999
 20
9.4089600000000004
 30
0.0
 11
28.549299999999999
 21
23.409199999999998
 31
0.0
  0
LINE
  5
2A7
  8
_________2
 62
     7
 10
17.049499999999998
 20
9.4089600000000004
 30
0.0
 11
103.55
 21
9.4089600000000004
 31
0.0
  0
LINE
  5
2A8
  8
_________2
 62
     7
 10
17.049499999999998
 20
23.409199999999998
 30
0.0
 11
103.55
 21
23.409199999999998
 31
0.0
  0
LINE
  5
2A9
  8
_________2
 62
     7
 10
103.55
 20
15.9085
 30
0.0
 11
183.55099999999999
 21
15.9085
 31
0.0
  0
LINE
  5
2AA
  8
_________2
 62
     7
 10
17.049499999999998
 20
35.908799999999999
 30
0.0
 11
183.55099999999999
 21
35.908799999999999
 31
0.0
  0
TEXT
  5
2AB
  8
_________2
 62
     7
 10
120.126
 20
40.614499999999992
 30
0.0
 40
4.2168199999999993
  1
（注）：色番号はカタログを参照ください
 41
0.5
  0
ENDSEC
  0
EOF
