  0
SECTION
  2
HEADER
  9
$ACADVER
  1
AC1009
  9
$INSBASE
 10
0.0
 20
0.0
 30
0.0
  9
$EXTMIN
 10
-4.7008599999999987
 20
-21.071400000000001
 30
0.0
  9
$EXTMAX
 10
205.2999999999999
 20
275.93099999999993
 30
0.0
  9
$LIMMIN
 10
0.0
 20
0.0
  9
$LIMMAX
 10
12.0
 20
9.0
  9
$ORTHOMODE
 70
     0
  9
$REGENMODE
 70
     1
  9
$FILLMODE
 70
     1
  9
$QTEXTMODE
 70
     0
  9
$MIRRTEXT
 70
     1
  9
$DRAGMODE
 70
     2
  9
$LTSCALE
 40
1.0
  9
$OSMODE
 70
    37
  9
$ATTMODE
 70
     1
  9
$TEXTSIZE
 40
0.0
  9
$TRACEWID
 40
0.05
  9
$TEXTSTYLE
  7
STANDARD
  9
$CLAYER
  8
0
  9
$CELTYPE
  6
CONTINUOUS
  9
$CECOLOR
 62
   256
  9
$DIMSCALE
 40
1.0
  9
$DIMASZ
 40
0.18
  9
$DIMEXO
 40
0.0625
  9
$DIMDLI
 40
0.38
  9
$DIMRND
 40
0.0
  9
$DIMDLE
 40
0.0
  9
$DIMEXE
 40
0.18
  9
$DIMTP
 40
0.0
  9
$DIMTM
 40
0.0
  9
$DIMTXT
 40
0.18
  9
$DIMCEN
 40
0.09
  9
$DIMTSZ
 40
0.0
  9
$DIMTOL
 70
     0
  9
$DIMLIM
 70
     0
  9
$DIMTIH
 70
     1
  9
$DIMTOH
 70
     1
  9
$DIMSE1
 70
     0
  9
$DIMSE2
 70
     0
  9
$DIMTAD
 70
     0
  9
$DIMZIN
 70
     0
  9
$DIMBLK
  1

  9
$DIMASO
 70
     1
  9
$DIMSHO
 70
     1
  9
$DIMPOST
  1

  9
$DIMAPOST
  1

  9
$DIMALT
 70
     0
  9
$DIMALTD
 70
     2
  9
$DIMALTF
 40
25.399999999999999
  9
$DIMLFAC
 40
1.0
  9
$DIMTOFL
 70
     0
  9
$DIMTVP
 40
0.0
  9
$DIMTIX
 70
     0
  9
$DIMSOXD
 70
     0
  9
$DIMSAH
 70
     0
  9
$DIMBLK1
  1

  9
$DIMBLK2
  1

  9
$DIMSTYLE
  2
STANDARD
  9
$DIMCLRD
 70
     0
  9
$DIMCLRE
 70
     0
  9
$DIMCLRT
 70
     0
  9
$DIMTFAC
 40
1.0
  9
$DIMGAP
 40
0.09
  9
$LUNITS
 70
     2
  9
$LUPREC
 70
     4
  9
$SKETCHINC
 40
0.1
  9
$FILLETRAD
 40
0.0
  9
$AUNITS
 70
     0
  9
$AUPREC
 70
     0
  9
$MENU
  1
.
  9
$ELEVATION
 40
0.0
  9
$PELEVATION
 40
0.0
  9
$THICKNESS
 40
0.0
  9
$LIMCHECK
 70
     0
  9
$BLIPMODE
 70
     0
  9
$CHAMFERA
 40
0.0
  9
$CHAMFERB
 40
0.0
  9
$SKPOLY
 70
     0
  9
$TDCREATE
 40
2444972.375
  9
$TDUPDATE
 40
2456449.248708229
  9
$TDINDWG
 40
0.0000058449
  9
$TDUSRTIMER
 40
0.0000058449
  9
$USRTIMER
 70
     1
  9
$ANGBASE
 50
0.0
  9
$ANGDIR
 70
     0
  9
$PDMODE
 70
     0
  9
$PDSIZE
 40
0.0
  9
$PLINEWID
 40
0.0
  9
$COORDS
 70
     1
  9
$SPLFRAME
 70
     0
  9
$SPLINETYPE
 70
     6
  9
$SPLINESEGS
 70
     8
  9
$ATTDIA
 70
     0
  9
$ATTREQ
 70
     1
  9
$HANDLING
 70
     1
  9
$HANDSEED
  5
1C9
  9
$SURFTAB1
 70
     6
  9
$SURFTAB2
 70
     6
  9
$SURFTYPE
 70
     6
  9
$SURFU
 70
     6
  9
$SURFV
 70
     6
  9
$UCSNAME
  2

  9
$UCSORG
 10
0.0
 20
0.0
 30
0.0
  9
$UCSXDIR
 10
1.0
 20
0.0
 30
0.0
  9
$UCSYDIR
 10
0.0
 20
1.0
 30
0.0
  9
$PUCSNAME
  2

  9
$PUCSORG
 10
0.0
 20
0.0
 30
0.0
  9
$PUCSXDIR
 10
1.0
 20
0.0
 30
0.0
  9
$PUCSYDIR
 10
0.0
 20
1.0
 30
0.0
  9
$USERI1
 70
     0
  9
$USERI2
 70
     0
  9
$USERI3
 70
     0
  9
$USERI4
 70
     0
  9
$USERI5
 70
     0
  9
$USERR1
 40
0.0
  9
$USERR2
 40
0.0
  9
$USERR3
 40
0.0
  9
$USERR4
 40
0.0
  9
$USERR5
 40
0.0
  9
$WORLDVIEW
 70
     1
  9
$SHADEDGE
 70
     3
  9
$SHADEDIF
 70
    70
  9
$TILEMODE
 70
     1
  9
$MAXACTVP
 70
    48
  9
$PLIMCHECK
 70
     0
  9
$PEXTMIN
 10
1.0000000000000000E+020
 20
1.0000000000000000E+020
 30
1.0000000000000000E+020
  9
$PEXTMAX
 10
-1.0000000000000000E+020
 20
-1.0000000000000000E+020
 30
-1.0000000000000000E+020
  9
$PLIMMIN
 10
0.0
 20
0.0
  9
$PLIMMAX
 10
12.0
 20
9.0
  9
$UNITMODE
 70
     0
  9
$VISRETAIN
 70
     1
  9
$PLINEGEN
 70
     0
  9
$PSLTSCALE
 70
     1
  0
ENDSEC
  0
SECTION
  2
TABLES
  0
TABLE
  2
VPORT
 70
     2
  0
VPORT
  2
*ACTIVE
 70
     0
 10
0.0
 20
0.0
 11
1.0
 21
1.0
 12
209.69233876002511
 22
127.4297999999999
 13
0.0
 23
0.0
 14
1.0
 24
1.0
 15
0.0
 25
0.0
 16
0.0
 26
0.0
 36
1.0
 17
0.0
 27
0.0
 37
0.0
 40
299.37525539280949
 41
2.2894736842105261
 42
50.0
 43
0.0
 44
0.0
 50
0.0
 51
0.0
 71
     0
 72
   100
 73
     1
 74
     1
 75
     0
 76
     0
 77
     0
 78
     0
  0
ENDTAB
  0
TABLE
  2
LTYPE
 70
     3
  0
LTYPE
  2
CONTINUOUS
 70
     0
  3
Solid line
 72
    65
 73
     0
 40
0.0
  0
LTYPE
  2
AIGENLINE001
 70
     0
  3
generate AI->DXF Converter
 72
    65
 73
     4
 40
5.8561449999999988
 49
3.5278
 49
-0.776115
 49
0.776115
 49
-0.776115
  0
LTYPE
  2
AIGENLINE002
 70
     0
  3
generate AI->DXF Converter
 72
    65
 73
     6
 40
7.4083750000000004
 49
3.5278
 49
-0.776115
 49
0.776115
 49
-0.776115
 49
0.776115
 49
-0.776115
  0
ENDTAB
  0
TABLE
  2
LAYER
 70
     2
  0
LAYER
  2
0
 70
     0
 62
     7
  6
CONTINUOUS
  0
LAYER
  2
_________2
 70
     0
 62
     7
  6
CONTINUOUS
  0
ENDTAB
  0
TABLE
  2
STYLE
 70
     1
  0
STYLE
  2
STANDARD
 70
     0
 40
0.0
 41
0.0
 50
0.0
 71
     0
 42
0.0
  3
TXT
  4
EXTFONT.SHX
  0
ENDTAB
  0
TABLE
  2
VIEW
 70
     0
  0
ENDTAB
  0
TABLE
  2
UCS
 70
     0
  0
ENDTAB
  0
TABLE
  2
APPID
 70
     1
  0
APPID
  2
ACAD
 70
     0
  0
ENDTAB
  0
TABLE
  2
DIMSTYLE
 70
     1
  0
DIMSTYLE
  2
STANDARD
 70
     0
  3

  4

  5

  6

  7

 40
1.0
 41
0.18
 42
0.0625
 43
0.38
 44
0.18
 45
0.0
 46
0.0
 47
0.0
 48
0.0
140
0.18
141
0.09
142
0.0
143
25.399999999999999
144
1.0
145
0.0
146
1.0
147
0.09
 71
     0
 72
     0
 73
     1
 74
     1
 75
     0
 76
     0
 77
     0
 78
     0
170
     0
171
     2
172
     0
173
     0
174
     0
175
     0
176
     0
177
     0
178
     0
  0
ENDTAB
  0
ENDSEC
  0
SECTION
  2
BLOCKS
  0
BLOCK
  8
0
  2
$MODEL_SPACE
 70
     0
 10
0.0
 20
0.0
 30
0.0
  3
$MODEL_SPACE
  1

  0
ENDBLK
  5
1A
  8
0
  0
BLOCK
 67
     1
  8
0
  2
$PAPER_SPACE
 70
     0
 10
0.0
 20
0.0
 30
0.0
  3
$PAPER_SPACE
  1

  0
ENDBLK
  5
17
 67
     1
  8
0
  0
ENDSEC
  0
SECTION
  2
ENTITIES
  0
TEXT
  5
23
  8
0
 62
     7
 10
56.729700000000001
 20
180.57900000000001
 30
0.0
 40
3.0923400000000001
  1
360%%d：スパウト回転角度
 41
0.5
  0
TEXT
  5
24
  8
0
 62
     7
 10
56.048099999999998
 20
108.1779999999999
 30
0.0
 40
3.0923400000000001
  1
閉
 41
0.5
  0
TEXT
  5
25
  8
0
 62
     7
 10
33.77688599999999
 20
92.773599999999988
 30
0.0
 40
3.0923400000000001
  1
開
 41
0.5
 72
     2
 11
35.116900000000001
 21
92.773599999999988
 31
0.0
  0
TEXT
  5
26
  8
0
 62
     7
 10
146.43624199999999
 20
223.25899999999999
 30
0.0
 40
3.0923400000000001
  1
水栓金具取付穴
 41
0.5
 72
     1
 11
152.7239999999999
 21
223.25899999999999
 31
0.0
  0
TEXT
  5
27
  8
0
 62
     7
 10
142.313525
 20
78.884200000000007
 30
0.0
 40
3.0923400000000001
  1
55
 41
0.5
 72
     1
 11
143.602
 21
78.884200000000007
 31
0.0
  0
TEXT
  5
28
  8
0
 62
     7
 10
160.4415249999999
 20
78.884200000000007
 30
0.0
 40
3.0923400000000001
  1
45
 41
0.5
 72
     1
 11
161.72999999999999
 21
78.884200000000007
 31
0.0
  0
TEXT
  5
29
  8
0
 62
     7
 10
156.04737249999999
 20
108.6579999999999
 30
0.0
 40
3.0923400000000001
  1
30
 41
0.5
 72
     1
 11
157.20699999999999
 21
108.6579999999999
 31
0.0
  0
TEXT
  5
2A
  8
0
 62
     7
 10
125.6079999999999
 20
156.06827000000001
 30
0.0
 40
3.0923400000000001
  1
%%c19
 50
90.0
 41
0.5
 72
     2
 11
125.6079999999999
 21
159.67599999999999
 31
0.0
  0
TEXT
  5
2B
  8
0
 62
     7
 10
127.01913499999991
 20
120.3279999999999
 30
0.0
 40
3.0923400000000001
  1
200
 41
0.5
 72
     1
 11
128.82299999999989
 21
120.3279999999999
 31
0.0
  0
TEXT
  5
2C
  8
0
 62
     7
 10
79.959400000000002
 20
110.35844
 30
0.0
 40
3.0923400000000001
  1
235
 50
90.0
 41
0.5
 72
     1
 11
79.959400000000002
 21
112.42
 31
0.0
  0
TEXT
  5
2D
  8
0
 62
     7
 10
174.76400000000001
 20
92.214387500000001
 30
0.0
 40
3.0923400000000001
  1
%%c40
 50
90.0
 41
0.5
 72
     1
 11
174.76400000000001
 21
94.147099999999995
 31
0.0
  0
TEXT
  5
2E
  8
0
 62
     7
 10
123.6839999999999
 20
100.1585249999999
 30
0.0
 40
3.0923400000000001
  1
45
 50
90.0
 41
0.5
 72
     1
 11
123.6839999999999
 21
101.4469999999999
 31
0.0
  0
TEXT
  5
2F
  8
0
 62
     7
 10
123.6839999999999
 20
82.580872499999998
 30
0.0
 40
3.0923400000000001
  1
60
 50
90.0
 41
0.5
 72
     1
 11
123.6839999999999
 21
83.740499999999997
 31
0.0
  0
TEXT
  5
30
  8
0
 62
     7
 10
39.148800000000001
 20
63.565824999999997
 30
0.0
 40
3.0923400000000001
  1
55
 50
90.0
 41
0.5
 72
     1
 11
39.148800000000001
 21
64.854299999999995
 31
0.0
  0
TEXT
  5
31
  8
0
 62
     7
 10
87.485499999999988
 20
98.400134999999992
 30
0.0
 40
3.0923400000000001
  1
165
 50
90.0
 41
0.5
 72
     1
 11
87.485499999999988
 21
100.20399999999999
 31
0.0
  0
TEXT
  5
32
  8
0
 62
     7
 10
39.567300000000003
 20
79.972200000000001
 30
0.0
 40
3.0923400000000001
  1
%%c37
 41
0.5
  0
TEXT
  5
33
  8
0
 62
     7
 10
164.6871359999999
 20
230.6389999999999
 30
0.0
 40
3.0923400000000001
  1
%%c25～28
 41
0.5
 72
     2
 11
173.7579999999999
 21
230.6389999999999
 31
0.0
  0
TEXT
  5
34
  8
0
 62
     7
 10
58.098897999999991
 20
49.703099999999999
 30
0.0
 40
3.0923400000000001
  1
G 1/2
 41
0.5
 72
     2
 11
64.180499999999995
 21
49.703099999999999
 31
0.0
  0
TEXT
  5
35
  8
0
 62
     7
 10
68.197100000000006
 20
76.449545000000001
 30
0.0
 40
3.0923400000000001
  1
max.20
 50
90.0
 41
0.5
 72
     2
 11
68.197100000000006
 21
83.922700000000006
 31
0.0
  0
LINE
  5
36
  8
0
 62
     7
 10
159.51599999999991
 20
63.31369999999999
 30
0.0
 11
145.8489999999999
 21
63.31369999999999
 31
0.0
  0
LINE
  5
37
  8
0
 62
     7
 10
145.8489999999999
 20
63.31369999999999
 30
0.0
 11
145.8489999999999
 21
64.980400000000003
 31
0.0
  0
LINE
  5
38
  8
0
 62
     7
 10
145.8489999999999
 20
64.980400000000003
 30
0.0
 11
159.51599999999991
 21
64.980400000000003
 31
0.0
  0
LINE
  5
39
  8
0
 62
     7
 10
159.51599999999991
 20
64.980400000000003
 30
0.0
 11
159.51599999999991
 21
63.31369999999999
 31
0.0
  0
LINE
  5
3A
  8
0
 62
     7
 10
159.51599999999991
 20
66.647199999999984
 30
0.0
 11
145.8489999999999
 21
66.647199999999984
 31
0.0
  0
LINE
  5
3B
  8
0
 62
     7
 10
145.8489999999999
 20
66.647199999999984
 30
0.0
 11
145.8489999999999
 21
67.147400000000005
 31
0.0
  0
LINE
  5
3C
  8
0
 62
     7
 10
145.8489999999999
 20
67.147400000000005
 30
0.0
 11
159.51599999999991
 21
67.147400000000005
 31
0.0
  0
LINE
  5
3D
  8
0
 62
     7
 10
159.51599999999991
 20
67.147400000000005
 30
0.0
 11
159.51599999999991
 21
66.647199999999984
 31
0.0
  0
LINE
  5
3E
  8
0
 62
     7
 10
146.34899999999999
 20
74.147499999999994
 30
0.0
 11
159.01599999999999
 21
74.147499999999994
 31
0.0
  0
LINE
  5
3F
  8
0
 62
     7
 10
159.01599999999999
 20
73.811599999999999
 30
0.0
 11
157.01900000000001
 21
73.811599999999999
 31
0.0
  0
LINE
  5
40
  8
0
 62
     7
 10
157.01900000000001
 20
73.811599999999999
 30
0.0
 11
146.34899999999999
 21
73.811599999999999
 31
0.0
  0
LINE
  5
41
  8
0
 62
     7
 10
146.34899999999999
 20
73.811599999999999
 30
0.0
 11
146.34899999999999
 21
74.147499999999994
 31
0.0
  0
LINE
  5
42
  8
0
 62
     7
 10
146.34899999999999
 20
74.147499999999994
 30
0.0
 11
159.01599999999999
 21
74.147499999999994
 31
0.0
  0
LINE
  5
43
  8
0
 62
     7
 10
159.01599999999999
 20
74.147499999999994
 30
0.0
 11
159.01599999999999
 21
73.811599999999999
 31
0.0
  0
LINE
  5
44
  8
0
 62
     7
 10
155.89099999999999
 20
55.813999999999993
 30
0.0
 11
156.2239999999999
 21
56.147100000000002
 31
0.0
  0
LINE
  5
45
  8
0
 62
     7
 10
149.47499999999991
 20
55.813999999999993
 30
0.0
 11
149.14099999999991
 21
56.147100000000002
 31
0.0
  0
LINE
  5
46
  8
0
 62
     7
 10
155.89099999999999
 20
55.813999999999993
 30
0.0
 11
149.47499999999991
 21
55.813999999999993
 31
0.0
  0
LINE
  5
47
  8
0
 62
     7
 10
156.2239999999999
 20
56.147100000000002
 30
0.0
 11
149.14099999999991
 21
56.147100000000002
 31
0.0
  0
LINE
  5
48
  8
0
 62
     7
 10
155.89099999999999
 20
55.813999999999993
 30
0.0
 11
155.89099999999999
 21
63.31369999999999
 31
0.0
  0
LINE
  5
49
  8
0
 62
     7
 10
156.2239999999999
 20
56.147100000000002
 30
0.0
 11
156.2239999999999
 21
63.31369999999999
 31
0.0
  0
LINE
  5
4A
  8
0
 62
     7
 10
149.47499999999991
 20
55.813999999999993
 30
0.0
 11
149.47499999999991
 21
63.31369999999999
 31
0.0
  0
LINE
  5
4B
  8
0
 62
     7
 10
149.14099999999991
 20
56.147100000000002
 30
0.0
 11
149.14099999999991
 21
63.31369999999999
 31
0.0
  0
LINE
  5
4C
  8
0
 62
     7
 10
155.89099999999999
 20
64.980400000000003
 30
0.0
 11
155.89099999999999
 21
66.647199999999984
 31
0.0
  0
LINE
  5
4D
  8
0
 62
     7
 10
156.2239999999999
 20
64.980400000000003
 30
0.0
 11
156.2239999999999
 21
66.647199999999984
 31
0.0
  0
LINE
  5
4E
  8
0
 62
     7
 10
149.47499999999991
 20
64.980400000000003
 30
0.0
 11
149.47499999999991
 21
66.647199999999984
 31
0.0
  0
LINE
  5
4F
  8
0
 62
     7
 10
149.14099999999991
 20
64.980400000000003
 30
0.0
 11
149.14099999999991
 21
66.647199999999984
 31
0.0
  0
LINE
  5
50
  8
0
 62
     7
 10
155.89099999999999
 20
67.147400000000005
 30
0.0
 11
155.89099999999999
 21
73.813999999999993
 31
0.0
  0
LINE
  5
51
  8
0
 62
     7
 10
156.2239999999999
 20
67.147400000000005
 30
0.0
 11
156.2239999999999
 21
73.813999999999993
 31
0.0
  0
LINE
  5
52
  8
0
 62
     7
 10
149.47499999999991
 20
67.147400000000005
 30
0.0
 11
149.47499999999991
 21
73.813999999999993
 31
0.0
  0
LINE
  5
53
  8
0
 62
     7
 10
149.14099999999991
 20
67.147400000000005
 30
0.0
 11
149.14099999999991
 21
73.813999999999993
 31
0.0
  0
LINE
  5
54
  8
0
 62
     7
 10
153.51599999999991
 20
63.313999999999993
 30
0.0
 11
153.51599999999991
 21
61.647300000000001
 31
0.0
  0
LINE
  5
55
  8
0
 62
     7
 10
153.51599999999991
 20
66.647199999999984
 30
0.0
 11
153.51599999999991
 21
64.980400000000003
 31
0.0
  0
LINE
  5
56
  8
0
 62
     7
 10
151.84999999999991
 20
66.647199999999984
 30
0.0
 11
151.84999999999991
 21
64.980400000000003
 31
0.0
  0
LINE
  5
57
  8
0
 62
     7
 10
151.84999999999991
 20
63.313999999999993
 30
0.0
 11
151.84999999999991
 21
61.647300000000001
 31
0.0
  0
LINE
  5
58
  8
0
 62
     7
 10
154.08299999999991
 20
59.980499999999999
 30
0.0
 11
151.2829999999999
 21
59.980499999999999
 31
0.0
  0
LINE
  5
59
  8
0
 62
     7
 10
151.2829999999999
 20
59.980499999999999
 30
0.0
 11
151.2829999999999
 21
61.647300000000001
 31
0.0
  0
LINE
  5
5A
  8
0
 62
     7
 10
151.2829999999999
 20
61.647300000000001
 30
0.0
 11
154.08299999999991
 21
61.647300000000001
 31
0.0
  0
LINE
  5
5B
  8
0
 62
     7
 10
154.08299999999991
 20
61.647300000000001
 30
0.0
 11
154.08299999999991
 21
59.980499999999999
 31
0.0
  0
LINE
  5
5C
  8
0
 62
     7
 10
58.800899999999999
 20
63.31369999999999
 30
0.0
 11
45.134099999999989
 21
63.31369999999999
 31
0.0
  0
LINE
  5
5D
  8
0
 62
     7
 10
45.134099999999989
 20
63.31369999999999
 30
0.0
 11
45.134099999999989
 21
64.980400000000003
 31
0.0
  0
LINE
  5
5E
  8
0
 62
     7
 10
45.134099999999989
 20
64.980400000000003
 30
0.0
 11
58.800899999999999
 21
64.980400000000003
 31
0.0
  0
LINE
  5
5F
  8
0
 62
     7
 10
58.800899999999999
 20
64.980400000000003
 30
0.0
 11
58.800899999999999
 21
63.31369999999999
 31
0.0
  0
LINE
  5
60
  8
0
 62
     7
 10
58.800899999999999
 20
66.647199999999984
 30
0.0
 11
45.134099999999989
 21
66.647199999999984
 31
0.0
  0
LINE
  5
61
  8
0
 62
     7
 10
45.134099999999989
 20
66.647199999999984
 30
0.0
 11
45.134099999999989
 21
67.147400000000005
 31
0.0
  0
LINE
  5
62
  8
0
 62
     7
 10
45.134099999999989
 20
67.147400000000005
 30
0.0
 11
58.800899999999999
 21
67.147400000000005
 31
0.0
  0
LINE
  5
63
  8
0
 62
     7
 10
58.800899999999999
 20
67.147400000000005
 30
0.0
 11
58.800899999999999
 21
66.647199999999984
 31
0.0
  0
LINE
  5
64
  8
0
 62
     7
 10
58.301000000000002
 20
73.811599999999999
 30
0.0
 11
56.304200000000002
 21
73.811599999999999
 31
0.0
  0
LINE
  5
65
  8
0
 62
     7
 10
56.304200000000002
 20
73.811599999999999
 30
0.0
 11
45.634199999999993
 21
73.811599999999999
 31
0.0
  0
LINE
  5
66
  8
0
 62
     7
 10
45.634199999999993
 20
73.811599999999999
 30
0.0
 11
45.634199999999993
 21
74.147499999999994
 31
0.0
  0
LINE
  5
67
  8
0
 62
     7
 10
45.634199999999993
 20
74.147499999999994
 30
0.0
 11
58.301000000000002
 21
74.147499999999994
 31
0.0
  0
LINE
  5
68
  8
0
 62
     7
 10
58.301000000000002
 20
74.147499999999994
 30
0.0
 11
58.301000000000002
 21
73.811599999999999
 31
0.0
  0
LINE
  5
69
  8
0
 62
     7
 10
55.176000000000002
 20
55.813999999999993
 30
0.0
 11
55.50930000000001
 21
56.147100000000002
 31
0.0
  0
LINE
  5
6A
  8
0
 62
     7
 10
48.759300000000003
 20
55.813999999999993
 30
0.0
 11
48.425899999999999
 21
56.147100000000002
 31
0.0
  0
LINE
  5
6B
  8
0
 62
     7
 10
55.176000000000002
 20
55.813999999999993
 30
0.0
 11
48.759300000000003
 21
55.813999999999993
 31
0.0
  0
LINE
  5
6C
  8
0
 62
     7
 10
55.50930000000001
 20
56.147100000000002
 30
0.0
 11
48.425899999999999
 21
56.147100000000002
 31
0.0
  0
LINE
  5
6D
  8
0
 62
     7
 10
55.176000000000002
 20
55.813999999999993
 30
0.0
 11
55.176000000000002
 21
63.31369999999999
 31
0.0
  0
LINE
  5
6E
  8
0
 62
     7
 10
55.50930000000001
 20
56.147100000000002
 30
0.0
 11
55.50930000000001
 21
63.31369999999999
 31
0.0
  0
LINE
  5
6F
  8
0
 62
     7
 10
48.759300000000003
 20
55.813999999999993
 30
0.0
 11
48.759300000000003
 21
63.31369999999999
 31
0.0
  0
LINE
  5
70
  8
0
 62
     7
 10
48.425899999999999
 20
56.147100000000002
 30
0.0
 11
48.425899999999999
 21
63.31369999999999
 31
0.0
  0
LINE
  5
71
  8
0
 62
     7
 10
55.176000000000002
 20
64.980400000000003
 30
0.0
 11
55.176000000000002
 21
66.647199999999984
 31
0.0
  0
LINE
  5
72
  8
0
 62
     7
 10
55.50930000000001
 20
64.980400000000003
 30
0.0
 11
55.50930000000001
 21
66.647199999999984
 31
0.0
  0
LINE
  5
73
  8
0
 62
     7
 10
48.759300000000003
 20
64.980400000000003
 30
0.0
 11
48.759300000000003
 21
66.647199999999984
 31
0.0
  0
LINE
  5
74
  8
0
 62
     7
 10
48.425899999999999
 20
64.980400000000003
 30
0.0
 11
48.425899999999999
 21
66.647199999999984
 31
0.0
  0
LINE
  5
75
  8
0
 62
     7
 10
55.176000000000002
 20
67.147400000000005
 30
0.0
 11
55.176000000000002
 21
73.813999999999993
 31
0.0
  0
LINE
  5
76
  8
0
 62
     7
 10
55.50930000000001
 20
67.147400000000005
 30
0.0
 11
55.50930000000001
 21
73.813999999999993
 31
0.0
  0
LINE
  5
77
  8
0
 62
     7
 10
48.759300000000003
 20
67.147400000000005
 30
0.0
 11
48.759300000000003
 21
73.813999999999993
 31
0.0
  0
LINE
  5
78
  8
0
 62
     7
 10
48.425899999999999
 20
67.147400000000005
 30
0.0
 11
48.425899999999999
 21
73.813999999999993
 31
0.0
  0
LINE
  5
79
  8
0
 62
     7
 10
56.467500000000001
 20
63.313999999999993
 30
0.0
 11
56.467500000000001
 21
61.647300000000001
 31
0.0
  0
LINE
  5
7A
  8
0
 62
     7
 10
56.467500000000001
 20
66.647199999999984
 30
0.0
 11
56.467500000000001
 21
64.980400000000003
 31
0.0
  0
LINE
  5
7B
  8
0
 62
     7
 10
58.134300000000003
 20
66.647199999999984
 30
0.0
 11
58.134300000000003
 21
64.980400000000003
 31
0.0
  0
LINE
  5
7C
  8
0
 62
     7
 10
58.134300000000003
 20
63.313999999999993
 30
0.0
 11
58.134300000000003
 21
61.647300000000001
 31
0.0
  0
LINE
  5
7D
  8
0
 62
     7
 10
55.900799999999997
 20
59.980499999999999
 30
0.0
 11
58.701000000000001
 21
59.980499999999999
 31
0.0
  0
LINE
  5
7E
  8
0
 62
     7
 10
58.701000000000001
 20
59.980499999999999
 30
0.0
 11
58.701000000000001
 21
61.647300000000001
 31
0.0
  0
LINE
  5
7F
  8
0
 62
     7
 10
58.701000000000001
 20
61.647300000000001
 30
0.0
 11
55.900799999999997
 21
61.647300000000001
 31
0.0
  0
LINE
  5
80
  8
0
 62
     7
 10
55.900799999999997
 20
61.647300000000001
 30
0.0
 11
55.900799999999997
 21
59.980499999999999
 31
0.0
  0
LINE
  5
81
  8
0
 62
     7
 10
47.467500000000001
 20
63.313999999999993
 30
0.0
 11
47.467500000000001
 21
61.647300000000001
 31
0.0
  0
LINE
  5
82
  8
0
  6
AIGENLINE001
 62
     7
 10
57.300899999999999
 20
68.150599999999983
 30
0.0
 11
57.300899999999999
 21
59.118200000000002
 31
0.0
  0
LINE
  5
83
  8
0
  6
AIGENLINE001
 62
     7
 10
46.634099999999989
 20
68.150599999999983
 30
0.0
 11
46.634099999999989
 21
59.118200000000002
 31
0.0
  0
LINE
  5
84
  8
0
 62
     7
 10
47.467500000000001
 20
66.647199999999984
 30
0.0
 11
47.467500000000001
 21
64.980400000000003
 31
0.0
  0
LINE
  5
85
  8
0
 62
     7
 10
45.800899999999999
 20
66.647199999999984
 30
0.0
 11
45.800899999999999
 21
64.980400000000003
 31
0.0
  0
LINE
  5
86
  8
0
 62
     7
 10
45.800899999999999
 20
63.313999999999993
 30
0.0
 11
45.800899999999999
 21
61.647300000000001
 31
0.0
  0
LINE
  5
87
  8
0
 62
     7
 10
48.034199999999998
 20
59.980499999999999
 30
0.0
 11
45.234200000000001
 21
59.980499999999999
 31
0.0
  0
LINE
  5
88
  8
0
 62
     7
 10
45.234200000000001
 20
59.980499999999999
 30
0.0
 11
45.234200000000001
 21
61.647300000000001
 31
0.0
  0
LINE
  5
89
  8
0
 62
     7
 10
45.234200000000001
 20
61.647300000000001
 30
0.0
 11
48.034199999999998
 21
61.647300000000001
 31
0.0
  0
LINE
  5
8A
  8
0
 62
     7
 10
48.034199999999998
 20
61.647300000000001
 30
0.0
 11
48.034199999999998
 21
59.980499999999999
 31
0.0
  0
LINE
  5
8B
  8
0
 62
     7
 10
40.4679
 20
71.9358
 30
0.0
 11
39.875300000000003
 21
74.147199999999984
 31
0.0
  0
LINE
  5
8C
  8
0
 62
     7
 10
39.875300000000003
 20
74.147199999999984
 30
0.0
 11
39.282800000000002
 21
71.9358
 31
0.0
  0
LINE
  5
8D
  8
0
 62
     7
 10
39.282800000000002
 20
71.9358
 30
0.0
 11
40.4679
 21
71.9358
 31
0.0
  0
LINE
  5
8E
  8
0
 62
     7
 10
39.297199999999989
 20
58.025399999999998
 30
0.0
 11
39.889800000000001
 21
55.813999999999993
 31
0.0
  0
LINE
  5
8F
  8
0
 62
     7
 10
39.889800000000001
 20
55.813999999999993
 30
0.0
 11
40.482399999999991
 21
58.025399999999998
 31
0.0
  0
LINE
  5
90
  8
0
 62
     7
 10
40.482399999999991
 20
58.025399999999998
 30
0.0
 11
39.297199999999989
 21
58.025399999999998
 31
0.0
  0
LINE
  5
91
  8
0
 62
     7
 10
39.875300000000003
 20
74.147199999999984
 30
0.0
 11
39.875300000000003
 21
55.813999999999993
 31
0.0
  0
LINE
  5
92
  8
0
 62
     7
 10
150.51300000000001
 20
77.433800000000005
 30
0.0
 11
152.7239999999999
 21
78.026399999999995
 31
0.0
  0
LINE
  5
93
  8
0
 62
     7
 10
152.7239999999999
 20
78.026399999999995
 30
0.0
 11
150.51300000000001
 21
78.619
 31
0.0
  0
LINE
  5
94
  8
0
 62
     7
 10
150.51300000000001
 20
78.619
 30
0.0
 11
150.51300000000001
 21
77.433800000000005
 31
0.0
  0
LINE
  5
95
  8
0
 62
     7
 10
165.512
 20
77.433800000000005
 30
0.0
 11
167.7229999999999
 21
78.026399999999995
 31
0.0
  0
LINE
  5
96
  8
0
 62
     7
 10
167.7229999999999
 20
78.026399999999995
 30
0.0
 11
165.512
 21
78.619
 31
0.0
  0
LINE
  5
97
  8
0
 62
     7
 10
165.512
 20
78.619
 30
0.0
 11
165.512
 21
77.433800000000005
 31
0.0
  0
LINE
  5
98
  8
0
 62
     7
 10
154.93600000000001
 20
78.604500000000002
 30
0.0
 11
152.7239999999999
 21
78.011899999999997
 31
0.0
  0
LINE
  5
99
  8
0
 62
     7
 10
152.7239999999999
 20
78.011899999999997
 30
0.0
 11
154.93600000000001
 21
77.419399999999996
 31
0.0
  0
LINE
  5
9A
  8
0
 62
     7
 10
154.93600000000001
 20
77.419399999999996
 30
0.0
 11
154.93600000000001
 21
78.604500000000002
 31
0.0
  0
LINE
  5
9B
  8
0
 62
     7
 10
136.60099999999991
 20
78.604500000000002
 30
0.0
 11
134.3899999999999
 21
78.011899999999997
 31
0.0
  0
LINE
  5
9C
  8
0
 62
     7
 10
134.3899999999999
 20
78.011899999999997
 30
0.0
 11
136.60099999999991
 21
77.419399999999996
 31
0.0
  0
LINE
  5
9D
  8
0
 62
     7
 10
136.60099999999991
 20
77.419399999999996
 30
0.0
 11
136.60099999999991
 21
78.604500000000002
 31
0.0
  0
LINE
  5
9E
  8
0
 62
     7
 10
167.7229999999999
 20
78.011899999999997
 30
0.0
 11
134.3899999999999
 21
78.011899999999997
 31
0.0
  0
LINE
  5
9F
  8
0
 62
     7
 10
176.6399999999999
 20
98.602400000000003
 30
0.0
 11
176.048
 21
100.81399999999999
 31
0.0
  0
LINE
  5
A0
  8
0
 62
     7
 10
176.048
 20
100.81399999999999
 30
0.0
 11
175.45500000000001
 21
98.602400000000003
 31
0.0
  0
LINE
  5
A1
  8
0
 62
     7
 10
175.45500000000001
 20
98.602400000000003
 30
0.0
 11
176.6399999999999
 21
98.602400000000003
 31
0.0
  0
LINE
  5
A2
  8
0
 62
     7
 10
175.46999999999991
 20
89.691599999999994
 30
0.0
 11
176.06200000000001
 21
87.480099999999979
 31
0.0
  0
LINE
  5
A3
  8
0
 62
     7
 10
176.06200000000001
 20
87.480099999999979
 30
0.0
 11
176.655
 21
89.691599999999994
 31
0.0
  0
LINE
  5
A4
  8
0
 62
     7
 10
176.655
 20
89.691599999999994
 30
0.0
 11
175.46999999999991
 21
89.691599999999994
 31
0.0
  0
LINE
  5
A5
  8
0
 62
     7
 10
176.048
 20
100.81399999999999
 30
0.0
 11
176.048
 21
87.480099999999979
 31
0.0
  0
LINE
  5
A6
  8
0
 62
     7
 10
123.93000000000001
 20
109.14700000000001
 30
0.0
 11
133.87999999999991
 21
109.14700000000001
 31
0.0
  0
LINE
  5
A7
  8
0
 62
     7
 10
123.93000000000001
 20
94.147099999999995
 30
0.0
 11
131.79300000000001
 21
94.147099999999995
 31
0.0
  0
ARC
  5
A8
  8
0
 62
     7
 10
51.975575999999997
 20
217.23715499999989
 30
0.0
 40
33.059480000000001
 50
252.74649999999991
 51
270.057411
  0
ARC
  5
A9
  8
0
 62
     7
 10
52.003723999999998
 20
217.497817
 30
0.0
 40
33.320126000000002
 50
270.00855899999999
 51
287.16122200000001
  0
LINE
  5
AA
  8
0
 62
     7
 10
59.54869999999999
 20
185.75399999999999
 30
0.0
 11
61.8352
 21
185.66099999999989
 31
0.0
  0
LINE
  5
AB
  8
0
 62
     7
 10
61.8352
 20
185.66099999999989
 30
0.0
 11
59.808399999999999
 21
184.5979999999999
 31
0.0
  0
LINE
  5
AC
  8
0
 62
     7
 10
59.808399999999999
 20
184.5979999999999
 30
0.0
 11
59.54869999999999
 21
185.75399999999999
 31
0.0
  0
LINE
  5
AD
  8
0
 62
     7
 10
44.456699999999991
 20
185.7579999999999
 30
0.0
 11
42.170099999999998
 21
185.66499999999991
 31
0.0
  0
LINE
  5
AE
  8
0
 62
     7
 10
42.170099999999998
 20
185.66499999999991
 30
0.0
 11
44.196899999999999
 21
184.602
 31
0.0
  0
LINE
  5
AF
  8
0
 62
     7
 10
44.196899999999999
 20
184.602
 30
0.0
 11
44.456699999999991
 21
185.7579999999999
 31
0.0
  0
LINE
  5
B0
  8
0
 62
     7
 10
55.509099999999997
 20
48.441099999999999
 30
0.0
 11
55.509099999999997
 21
55.001300000000001
 31
0.0
  0
LINE
  5
B1
  8
0
 62
     7
 10
48.509300000000003
 20
48.441099999999999
 30
0.0
 11
48.509300000000003
 21
55.001300000000001
 31
0.0
  0
LINE
  5
B2
  8
0
 62
     7
 10
47.807200000000002
 20
55.813999999999993
 30
0.0
 11
39.1753
 21
55.813999999999993
 31
0.0
  0
LINE
  5
B3
  8
0
 62
     7
 10
45.268199999999993
 20
74.147199999999984
 30
0.0
 11
39.1753
 21
74.147199999999984
 31
0.0
  0
LINE
  5
B4
  8
0
 62
     7
 10
156.2239999999999
 20
74.147199999999984
 30
0.0
 11
149.2239999999999
 21
74.147199999999984
 31
0.0
  0
LINE
  5
B5
  8
0
 62
     7
 10
158.89099999999999
 20
74.147199999999984
 30
0.0
 11
146.55699999999999
 21
74.147199999999984
 31
0.0
  0
ARC
  5
B6
  8
0
 62
     7
 10
152.55685399999999
 20
139.14742399999989
 30
0.0
 40
6.9999630000000002
 50
359.99860000000001
 51
89.998570000000001
  0
ARC
  5
B7
  8
0
  6
AIGENLINE001
 62
     7
 10
152.55702500000001
 20
139.14759599999991
 30
0.0
 40
10.16654299999999
 50
359.99806799999988
 51
89.998039000000006
  0
ARC
  5
B8
  8
0
 62
     7
 10
152.5568529999999
 20
139.147423
 30
0.0
 40
13.333467000000001
 50
359.99927000000002
 51
89.99924
  0
ARC
  5
B9
  8
0
 62
     7
 10
106.22313
 20
139.14742399999989
 30
0.0
 40
6.9999630000000002
 50
90.001410000000007
 51
180.00141999999991
  0
ARC
  5
BA
  8
0
  6
AIGENLINE001
 62
     7
 10
106.22347499999999
 20
139.14707899999991
 30
0.0
 40
10.167059999999999
 50
89.999029000000021
 51
179.998999
  0
ARC
  5
BB
  8
0
 62
     7
 10
106.223131
 20
139.147423
 30
0.0
 40
13.333467000000001
 50
90.000740000000008
 51
180.00075000000001
  0
LINE
  5
BC
  8
0
 62
     7
 10
46.298400000000001
 20
48.410800000000002
 30
0.0
 11
48.509099999999989
 21
49.003
 31
0.0
  0
LINE
  5
BD
  8
0
 62
     7
 10
48.509099999999989
 20
49.003
 30
0.0
 11
46.298400000000001
 21
49.59559999999999
 31
0.0
  0
LINE
  5
BE
  8
0
 62
     7
 10
46.298400000000001
 20
49.59559999999999
 30
0.0
 11
46.298400000000001
 21
48.410800000000002
 31
0.0
  0
LINE
  5
BF
  8
0
 62
     7
 10
57.719999999999999
 20
49.595199999999998
 30
0.0
 11
55.509099999999997
 21
49.003
 31
0.0
  0
LINE
  5
C0
  8
0
 62
     7
 10
55.509099999999997
 20
49.003
 30
0.0
 11
57.719999999999999
 21
48.411099999999998
 31
0.0
  0
LINE
  5
C1
  8
0
 62
     7
 10
57.719999999999999
 20
48.411099999999998
 30
0.0
 11
57.719999999999999
 21
49.595199999999998
 31
0.0
  0
LINE
  5
C2
  8
0
 62
     7
 10
64.180499999999995
 20
49.003
 30
0.0
 11
45.2151
 21
49.003
 31
0.0
  0
LINE
  5
C3
  8
0
 62
     7
 10
68.506200000000007
 20
69.332300000000004
 30
0.0
 11
69.098399999999984
 21
67.121899999999997
 31
0.0
  0
LINE
  5
C4
  8
0
 62
     7
 10
69.098399999999984
 20
67.121899999999997
 30
0.0
 11
69.690600000000003
 21
69.332300000000004
 31
0.0
  0
LINE
  5
C5
  8
0
 62
     7
 10
69.690600000000003
 20
69.332300000000004
 30
0.0
 11
68.506200000000007
 21
69.332300000000004
 31
0.0
  0
LINE
  5
C6
  8
0
 62
     7
 10
69.676100000000005
 20
71.936099999999996
 30
0.0
 11
69.0839
 21
74.147199999999984
 31
0.0
  0
LINE
  5
C7
  8
0
 62
     7
 10
69.0839
 20
74.147199999999984
 30
0.0
 11
68.491699999999994
 21
71.936099999999996
 31
0.0
  0
LINE
  5
C8
  8
0
 62
     7
 10
68.491699999999994
 20
71.936099999999996
 30
0.0
 11
69.676100000000005
 21
71.936099999999996
 31
0.0
  0
LINE
  5
C9
  8
0
 62
     7
 10
69.091099999999997
 20
67.121899999999997
 30
0.0
 11
69.091099999999997
 21
84.252399999999994
 31
0.0
  0
LINE
  5
CA
  8
0
 62
     7
 10
69.796700000000001
 20
67.121899999999997
 30
0.0
 11
59.8782
 21
67.121899999999997
 31
0.0
  0
LINE
  5
CB
  8
0
 62
     7
 10
69.796700000000001
 20
74.147199999999984
 30
0.0
 11
58.968999999999987
 21
74.147199999999984
 31
0.0
  0
LINE
  5
CC
  8
0
 62
     7
 10
38.343600000000002
 20
96.390199999999993
 30
0.0
 11
38.794400000000003
 21
94.146799999999999
 31
0.0
  0
LINE
  5
CD
  8
0
 62
     7
 10
38.794400000000003
 20
94.146799999999999
 30
0.0
 11
39.525300000000001
 21
96.315100000000001
 31
0.0
  0
LINE
  5
CE
  8
0
 62
     7
 10
39.525300000000001
 20
96.315100000000001
 30
0.0
 11
38.343600000000002
 21
96.390199999999993
 31
0.0
  0
LINE
  5
CF
  8
0
 62
     7
 10
49.82759999999999
 20
106.6689999999999
 30
0.0
 11
52.008699999999997
 21
107.361
 31
0.0
  0
LINE
  5
D0
  8
0
 62
     7
 10
52.008699999999997
 20
107.361
 30
0.0
 11
49.773999999999987
 21
107.852
 31
0.0
  0
LINE
  5
D1
  8
0
 62
     7
 10
49.773999999999987
 20
107.852
 30
0.0
 11
49.82759999999999
 21
106.6689999999999
 31
0.0
  0
LINE
  5
D2
  8
0
 62
     7
 10
80.426299999999998
 20
76.357600000000005
 30
0.0
 11
81.018500000000003
 21
74.147199999999984
 31
0.0
  0
LINE
  5
D3
  8
0
 62
     7
 10
81.018500000000003
 20
74.147199999999984
 30
0.0
 11
81.610299999999995
 21
76.357600000000005
 31
0.0
  0
LINE
  5
D4
  8
0
 62
     7
 10
81.610299999999995
 20
76.357600000000005
 30
0.0
 11
80.426299999999998
 21
76.357600000000005
 31
0.0
  0
LINE
  5
D5
  8
0
 62
     7
 10
81.596199999999996
 20
150.27099999999999
 30
0.0
 11
81.003999999999976
 21
152.48099999999991
 31
0.0
  0
LINE
  5
D6
  8
0
 62
     7
 10
81.003999999999976
 20
152.48099999999991
 30
0.0
 11
80.4114
 21
150.27099999999999
 31
0.0
  0
LINE
  5
D7
  8
0
 62
     7
 10
80.4114
 20
150.27099999999999
 30
0.0
 11
81.596199999999996
 21
150.27099999999999
 31
0.0
  0
LINE
  5
D8
  8
0
 62
     7
 10
81.010900000000007
 20
74.147199999999984
 30
0.0
 11
81.010900000000007
 21
152.48099999999991
 31
0.0
  0
LINE
  5
D9
  8
0
 62
     7
 10
124.045
 20
96.357500000000016
 30
0.0
 11
124.6369999999999
 21
94.147099999999995
 31
0.0
  0
LINE
  5
DA
  8
0
 62
     7
 10
124.6369999999999
 20
94.147099999999995
 30
0.0
 11
125.229
 21
96.357500000000016
 31
0.0
  0
LINE
  5
DB
  8
0
 62
     7
 10
125.229
 20
96.357500000000016
 30
0.0
 11
124.045
 21
96.357500000000016
 31
0.0
  0
LINE
  5
DC
  8
0
 62
     7
 10
125.22199999999999
 20
106.937
 30
0.0
 11
124.6299999999999
 21
109.14700000000001
 31
0.0
  0
LINE
  5
DD
  8
0
 62
     7
 10
124.6299999999999
 20
109.14700000000001
 30
0.0
 11
124.03700000000001
 21
106.937
 31
0.0
  0
LINE
  5
DE
  8
0
 62
     7
 10
124.03700000000001
 20
106.937
 30
0.0
 11
125.22199999999999
 21
106.937
 31
0.0
  0
LINE
  5
DF
  8
0
 62
     7
 10
124.6299999999999
 20
94.147099999999995
 30
0.0
 11
124.6299999999999
 21
109.14700000000001
 31
0.0
  0
LINE
  5
E0
  8
0
 62
     7
 10
124.045
 20
76.357600000000005
 30
0.0
 11
124.6369999999999
 21
74.147199999999984
 31
0.0
  0
LINE
  5
E1
  8
0
 62
     7
 10
124.6369999999999
 20
74.147199999999984
 30
0.0
 11
125.229
 21
76.357600000000005
 31
0.0
  0
LINE
  5
E2
  8
0
 62
     7
 10
125.229
 20
76.357600000000005
 30
0.0
 11
124.045
 21
76.357600000000005
 31
0.0
  0
LINE
  5
E3
  8
0
 62
     7
 10
125.22199999999999
 20
91.936700000000002
 30
0.0
 11
124.6299999999999
 21
94.147099999999995
 31
0.0
  0
LINE
  5
E4
  8
0
 62
     7
 10
124.6299999999999
 20
94.147099999999995
 30
0.0
 11
124.03700000000001
 21
91.936700000000002
 31
0.0
  0
LINE
  5
E5
  8
0
 62
     7
 10
124.03700000000001
 20
91.936700000000002
 30
0.0
 11
125.22199999999999
 21
91.936700000000002
 31
0.0
  0
LINE
  5
E6
  8
0
 62
     7
 10
124.6299999999999
 20
74.147199999999984
 30
0.0
 11
124.6299999999999
 21
94.147099999999995
 31
0.0
  0
LINE
  5
E7
  8
0
 62
     7
 10
87.952100000000002
 20
76.357600000000005
 30
0.0
 11
88.544300000000007
 21
74.147199999999984
 31
0.0
  0
LINE
  5
E8
  8
0
 62
     7
 10
88.544300000000007
 20
74.147199999999984
 30
0.0
 11
89.136600000000001
 21
76.357600000000005
 31
0.0
  0
LINE
  5
E9
  8
0
 62
     7
 10
89.136600000000001
 20
76.357600000000005
 30
0.0
 11
87.952100000000002
 21
76.357600000000005
 31
0.0
  0
LINE
  5
EA
  8
0
 62
     7
 10
89.122099999999989
 20
126.89099999999991
 30
0.0
 11
88.529899999999998
 21
129.10099999999991
 31
0.0
  0
LINE
  5
EB
  8
0
 62
     7
 10
88.529899999999998
 20
129.10099999999991
 30
0.0
 11
87.937700000000007
 21
126.89099999999991
 31
0.0
  0
LINE
  5
EC
  8
0
 62
     7
 10
87.937700000000007
 20
126.89099999999991
 30
0.0
 11
89.122099999999989
 21
126.89099999999991
 31
0.0
  0
LINE
  5
ED
  8
0
 62
     7
 10
88.537099999999995
 20
74.147199999999984
 30
0.0
 11
88.537099999999995
 21
129.10099999999991
 31
0.0
  0
LINE
  5
EE
  8
0
 62
     7
 10
91.962900000000005
 20
129.10099999999991
 30
0.0
 11
87.684399999999997
 21
129.10099999999991
 31
0.0
  0
LINE
  5
EF
  8
0
 62
     7
 10
101.307
 20
152.48099999999991
 30
0.0
 11
80.022499999999994
 21
152.48099999999991
 31
0.0
  0
LINE
  5
F0
  8
0
 62
     7
 10
144.86600000000001
 20
74.147199999999984
 30
0.0
 11
79.670100000000005
 21
74.147199999999984
 31
0.0
  0
LINE
  5
F1
  8
0
 62
     7
 10
55.965600000000002
 20
77.792100000000005
 30
0.0
 11
58.176000000000002
 21
78.384699999999995
 31
0.0
  0
LINE
  5
F2
  8
0
 62
     7
 10
58.176000000000002
 20
78.384699999999995
 30
0.0
 11
55.965600000000002
 21
78.976600000000005
 31
0.0
  0
LINE
  5
F3
  8
0
 62
     7
 10
55.965600000000002
 20
78.976600000000005
 30
0.0
 11
55.965600000000002
 21
77.792100000000005
 31
0.0
  0
LINE
  5
F4
  8
0
 62
     7
 10
48.053199999999997
 20
78.962100000000007
 30
0.0
 11
45.842499999999987
 21
78.369900000000001
 31
0.0
  0
LINE
  5
F5
  8
0
 62
     7
 10
45.842499999999987
 20
78.369900000000001
 30
0.0
 11
48.053199999999997
 21
77.777699999999996
 31
0.0
  0
LINE
  5
F6
  8
0
 62
     7
 10
48.053199999999997
 20
77.777699999999996
 30
0.0
 11
48.053199999999997
 21
78.962100000000007
 31
0.0
  0
LINE
  5
F7
  8
0
 62
     7
 10
58.176000000000002
 20
78.377099999999999
 30
0.0
 11
39.299799999999998
 21
78.377099999999999
 31
0.0
  0
LINE
  5
F8
  8
0
 62
     7
 10
154.935
 20
108.443
 30
0.0
 11
152.7239999999999
 21
107.84999999999999
 31
0.0
  0
LINE
  5
F9
  8
0
 62
     7
 10
152.7239999999999
 20
107.84999999999999
 30
0.0
 11
154.935
 21
107.258
 31
0.0
  0
LINE
  5
FA
  8
0
 62
     7
 10
154.935
 20
107.258
 30
0.0
 11
154.935
 21
108.443
 31
0.0
  0
LINE
  5
FB
  8
0
 62
     7
 10
160.51300000000001
 20
107.2729999999999
 30
0.0
 11
162.72399999999999
 21
107.8649999999999
 31
0.0
  0
LINE
  5
FC
  8
0
 62
     7
 10
162.72399999999999
 20
107.8649999999999
 30
0.0
 11
160.51300000000001
 21
108.45699999999999
 31
0.0
  0
LINE
  5
FD
  8
0
 62
     7
 10
160.51300000000001
 20
108.45699999999999
 30
0.0
 11
160.51300000000001
 21
107.2729999999999
 31
0.0
  0
LINE
  5
FE
  8
0
 62
     7
 10
152.7239999999999
 20
107.857
 30
0.0
 11
162.72399999999999
 21
107.857
 31
0.0
  0
LINE
  5
FF
  8
0
 62
     7
 10
152.7239999999999
 20
108.5679999999999
 30
0.0
 11
152.7239999999999
 21
103.038
 31
0.0
  0
LINE
  5
100
  8
0
 62
     7
 10
160.51300000000001
 20
118.863
 30
0.0
 11
162.72399999999999
 21
119.455
 31
0.0
  0
LINE
  5
101
  8
0
 62
     7
 10
162.72399999999999
 20
119.455
 30
0.0
 11
160.51300000000001
 21
120.0479999999999
 31
0.0
  0
LINE
  5
102
  8
0
 62
     7
 10
160.51300000000001
 20
120.0479999999999
 30
0.0
 11
160.51300000000001
 21
118.863
 31
0.0
  0
LINE
  5
103
  8
0
 62
     7
 10
98.267099999999999
 20
120.0329999999999
 30
0.0
 11
96.056400000000011
 21
119.4409999999999
 31
0.0
  0
LINE
  5
104
  8
0
 62
     7
 10
96.056400000000011
 20
119.4409999999999
 30
0.0
 11
98.267099999999999
 21
118.8489999999999
 31
0.0
  0
LINE
  5
105
  8
0
 62
     7
 10
98.267099999999999
 20
118.8489999999999
 30
0.0
 11
98.267099999999999
 21
120.0329999999999
 31
0.0
  0
LINE
  5
106
  8
0
 62
     7
 10
162.72399999999999
 20
119.44799999999989
 30
0.0
 11
96.056400000000011
 21
119.44799999999989
 31
0.0
  0
LINE
  5
107
  8
0
 62
     7
 10
96.056400000000011
 20
125.94199999999999
 30
0.0
 11
96.056400000000011
 21
118.70099999999999
 31
0.0
  0
LINE
  5
108
  8
0
 62
     7
 10
127.58499999999989
 20
143.93700000000001
 30
0.0
 11
126.99299999999999
 21
146.14699999999999
 31
0.0
  0
LINE
  5
109
  8
0
 62
     7
 10
126.99299999999999
 20
146.14699999999999
 30
0.0
 11
126.401
 21
143.93700000000001
 31
0.0
  0
LINE
  5
10A
  8
0
 62
     7
 10
126.401
 20
143.93700000000001
 30
0.0
 11
127.58499999999989
 21
143.93700000000001
 31
0.0
  0
LINE
  5
10B
  8
0
 62
     7
 10
126.41500000000001
 20
154.691
 30
0.0
 11
127.00700000000001
 21
152.48099999999991
 31
0.0
  0
LINE
  5
10C
  8
0
 62
     7
 10
127.00700000000001
 20
152.48099999999991
 30
0.0
 11
127.59999999999999
 21
154.691
 31
0.0
  0
LINE
  5
10D
  8
0
 62
     7
 10
127.59999999999999
 20
154.691
 30
0.0
 11
126.41500000000001
 21
154.691
 31
0.0
  0
LINE
  5
10E
  8
0
 62
     7
 10
127.0
 20
159.8489999999999
 30
0.0
 11
127.0
 21
142.36199999999991
 31
0.0
  0
LINE
  5
10F
  8
0
 62
     7
 10
48.842500000000001
 20
214.95799999999991
 30
0.0
 11
55.175600000000003
 21
214.95799999999991
 31
0.0
  0
LINE
  5
110
  8
0
 62
     7
 10
48.842500000000001
 20
172.292
 30
0.0
 11
48.842500000000001
 21
238.959
 31
0.0
  0
LINE
  5
111
  8
0
 62
     7
 10
55.175600000000003
 20
172.292
 30
0.0
 11
55.175600000000003
 21
238.959
 31
0.0
  0
ARC
  5
112
  8
0
 62
     7
 10
52.009039999999999
 20
172.29134699999989
 30
0.0
 40
3.166579
 50
179.99685299999999
 51
269.99690299999992
  0
ARC
  5
113
  8
0
 62
     7
 10
52.008868
 20
172.29152099999999
 30
0.0
 40
3.1667519999999998
 50
270.00002000000001
 51
359.99998999999991
  0
ARC
  5
114
  8
0
 62
     7
 10
52.008868
 20
238.95867299999989
 30
0.0
 40
3.1667519999999998
 50
0.00001
 51
89.999980000000008
  0
ARC
  5
115
  8
0
 62
     7
 10
52.009040999999989
 20
238.958845
 30
0.0
 40
3.1665799999999988
 50
90.003117000000003
 51
180.00312700000001
  0
LINE
  5
116
  8
0
  6
AIGENLINE001
 62
     7
 10
43.367100000000001
 20
238.959
 30
0.0
 11
60.697099999999999
 21
238.959
 31
0.0
  0
LINE
  5
117
  8
0
 62
     7
 10
58.00889999999999
 20
222.292
 30
0.0
 11
58.00889999999999
 21
222.792
 31
0.0
  0
LINE
  5
118
  8
0
 62
     7
 10
46.00889999999999
 20
222.292
 30
0.0
 11
46.00889999999999
 21
222.792
 31
0.0
  0
LINE
  5
119
  8
0
 62
     7
 10
48.842500000000001
 20
222.792
 30
0.0
 11
45.34259999999999
 21
222.792
 31
0.0
  0
LINE
  5
11A
  8
0
 62
     7
 10
58.675899999999992
 20
222.792
 30
0.0
 11
55.175600000000003
 21
222.792
 31
0.0
  0
LINE
  5
11B
  8
0
 62
     7
 10
48.842500000000001
 20
222.292
 30
0.0
 11
45.34259999999999
 21
222.292
 31
0.0
  0
LINE
  5
11C
  8
0
 62
     7
 10
58.675899999999992
 20
222.292
 30
0.0
 11
55.175600000000003
 21
222.292
 31
0.0
  0
LINE
  5
11D
  8
0
  6
AIGENLINE001
 62
     7
 10
52.008899999999997
 20
247.2399999999999
 30
0.0
 11
52.008899999999997
 21
166.673
 31
0.0
  0
LINE
  5
11E
  8
0
 62
     7
 10
48.842500000000001
 20
210.625
 30
0.0
 11
45.34259999999999
 21
210.625
 31
0.0
  0
LINE
  5
11F
  8
0
 62
     7
 10
58.675899999999992
 20
210.625
 30
0.0
 11
55.175600000000003
 21
210.625
 31
0.0
  0
LINE
  5
120
  8
0
 62
     7
 10
45.34259999999999
 20
222.292
 30
0.0
 11
45.34259999999999
 21
210.625
 31
0.0
  0
LINE
  5
121
  8
0
 62
     7
 10
45.34259999999999
 20
243.95899999999989
 30
0.0
 11
45.34259999999999
 21
222.792
 31
0.0
  0
LINE
  5
122
  8
0
 62
     7
 10
45.34259999999999
 20
243.95899999999989
 30
0.0
 11
58.675899999999992
 21
243.95899999999989
 31
0.0
  0
LINE
  5
123
  8
0
 62
     7
 10
58.675899999999992
 20
222.292
 30
0.0
 11
58.675899999999992
 21
210.625
 31
0.0
  0
LINE
  5
124
  8
0
 62
     7
 10
58.675899999999992
 20
243.95899999999989
 30
0.0
 11
58.675899999999992
 21
222.792
 31
0.0
  0
LINE
  5
125
  8
0
 62
     7
 10
152.7229999999999
 20
90.649299999999997
 30
0.0
 11
153.596
 21
90.649299999999997
 31
0.0
  0
LINE
  5
126
  8
0
 62
     7
 10
158.88900000000001
 20
87.480099999999979
 30
0.0
 11
154.4799999999999
 21
90.384000000000015
 31
0.0
  0
ARC
  5
127
  8
0
 62
     7
 10
153.59202999999991
 20
89.030214999999984
 30
0.0
 40
1.619095
 50
56.736330000000002
 51
89.844674000000012
  0
LINE
  5
128
  8
0
 62
     7
 10
152.7229999999999
 20
90.649299999999997
 30
0.0
 11
151.84999999999991
 21
90.649299999999997
 31
0.0
  0
LINE
  5
129
  8
0
 62
     7
 10
146.55699999999999
 20
87.480099999999979
 30
0.0
 11
150.96700000000001
 21
90.384000000000015
 31
0.0
  0
ARC
  5
12A
  8
0
 62
     7
 10
151.85474099999999
 20
89.031639999999996
 30
0.0
 40
1.617669
 50
90.152546999999984
 51
123.2787169999999
  0
LINE
  5
12B
  8
0
  6
AIGENLINE001
 62
     7
 10
169.85799999999989
 20
94.147099999999995
 30
0.0
 11
132.56200000000001
 21
94.147099999999995
 31
0.0
  0
LINE
  5
12C
  8
0
 62
     7
 10
146.55699999999999
 20
87.480099999999979
 30
0.0
 11
146.55699999999999
 21
74.147199999999984
 31
0.0
  0
LINE
  5
12D
  8
0
 62
     7
 10
158.89099999999999
 20
87.480099999999979
 30
0.0
 11
158.89099999999999
 21
74.147199999999984
 31
0.0
  0
LINE
  5
12E
  8
0
 62
     7
 10
136.05699999999999
 20
152.48099999999991
 30
0.0
 11
136.05699999999999
 21
146.14699999999999
 31
0.0
  0
LINE
  5
12F
  8
0
 62
     7
 10
165.8899999999999
 20
100.81399999999999
 30
0.0
 11
165.8899999999999
 21
139.14699999999999
 31
0.0
  0
LINE
  5
130
  8
0
  6
AIGENLINE001
 62
     7
 10
162.72399999999999
 20
139.14699999999999
 30
0.0
 11
162.72399999999999
 21
94.147099999999995
 31
0.0
  0
LINE
  5
131
  8
0
 62
     7
 10
159.55699999999999
 20
100.81399999999999
 30
0.0
 11
159.55699999999999
 21
139.14699999999999
 31
0.0
  0
LINE
  5
132
  8
0
 62
     7
 10
55.509099999999997
 20
74.147199999999984
 30
0.0
 11
48.509099999999989
 21
74.147199999999984
 31
0.0
  0
LINE
  5
133
  8
0
 62
     7
 10
45.842499999999987
 20
91.613900000000001
 30
0.0
 11
45.842499999999987
 21
74.147199999999984
 31
0.0
  0
LINE
  5
134
  8
0
 62
     7
 10
58.176000000000002
 20
91.613900000000001
 30
0.0
 11
58.176000000000002
 21
74.147199999999984
 31
0.0
  0
LINE
  5
135
  8
0
 62
     7
 10
58.176000000000002
 20
74.147199999999984
 30
0.0
 11
45.842499999999987
 21
74.147199999999984
 31
0.0
  0
LINE
  5
136
  8
0
 62
     7
 10
53.175699999999992
 20
102.373
 30
0.0
 11
55.175600000000003
 21
102.373
 31
0.0
  0
LINE
  5
137
  8
0
 62
     7
 10
48.842100000000002
 20
102.373
 30
0.0
 11
50.842399999999998
 21
102.373
 31
0.0
  0
LINE
  5
138
  8
0
 62
     7
 10
55.175600000000003
 20
149.33500000000001
 30
0.0
 11
55.175600000000003
 21
100.01299999999991
 31
0.0
  0
LINE
  5
139
  8
0
 62
     7
 10
48.842500000000001
 20
149.33699999999999
 30
0.0
 11
48.842500000000001
 21
100.01299999999991
 31
0.0
  0
LINE
  5
13A
  8
0
  6
AIGENLINE002
 62
     7
 10
37.008800000000001
 20
92.979900000000001
 30
0.0
 11
37.008800000000001
 21
95.313299999999998
 31
0.0
  0
LINE
  5
13B
  8
0
  6
AIGENLINE001
 62
     7
 10
35.798200000000001
 20
94.146799999999999
 30
0.0
 11
60.9724
 21
94.146799999999999
 31
0.0
  0
LINE
  5
13C
  8
0
  6
AIGENLINE002
 62
     7
 10
37.008800000000001
 20
92.979900000000001
 30
0.0
 11
45.4452
 21
92.979900000000001
 31
0.0
  0
LINE
  5
13D
  8
0
  6
AIGENLINE002
 62
     7
 10
37.008800000000001
 20
95.313299999999998
 30
0.0
 11
45.4452
 21
95.313299999999998
 31
0.0
  0
LINE
  5
13E
  8
0
 62
     7
 10
50.842399999999998
 20
109.14700000000001
 30
0.0
 11
53.175699999999992
 21
109.14700000000001
 31
0.0
  0
LINE
  5
13F
  8
0
 62
     7
 10
50.842399999999998
 20
109.14700000000001
 30
0.0
 11
50.842399999999998
 21
100.7109999999999
 31
0.0
  0
LINE
  5
140
  8
0
 62
     7
 10
53.175699999999992
 20
109.14700000000001
 30
0.0
 11
53.175699999999992
 21
100.7109999999999
 31
0.0
  0
LINE
  5
141
  8
0
  6
AIGENLINE001
 62
     7
 10
52.008899999999997
 20
154.81499999999991
 30
0.0
 11
52.008899999999997
 21
54.352200000000011
 31
0.0
  0
ARC
  5
142
  8
0
 62
     7
 10
52.008611999999999
 20
94.146698000000001
 30
0.0
 40
13.21417999999999
 50
89.999627000000004
 51
179.99959699999999
  0
ARC
  5
143
  8
0
 62
     7
 10
52.008868999999997
 20
94.146784999999994
 30
0.0
 40
6.6666479999999986
 50
90.0
 51
179.99996999999991
  0
ARC
  5
144
  8
0
 62
     7
 10
52.008866999999988
 20
94.146784999999994
 30
0.0
 40
6.666644999999999
 50
179.99996999999991
 51
270.00002000000001
  0
ARC
  5
145
  8
0
 62
     7
 10
52.009039000000001
 20
94.146959999999993
 30
0.0
 40
6.6668199999999986
 50
269.99853899999999
 51
359.99851000000001
  0
ARC
  5
146
  8
0
 62
     7
 10
52.009039000000001
 20
94.146613000000002
 30
0.0
 40
6.6668199999999986
 50
0.00149
 51
90.001460999999978
  0
ARC
  5
147
  8
0
 62
     7
 10
162.72339600000001
 20
106.537673
 30
0.0
 40
6.5725490000000004
 50
245.68457699999999
 51
294.31544200000002
  0
LINE
  5
148
  8
0
 62
     7
 10
165.8899999999999
 20
102.373
 30
0.0
 11
159.55699999999999
 21
102.373
 31
0.0
  0
LINE
  5
149
  8
0
 62
     7
 10
146.05699999999999
 20
88.147099999999995
 30
0.0
 11
146.55600000000001
 21
88.147099999999995
 31
0.0
  0
LINE
  5
14A
  8
0
 62
     7
 10
146.05699999999999
 20
100.14700000000001
 30
0.0
 11
146.55600000000001
 21
100.14700000000001
 31
0.0
  0
LINE
  5
14B
  8
0
 62
     7
 10
158.89099999999999
 20
87.480099999999979
 30
0.0
 11
167.7229999999999
 21
87.480099999999979
 31
0.0
  0
LINE
  5
14C
  8
0
 62
     7
 10
159.55699999999999
 20
100.81399999999999
 30
0.0
 11
146.55600000000001
 21
100.81399999999999
 31
0.0
  0
LINE
  5
14D
  8
0
 62
     7
 10
167.7229999999999
 20
100.81399999999999
 30
0.0
 11
165.8899999999999
 21
100.81399999999999
 31
0.0
  0
LINE
  5
14E
  8
0
  6
AIGENLINE001
 62
     7
 10
42.7453
 20
228.959
 30
0.0
 11
61.0899
 21
228.959
 31
0.0
  0
LINE
  5
14F
  8
0
 62
     7
 10
167.7229999999999
 20
86.482399999999984
 30
0.0
 11
167.7229999999999
 21
77.311899999999994
 31
0.0
  0
LINE
  5
150
  8
0
 62
     7
 10
134.3899999999999
 20
86.482399999999984
 30
0.0
 11
134.3899999999999
 21
77.311899999999994
 31
0.0
  0
LINE
  5
151
  8
0
 62
     7
 10
167.7229999999999
 20
100.81399999999999
 30
0.0
 11
167.7229999999999
 21
87.480099999999979
 31
0.0
  0
LINE
  5
152
  8
0
 62
     7
 10
134.8899999999999
 20
109.14700000000001
 30
0.0
 11
137.2229999999999
 21
109.14700000000001
 31
0.0
  0
LINE
  5
153
  8
0
 62
     7
 10
134.8899999999999
 20
109.14700000000001
 30
0.0
 11
134.8899999999999
 21
100.81399999999999
 31
0.0
  0
LINE
  5
154
  8
0
 62
     7
 10
137.2229999999999
 20
109.14700000000001
 30
0.0
 11
137.2229999999999
 21
100.81399999999999
 31
0.0
  0
LINE
  5
155
  8
0
  6
AIGENLINE001
 62
     7
 10
136.05699999999999
 20
111.11499999999999
 30
0.0
 11
136.05699999999999
 21
99.227000000000004
 31
0.0
  0
LINE
  5
156
  8
0
 62
     7
 10
146.55600000000001
 20
100.81399999999999
 30
0.0
 11
146.55600000000001
 21
87.480099999999979
 31
0.0
  0
LINE
  5
157
  8
0
 62
     7
 10
176.74799999999991
 20
87.480099999999979
 30
0.0
 11
168.78599999999989
 21
87.480099999999979
 31
0.0
  0
LINE
  5
158
  8
0
 62
     7
 10
176.74799999999991
 20
100.81399999999999
 30
0.0
 11
168.78599999999989
 21
100.81399999999999
 31
0.0
  0
LINE
  5
159
  8
0
 62
     7
 10
146.05699999999999
 20
87.480099999999979
 30
0.0
 11
134.3899999999999
 21
87.480099999999979
 31
0.0
  0
LINE
  5
15A
  8
0
 62
     7
 10
146.05699999999999
 20
100.81399999999999
 30
0.0
 11
134.3899999999999
 21
100.81399999999999
 31
0.0
  0
LINE
  5
15B
  8
0
 62
     7
 10
146.05699999999999
 20
100.81399999999999
 30
0.0
 11
146.05699999999999
 21
87.480099999999979
 31
0.0
  0
LINE
  5
15C
  8
0
 62
     7
 10
134.3899999999999
 20
100.81399999999999
 30
0.0
 11
134.3899999999999
 21
87.480099999999979
 31
0.0
  0
LINE
  5
15D
  8
0
 62
     7
 10
55.176000000000002
 20
129.10099999999991
 30
0.0
 11
48.842500000000001
 21
129.10099999999991
 31
0.0
  0
ARC
  5
15E
  8
0
 62
     7
 10
52.009211999999991
 20
149.3141379999999
 30
0.0
 40
3.1667519999999998
 50
0.00001
 51
89.999980000000008
  0
ARC
  5
15F
  8
0
 62
     7
 10
52.009385999999999
 20
149.31431000000001
 30
0.0
 40
3.1665799999999988
 50
90.003117000000003
 51
180.00312700000001
  0
LINE
  5
160
  8
0
 62
     7
 10
152.55699999999999
 20
146.14699999999999
 30
0.0
 11
106.223
 21
146.14699999999999
 31
0.0
  0
LINE
  5
161
  8
0
 62
     7
 10
152.55699999999999
 20
152.48099999999991
 30
0.0
 11
106.223
 21
152.48099999999991
 31
0.0
  0
LINE
  5
162
  8
0
  6
AIGENLINE001
 62
     7
 10
96.056400000000011
 20
126.81399999999999
 30
0.0
 11
96.056400000000011
 21
139.14699999999999
 31
0.0
  0
LINE
  5
163
  8
0
 62
     7
 10
92.889700000000005
 20
129.10099999999991
 30
0.0
 11
92.889700000000005
 21
139.14699999999999
 31
0.0
  0
LINE
  5
164
  8
0
 62
     7
 10
48.842100000000002
 20
135.43499999999989
 30
0.0
 11
55.175600000000003
 21
135.43499999999989
 31
0.0
  0
LINE
  5
165
  8
0
 62
     7
 10
92.889700000000005
 20
135.43499999999989
 30
0.0
 11
99.223200000000006
 21
135.43499999999989
 31
0.0
  0
LINE
  5
166
  8
0
 62
     7
 10
92.889700000000005
 20
129.10099999999991
 30
0.0
 11
99.223200000000006
 21
129.10099999999991
 31
0.0
  0
LINE
  5
167
  8
0
 62
     7
 10
99.223200000000006
 20
129.10099999999991
 30
0.0
 11
99.223200000000006
 21
139.14699999999999
 31
0.0
  0
LINE
  5
168
  8
0
  6
AIGENLINE001
 62
     7
 10
106.2239999999999
 20
149.31399999999991
 30
0.0
 11
152.55699999999999
 21
149.31399999999991
 31
0.0
  0
LINE
  5
169
  8
0
  6
AIGENLINE001
 62
     7
 10
152.7239999999999
 20
102.373
 30
0.0
 11
152.7239999999999
 21
53.630099999999999
 31
0.0
  0
ARC
  5
16A
  8
0
 62
     7
 10
152.67915600000001
 20
238.9864069999999
 30
0.0
 40
4.6669289999999988
 50
269.997905
 51
359.99787500000002
  0
ARC
  5
16B
  8
0
 62
     7
 10
152.67915600000001
 20
238.98606099999989
 30
0.0
 40
4.6665830000000001
 50
179.99785499999999
 51
269.997905
  0
ARC
  5
16C
  8
0
 62
     7
 10
152.679157
 20
238.98640599999999
 30
0.0
 40
4.6665839999999994
 50
90.002114999999975
 51
180.00212500000001
  0
ARC
  5
16D
  8
0
 62
     7
 10
152.67915600000001
 20
238.98606099999989
 30
0.0
 40
4.6669289999999988
 50
0.002125
 51
90.002094999999997
  0
LINE
  5
16E
  8
0
 62
     7
 10
173.97900000000001
 20
229.24700000000001
 30
0.0
 11
162.43600000000001
 21
229.24700000000001
 31
0.0
  0
LINE
  5
16F
  8
0
 62
     7
 10
157.96899999999999
 20
234.5509999999999
 30
0.0
 11
155.98699999999999
 21
235.69499999999991
 31
0.0
  0
LINE
  5
170
  8
0
 62
     7
 10
155.98699999999999
 20
235.69499999999991
 30
0.0
 11
157.13099999999989
 21
233.714
 31
0.0
  0
LINE
  5
171
  8
0
 62
     7
 10
157.13099999999989
 20
233.714
 30
0.0
 11
157.96899999999999
 21
234.5509999999999
 31
0.0
  0
LINE
  5
172
  8
0
 62
     7
 10
147.40700000000001
 20
243.43899999999999
 30
0.0
 11
149.38800000000001
 21
242.2949999999999
 31
0.0
  0
LINE
  5
173
  8
0
 62
     7
 10
149.38800000000001
 20
242.2949999999999
 30
0.0
 11
148.24399999999989
 21
244.2759999999999
 31
0.0
  0
LINE
  5
174
  8
0
 62
     7
 10
148.24399999999989
 20
244.2759999999999
 30
0.0
 11
147.40700000000001
 21
243.43899999999999
 31
0.0
  0
LINE
  5
175
  8
0
 62
     7
 10
145.79900000000001
 20
245.88399999999999
 30
0.0
 11
162.43600000000001
 21
229.24700000000001
 31
0.0
  0
LINE
  5
176
  8
0
  6
AIGENLINE001
 62
     7
 10
152.7239999999999
 20
230.458
 30
0.0
 11
152.7239999999999
 21
247.459
 31
0.0
  0
LINE
  5
177
  8
0
  6
AIGENLINE001
 62
     7
 10
144.2229999999999
 20
238.959
 30
0.0
 11
161.2239999999999
 21
238.959
 31
0.0
  0
LINE
  5
178
  8
_________2
 62
     7
 10
205.2999999999999
 20
127.411
 30
0.0
 11
183.55000000000001
 21
127.411
 31
0.0
  0
LINE
  5
179
  8
_________2
 62
     7
 10
100.2999999999999
 20
-4.0910799999999998
 30
0.0
 11
100.2999999999999
 21
-21.071400000000001
 31
0.0
  0
LINE
  5
17A
  8
_________2
 62
     7
 10
100.2999999999999
 20
275.93099999999993
 30
0.0
 11
100.2999999999999
 21
258.911
 31
0.0
  0
LINE
  5
17B
  8
_________2
 62
     7
 10
17.049499999999998
 20
127.411
 30
0.0
 11
-4.7008599999999987
 21
127.411
 31
0.0
  0
LINE
  5
17C
  8
_________2
 62
     7
 10
76.741
 20
29.8047
 30
0.0
 11
74.554699999999997
 21
29.8047
 31
0.0
  0
LINE
  5
17D
  8
_________2
 62
     7
 10
77.233699999999999
 20
29.8047
 30
0.0
 11
76.981499999999997
 21
29.8047
 31
0.0
  0
LINE
  5
17E
  8
_________2
 62
     7
 10
77.726299999999995
 20
29.8047
 30
0.0
 11
80.651200000000003
 21
29.8047
 31
0.0
  0
LINE
  5
17F
  8
_________2
 62
     7
 10
77.233699999999999
 20
29.8047
 30
0.0
 11
77.485200000000006
 21
29.8047
 31
0.0
  0
LINE
  5
180
  8
_________2
 62
     7
 10
70.836799999999997
 20
29.8047
 30
0.0
 11
68.650499999999994
 21
29.8047
 31
0.0
  0
LINE
  5
181
  8
_________2
 62
     7
 10
71.329400000000007
 20
29.8047
 30
0.0
 11
71.077200000000005
 21
29.8047
 31
0.0
  0
LINE
  5
182
  8
_________2
 62
     7
 10
71.329400000000007
 20
30.2974
 30
0.0
 11
71.329400000000007
 21
32.484400000000001
 31
0.0
  0
LINE
  5
183
  8
_________2
 62
     7
 10
71.329400000000007
 20
29.8047
 30
0.0
 11
71.329400000000007
 21
30.056899999999992
 31
0.0
  0
LINE
  5
184
  8
_________2
 62
     7
 10
71.822100000000006
 20
29.8047
 30
0.0
 11
74.009
 21
29.8047
 31
0.0
  0
LINE
  5
185
  8
_________2
 62
     7
 10
71.329400000000007
 20
29.8047
 30
0.0
 11
71.581599999999995
 21
29.8047
 31
0.0
  0
LINE
  5
186
  8
_________2
 62
     7
 10
71.329400000000007
 20
29.312799999999999
 30
0.0
 11
71.329400000000007
 21
27.125800000000002
 31
0.0
  0
LINE
  5
187
  8
_________2
 62
     7
 10
71.329400000000007
 20
29.8047
 30
0.0
 11
71.329400000000007
 21
29.5532
 31
0.0
  0
LINE
  5
188
  8
_________2
 62
     7
 10
75.040499999999994
 20
28.5852
 30
0.0
 11
80.218500000000006
 21
27.720400000000001
 31
0.0
  0
LINE
  5
189
  8
_________2
 62
     7
 10
75.040499999999994
 20
31.0243
 30
0.0
 11
80.218500000000006
 21
31.889700000000001
 31
0.0
  0
LINE
  5
18A
  8
_________2
 62
     7
 10
80.218500000000006
 20
27.720400000000001
 30
0.0
 11
80.218500000000006
 21
31.889700000000001
 31
0.0
  0
LINE
  5
18B
  8
_________2
 62
     7
 10
75.040499999999994
 20
28.5852
 30
0.0
 11
75.040499999999994
 21
31.0243
 31
0.0
  0
ARC
  5
18C
  8
_________2
 62
     7
 10
71.282522999999983
 20
29.75783599999999
 30
0.0
 40
1.267347
 50
2.1211329999999999
 51
87.878856999999996
  0
ARC
  5
18D
  8
_________2
 62
     7
 10
71.375959999999992
 20
29.758213000000001
 30
0.0
 40
1.2669559999999991
 50
92.104701000000006
 51
177.8952689999999
  0
ARC
  5
18E
  8
_________2
 62
     7
 10
71.376357999999996
 20
29.851671
 30
0.0
 40
1.2673680000000001
 50
182.12203600000001
 51
267.877993
  0
ARC
  5
18F
  8
_________2
 62
     7
 10
71.282522999999983
 20
29.851649999999999
 30
0.0
 40
1.267347
 50
272.12114300000002
 51
357.87886700000001
  0
ARC
  5
190
  8
_________2
 62
     7
 10
71.329430000000002
 20
29.804742999999998
 30
0.0
 40
2.0849849999999992
 50
0.00001
 51
89.999980000000008
  0
ARC
  5
191
  8
_________2
 62
     7
 10
71.329431
 20
29.804742999999998
 30
0.0
 40
2.0849849999999992
 50
90.0
 51
179.99996999999991
  0
ARC
  5
192
  8
_________2
 62
     7
 10
71.408771999999999
 20
29.884799999999998
 30
0.0
 40
2.165807
 50
182.1183979999999
 51
267.90056900000002
  0
ARC
  5
193
  8
_________2
 62
     7
 10
71.249459000000002
 20
29.885429999999989
 30
0.0
 40
2.1664590000000001
 50
272.11546800000002
 51
357.86560400000002
  0
TEXT
  5
194
  8
_________2
 62
     7
 10
104.604
 20
1.6794899999999999
 30
0.0
 40
3.0923400000000001
  1
図番
 41
0.5
  0
LINE
  5
195
  8
_________2
 62
     7
 10
103.55
 20
5.9087199999999989
 30
0.0
 11
183.55099999999999
 21
5.9087199999999989
 31
0.0
  0
TEXT
  5
196
  8
_________2
 62
     7
 10
104.604
 20
11.679299999999991
 30
0.0
 40
3.0923400000000001
  1
品番
 41
0.5
  0
TEXT
  5
197
  8
_________2
 62
     7
 10
104.604
 20
31.818100000000001
 30
0.0
 40
3.0923400000000001
  1
名称
 41
0.5
  0
TEXT
  5
198
  8
_________2
 62
     7
 10
91.845058333333341
 20
26.821999999999989
 30
0.0
 40
3.6545800000000002
  1
mm
 41
0.5
 72
     1
 11
93.367800000000003
 21
26.821999999999989
 31
0.0
  0
TEXT
  5
199
  8
_________2
 62
     7
 10
85.643199999999993
 20
31.818100000000001
 30
0.0
 40
3.0923400000000001
  1
単位
 41
0.5
  0
TEXT
  5
19A
  8
_________2
 62
     7
 10
85.643199999999993
 20
19.410799999999991
 30
0.0
 40
3.0923400000000001
  1
尺度
 41
0.5
  0
TEXT
  5
19B
  8
_________2
 62
     7
 10
90.548758666666686
 20
13.2179
 30
0.0
 40
3.6545800000000002
  1
1 ： 3
 41
0.5
 72
     1
 11
93.959699999999998
 21
13.2179
 31
0.0
  0
TEXT
  5
19C
  8
_________2
 62
     7
 10
135.02164999999991
 20
9.1078600000000005
 30
0.0
 40
3.9357000000000002
  1
VL.KV8CDS
 41
0.5
 72
     1
 11
143.54900000000001
 21
9.1078600000000005
 31
0.0
  0
TEXT
  5
19D
  8
_________2
 62
     7
 10
135.349625
 20
-0.8926299999999999
 30
0.0
 40
3.9357000000000002
  1
VLKV8CDS
 41
0.5
 72
     1
 11
143.54900000000001
 21
-0.8926299999999999
 31
0.0
  0
TEXT
  5
19E
  8
_________2
 62
     7
 10
24.5868
 20
0.707283
 30
0.0
 40
3.9357000000000002
  1
（社）日本水道協会認証品
 41
0.5
  0
TEXT
  5
19F
  8
_________2
 62
     7
 10
109.1779999999999
 20
24.2257
 30
0.0
 40
3.9357000000000002
  1
ボラ　キッチン用立水栓
 41
0.5
  0
TEXT
  5
1A0
  8
_________2
 62
     7
 10
39.425300333333333
 20
13.603
 30
0.0
 40
3.6545800000000002
  1
早川
 41
0.5
 72
     1
 11
41.313499999999998
 21
13.603
 31
0.0
  0
TEXT
  5
1A1
  8
_________2
 62
     7
 10
20.789690666666662
 20
13.603
 30
0.0
 40
3.6545800000000002
  1
石原
 41
0.5
 72
     1
 11
22.738800000000001
 21
13.603
 31
0.0
  0
TEXT
  5
1A2
  8
_________2
 62
     7
 10
67.7851
 20
13.2179
 30
0.0
 40
3.6545800000000002
  1
13.06.04
 41
0.5
  0
TEXT
  5
1A3
  8
_________2
 62
     7
 10
66.593100000000007
 20
19.410799999999991
 30
0.0
 40
3.0923400000000001
  1
日付
 41
0.5
  0
TEXT
  5
1A4
  8
_________2
 62
     7
 10
29.639399999999998
 20
19.410799999999991
 30
0.0
 40
3.0923400000000001
  1
検図
 41
0.5
  0
TEXT
  5
1A5
  8
_________2
 62
     7
 10
18.021100000000001
 20
5.21143
 30
0.0
 40
3.0923400000000001
  1
備考
 41
0.5
  0
TEXT
  5
1A6
  8
_________2
 62
     7
 10
18.021100000000001
 20
19.410799999999991
 30
0.0
 40
3.0923400000000001
  1
製図
 41
0.5
  0
TEXT
  5
1A7
  8
_________2
 62
     7
 10
23.788465333333338
 20
27.936800000000002
 30
0.0
 40
4.4979399999999989
  1
セラトレーディング株式会社
 41
0.5
 72
     1
 11
41.180500000000002
 21
27.936800000000002
 31
0.0
  0
LINE
  5
1A8
  8
_________2
 62
     7
 10
183.55099999999999
 20
-4.0910799999999998
 30
0.0
 11
17.049499999999998
 21
-4.0910799999999998
 31
0.0
  0
LINE
  5
1A9
  8
_________2
 62
     7
 10
17.049499999999998
 20
-4.0910799999999998
 30
0.0
 11
17.049499999999998
 21
258.911
 31
0.0
  0
LINE
  5
1AA
  8
_________2
 62
     7
 10
17.049499999999998
 20
258.911
 30
0.0
 11
183.55099999999999
 21
258.911
 31
0.0
  0
LINE
  5
1AB
  8
_________2
 62
     7
 10
183.55099999999999
 20
258.911
 30
0.0
 11
183.55099999999999
 21
-4.0910799999999998
 31
0.0
  0
LINE
  5
1AC
  8
_________2
 62
     7
 10
65.549199999999999
 20
9.4089600000000004
 30
0.0
 11
65.549199999999999
 21
35.908799999999999
 31
0.0
  0
LINE
  5
1AD
  8
_________2
 62
     7
 10
84.549700000000016
 20
9.4089600000000004
 30
0.0
 11
84.549700000000016
 21
35.908799999999999
 31
0.0
  0
LINE
  5
1AE
  8
_________2
 62
     7
 10
103.55
 20
-4.0910799999999998
 30
0.0
 11
103.55
 21
35.908799999999999
 31
0.0
  0
LINE
  5
1AF
  8
_________2
 62
     7
 10
28.549299999999992
 20
9.4089600000000004
 30
0.0
 11
28.549299999999992
 21
23.409199999999998
 31
0.0
  0
LINE
  5
1B0
  8
_________2
 62
     7
 10
17.049499999999998
 20
9.4089600000000004
 30
0.0
 11
103.55
 21
9.4089600000000004
 31
0.0
  0
LINE
  5
1B1
  8
_________2
 62
     7
 10
17.049499999999998
 20
23.409199999999998
 30
0.0
 11
103.55
 21
23.409199999999998
 31
0.0
  0
LINE
  5
1B2
  8
_________2
 62
     7
 10
103.55
 20
15.9085
 30
0.0
 11
183.55099999999999
 21
15.9085
 31
0.0
  0
LINE
  5
1B3
  8
_________2
 62
     7
 10
17.049499999999998
 20
35.908799999999999
 30
0.0
 11
183.55099999999999
 21
35.908799999999999
 31
0.0
  0
TEXT
  5
1B4
  8
_________2
 62
     7
 10
141.05480999999989
 20
39.068699999999993
 30
0.0
 40
3.9357000000000002
  1
注：色番号はカタログを参照ください
 41
0.5
 72
     2
 11
180.54300000000001
 21
39.068699999999993
 31
0.0
  0
ENDSEC
  0
EOF
