  0
SECTION
  2
HEADER
  9
$ACADVER
  1
AC1009
  9
$INSBASE
 10
0.0
 20
0.0
 30
0.0
  9
$EXTMIN
 10
-104.794
 20
0.176045
 30
0.0
  9
$EXTMAX
 10
315.209
 20
297.178
 30
0.0
  9
$LIMMIN
 10
0.0
 20
0.0
  9
$LIMMAX
 10
12.0
 20
9.0
  9
$ORTHOMODE
 70
     0
  9
$REGENMODE
 70
     1
  9
$FILLMODE
 70
     1
  9
$QTEXTMODE
 70
     0
  9
$MIRRTEXT
 70
     1
  9
$DRAGMODE
 70
     2
  9
$LTSCALE
 40
1.0
  9
$OSMODE
 70
    37
  9
$ATTMODE
 70
     1
  9
$TEXTSIZE
 40
0.0
  9
$TRACEWID
 40
0.05
  9
$TEXTSTYLE
  7
STANDARD
  9
$CLAYER
  8
0
  9
$CELTYPE
  6
CONTINUOUS
  9
$CECOLOR
 62
   256
  9
$DIMSCALE
 40
1.0
  9
$DIMASZ
 40
0.18
  9
$DIMEXO
 40
0.0625
  9
$DIMDLI
 40
0.38
  9
$DIMRND
 40
0.0
  9
$DIMDLE
 40
0.0
  9
$DIMEXE
 40
0.18
  9
$DIMTP
 40
0.0
  9
$DIMTM
 40
0.0
  9
$DIMTXT
 40
0.18
  9
$DIMCEN
 40
0.09
  9
$DIMTSZ
 40
0.0
  9
$DIMTOL
 70
     0
  9
$DIMLIM
 70
     0
  9
$DIMTIH
 70
     1
  9
$DIMTOH
 70
     1
  9
$DIMSE1
 70
     0
  9
$DIMSE2
 70
     0
  9
$DIMTAD
 70
     0
  9
$DIMZIN
 70
     0
  9
$DIMBLK
  1

  9
$DIMASO
 70
     1
  9
$DIMSHO
 70
     1
  9
$DIMPOST
  1

  9
$DIMAPOST
  1

  9
$DIMALT
 70
     0
  9
$DIMALTD
 70
     2
  9
$DIMALTF
 40
25.399999999999999
  9
$DIMLFAC
 40
1.0
  9
$DIMTOFL
 70
     0
  9
$DIMTVP
 40
0.0
  9
$DIMTIX
 70
     0
  9
$DIMSOXD
 70
     0
  9
$DIMSAH
 70
     0
  9
$DIMBLK1
  1

  9
$DIMBLK2
  1

  9
$DIMSTYLE
  2
STANDARD
  9
$DIMCLRD
 70
     0
  9
$DIMCLRE
 70
     0
  9
$DIMCLRT
 70
     0
  9
$DIMTFAC
 40
1.0
  9
$DIMGAP
 40
0.09
  9
$LUNITS
 70
     2
  9
$LUPREC
 70
     4
  9
$SKETCHINC
 40
0.1
  9
$FILLETRAD
 40
0.0
  9
$AUNITS
 70
     0
  9
$AUPREC
 70
     0
  9
$MENU
  1
.
  9
$ELEVATION
 40
0.0
  9
$PELEVATION
 40
0.0
  9
$THICKNESS
 40
0.0
  9
$LIMCHECK
 70
     0
  9
$BLIPMODE
 70
     0
  9
$CHAMFERA
 40
0.0
  9
$CHAMFERB
 40
0.0
  9
$SKPOLY
 70
     0
  9
$TDCREATE
 40
2444972.375
  9
$TDUPDATE
 40
2458675.2509232061
  9
$TDINDWG
 40
0.0000360995
  9
$TDUSRTIMER
 40
0.0000360995
  9
$USRTIMER
 70
     1
  9
$ANGBASE
 50
0.0
  9
$ANGDIR
 70
     0
  9
$PDMODE
 70
     0
  9
$PDSIZE
 40
0.0
  9
$PLINEWID
 40
0.0
  9
$COORDS
 70
     1
  9
$SPLFRAME
 70
     0
  9
$SPLINETYPE
 70
     6
  9
$SPLINESEGS
 70
     8
  9
$ATTDIA
 70
     1
  9
$ATTREQ
 70
     1
  9
$HANDLING
 70
     1
  9
$HANDSEED
  5
3A1
  9
$SURFTAB1
 70
     6
  9
$SURFTAB2
 70
     6
  9
$SURFTYPE
 70
     6
  9
$SURFU
 70
     6
  9
$SURFV
 70
     6
  9
$UCSNAME
  2

  9
$UCSORG
 10
0.0
 20
0.0
 30
0.0
  9
$UCSXDIR
 10
1.0
 20
0.0
 30
0.0
  9
$UCSYDIR
 10
0.0
 20
1.0
 30
0.0
  9
$PUCSNAME
  2

  9
$PUCSORG
 10
0.0
 20
0.0
 30
0.0
  9
$PUCSXDIR
 10
1.0
 20
0.0
 30
0.0
  9
$PUCSYDIR
 10
0.0
 20
1.0
 30
0.0
  9
$USERI1
 70
     0
  9
$USERI2
 70
     0
  9
$USERI3
 70
     0
  9
$USERI4
 70
     0
  9
$USERI5
 70
     0
  9
$USERR1
 40
0.0
  9
$USERR2
 40
0.0
  9
$USERR3
 40
0.0
  9
$USERR4
 40
0.0
  9
$USERR5
 40
0.0
  9
$WORLDVIEW
 70
     1
  9
$SHADEDGE
 70
     3
  9
$SHADEDIF
 70
    70
  9
$TILEMODE
 70
     1
  9
$MAXACTVP
 70
    48
  9
$PLIMCHECK
 70
     0
  9
$PEXTMIN
 10
1.0000000000000000E+020
 20
1.0000000000000000E+020
 30
1.0000000000000000E+020
  9
$PEXTMAX
 10
-1.0000000000000000E+020
 20
-1.0000000000000000E+020
 30
-1.0000000000000000E+020
  9
$PLIMMIN
 10
0.0
 20
0.0
  9
$PLIMMAX
 10
12.0
 20
9.0
  9
$UNITMODE
 70
     0
  9
$VISRETAIN
 70
     1
  9
$PLINEGEN
 70
     0
  9
$PSLTSCALE
 70
     1
  0
ENDSEC
  0
SECTION
  2
TABLES
  0
TABLE
  2
VPORT
 70
     1
  0
VPORT
  2
*ACTIVE
 70
     0
 10
0.0
 20
0.0
 11
1.0
 21
1.0
 12
195.84271114783351
 22
148.589
 13
0.0
 23
0.0
 14
1.0
 24
1.0
 15
0.0
 25
0.0
 16
0.0
 26
0.0
 36
1.0
 17
0.0
 27
0.0
 37
0.0
 40
281.11539623648741
 41
2.298642533936651
 42
50.0
 43
0.0
 44
0.0
 50
0.0
 51
0.0
 71
     0
 72
   100
 73
     1
 74
     1
 75
     0
 76
     0
 77
     0
 78
     0
  0
ENDTAB
  0
TABLE
  2
LTYPE
 70
     3
  0
LTYPE
  2
CONTINUOUS
 70
     0
  3
Solid line
 72
    65
 73
     0
 40
0.0
  0
LTYPE
  2
AIGENLINE001
 70
     0
  3
generate AI->DXF Converter
 72
    65
 73
     4
 40
5.8561449999999988
 49
3.5278
 49
-0.776115
 49
0.776115
 49
-0.776115
  0
LTYPE
  2
AIGENLINE002
 70
     0
  3
generate AI->DXF Converter
 72
    65
 73
     6
 40
7.4083750000000004
 49
3.5278
 49
-0.776115
 49
0.776115
 49
-0.776115
 49
0.776115
 49
-0.776115
  0
ENDTAB
  0
TABLE
  2
LAYER
 70
     4
  0
LAYER
  2
0
 70
     0
 62
     7
  6
CONTINUOUS
  0
LAYER
  2
____
 70
     0
 62
     7
  6
CONTINUOUS
  0
LAYER
  2
_________1
 70
     0
 62
     7
  6
CONTINUOUS
  0
LAYER
  2
_________2
 70
     0
 62
     7
  6
CONTINUOUS
  0
ENDTAB
  0
TABLE
  2
STYLE
 70
     1
  0
STYLE
  2
STANDARD
 70
     0
 40
0.0
 41
0.0
 50
0.0
 71
     0
 42
0.0
  3
TXT
  4
EXTFONT.SHX
  0
ENDTAB
  0
TABLE
  2
VIEW
 70
     0
  0
ENDTAB
  0
TABLE
  2
UCS
 70
     0
  0
ENDTAB
  0
TABLE
  2
APPID
 70
     3
  0
APPID
  2
ACAD
 70
     0
  0
APPID
  2
ACAD_NAV_VCDISPLAY
 70
     0
  0
APPID
  2
ACAD_MLEADERVER
 70
     0
  0
ENDTAB
  0
TABLE
  2
DIMSTYLE
 70
     1
  0
DIMSTYLE
  2
STANDARD
 70
     0
  3

  4

  5

  6

  7

 40
1.0
 41
0.18
 42
0.0625
 43
0.38
 44
0.18
 45
0.0
 46
0.0
 47
0.0
 48
0.0
140
0.18
141
0.09
142
0.0
143
25.399999999999999
144
1.0
145
0.0
146
1.0
147
0.09
 71
     0
 72
     0
 73
     1
 74
     1
 75
     0
 76
     0
 77
     0
 78
     0
170
     0
171
     2
172
     0
173
     0
174
     0
175
     0
176
     0
177
     0
178
     0
  0
ENDTAB
  0
ENDSEC
  0
SECTION
  2
BLOCKS
  0
BLOCK
  8
0
  2
$MODEL_SPACE
 70
     0
 10
0.0
 20
0.0
 30
0.0
  3
$MODEL_SPACE
  1

  0
ENDBLK
  5
1A
  8
0
  0
BLOCK
 67
     1
  8
0
  2
$PAPER_SPACE
 70
     0
 10
0.0
 20
0.0
 30
0.0
  3
$PAPER_SPACE
  1

  0
ENDBLK
  5
17
 67
     1
  8
0
  0
BLOCK
  8
_________1
  2
AIGNBL02030005
 70
     0
 10
0.0
 20
0.0
 30
0.0
  3
AIGNBL02030005
  1

  0
LINE
  5
27
  8
_________1
 62
     7
 10
-31.0641
 20
39.010800000000003
 30
0.0
 11
-33.274099999999997
 21
38.41790000000001
 31
0.0
  0
LINE
  5
28
  8
_________1
 62
     7
 10
-33.274099999999997
 20
38.41790000000001
 30
0.0
 11
-31.0641
 21
37.8264
 31
0.0
  0
LINE
  5
29
  8
_________1
 62
     7
 10
-31.0641
 20
37.8264
 30
0.0
 11
-31.0641
 21
39.010800000000003
 31
0.0
  0
LINE
  5
2A
  8
_________1
 62
     7
 10
-38.817900000000002
 20
37.845599999999997
 30
0.0
 11
-36.607100000000003
 21
38.437199999999997
 31
0.0
  0
LINE
  5
2B
  8
_________1
 62
     7
 10
-36.607100000000003
 20
38.437199999999997
 30
0.0
 11
-38.817900000000002
 21
39.030099999999997
 31
0.0
  0
LINE
  5
2C
  8
_________1
 62
     7
 10
-38.817900000000002
 20
39.030099999999997
 30
0.0
 11
-38.817900000000002
 21
37.845599999999997
 31
0.0
  0
LINE
  5
2D
  8
_________1
 62
     7
 10
-45.097799999999999
 20
38.41790000000001
 30
0.0
 11
-28.812000000000001
 21
38.41790000000001
 31
0.0
  0
ENDBLK
  5
2E
  8
_________1
  0
BLOCK
  8
_________1
  2
AIGNBL02020004
 70
     0
 10
0.0
 20
0.0
 30
0.0
  3
AIGNBL02020004
  1

  0
INSERT
  5
31
  8
_________1
 62
     7
  2
AIGNBL02030005
 10
0.0
 20
0.0
 30
0.0
  0
ENDBLK
  5
32
  8
_________1
  0
BLOCK
  8
_________1
  2
AIGNBL02020008
 70
     0
 10
0.0
 20
0.0
 30
0.0
  3
AIGNBL02020008
  1

  0
LINE
  5
35
  8
_________1
 62
     7
 10
82.347399999999993
 20
105.71299999999999
 30
0.0
 11
80.137
 21
105.12
 31
0.0
  0
LINE
  5
36
  8
_________1
 62
     7
 10
80.137
 20
105.12
 30
0.0
 11
82.347399999999993
 21
104.52800000000001
 31
0.0
  0
LINE
  5
37
  8
_________1
 62
     7
 10
82.347399999999993
 20
104.52800000000001
 30
0.0
 11
82.347399999999993
 21
105.71299999999999
 31
0.0
  0
LINE
  5
38
  8
_________1
 62
     7
 10
87.888000000000005
 20
104.548
 30
0.0
 11
90.098399999999998
 21
105.139
 31
0.0
  0
LINE
  5
39
  8
_________1
 62
     7
 10
90.098399999999998
 20
105.139
 30
0.0
 11
87.888000000000005
 21
105.732
 31
0.0
  0
LINE
  5
3A
  8
_________1
 62
     7
 10
87.888000000000005
 20
105.732
 30
0.0
 11
87.888000000000005
 21
104.548
 31
0.0
  0
LINE
  5
3B
  8
_________1
 62
     7
 10
80.135199999999983
 20
105.12
 30
0.0
 11
90.100300000000004
 21
105.12
 31
0.0
  0
ENDBLK
  5
3C
  8
_________1
  0
BLOCK
  8
_________1
  2
AIGNBL02010002
 70
     0
 10
0.0
 20
0.0
 30
0.0
  3
AIGNBL02010002
  1

  0
LINE
  5
3F
  8
_________1
 62
     7
 10
-33.274099999999997
 20
48.2378
 30
0.0
 11
-36.607100000000003
 21
48.2378
 31
0.0
  0
LINE
  5
40
  8
_________1
 62
     7
 10
-33.274099999999997
 20
44.904999999999987
 30
0.0
 11
-36.607100000000003
 21
44.904999999999987
 31
0.0
  0
LINE
  5
41
  8
_________1
 62
     7
 10
-37.402299999999997
 20
60.359099999999998
 30
0.0
 11
-37.402299999999997
 21
58.106699999999996
 31
0.0
  0
LINE
  5
42
  8
_________1
 62
     7
 10
-37.402299999999997
 20
60.359099999999998
 30
0.0
 11
-34.941099999999999
 21
60.359099999999998
 31
0.0
  0
LINE
  5
43
  8
_________1
 62
     7
 10
-37.037100000000002
 20
57.742899999999999
 30
0.0
 11
-37.037100000000002
 21
54.7746
 31
0.0
  0
LINE
  5
44
  8
_________1
 62
     7
 10
-37.037100000000002
 20
57.742899999999999
 30
0.0
 11
-37.402299999999997
 21
58.106699999999996
 31
0.0
  0
LINE
  5
45
  8
_________1
 62
     7
 10
-35.595599999999997
 20
57.742899999999999
 30
0.0
 11
-35.595599999999997
 21
54.7746
 31
0.0
  0
LINE
  5
46
  8
_________1
 62
     7
 10
-36.116500000000002
 20
57.742899999999999
 30
0.0
 11
-36.116500000000002
 21
54.7746
 31
0.0
  0
LINE
  5
47
  8
_________1
 62
     7
 10
-36.116500000000002
 20
57.742899999999999
 30
0.0
 11
-37.037100000000002
 21
57.742899999999999
 31
0.0
  0
LINE
  5
48
  8
_________1
 62
     7
 10
-34.941099999999999
 20
57.742899999999999
 30
0.0
 11
-35.595599999999997
 21
57.742899999999999
 31
0.0
  0
ARC
  5
49
  8
_________1
 62
     7
 10
-37.013966000000003
 20
54.194749000000002
 30
0.0
 40
0.624292
 50
181.9248319999999
 51
267.87841800000001
  0
ARC
  5
4A
  8
_________1
 62
     7
 10
-37.014082999999999
 20
54.150784999999992
 30
0.0
 40
0.624247
 50
92.111043999999993
 51
177.888926
  0
LINE
  5
4B
  8
_________1
 62
     7
 10
-36.116500000000002
 20
54.7746
 30
0.0
 11
-37.037100000000002
 21
54.7746
 31
0.0
  0
LINE
  5
4C
  8
_________1
 62
     7
 10
-34.941099999999999
 20
54.7746
 30
0.0
 11
-35.595599999999997
 21
54.7746
 31
0.0
  0
LINE
  5
4D
  8
_________1
 62
     7
 10
-36.607100000000003
 20
44.904999999999987
 30
0.0
 11
-36.607100000000003
 21
53.570900000000002
 31
0.0
  0
LINE
  5
4E
  8
_________1
 62
     7
 10
-34.941099999999999
 20
53.570900000000002
 30
0.0
 11
-37.037100000000002
 21
53.570900000000002
 31
0.0
  0
LINE
  5
4F
  8
_________1
 62
     7
 10
-32.480400000000003
 20
60.359099999999998
 30
0.0
 11
-32.480400000000003
 21
58.106699999999996
 31
0.0
  0
LINE
  5
50
  8
_________1
 62
     7
 10
-32.480400000000003
 20
60.359099999999998
 30
0.0
 11
-34.941099999999999
 21
60.359099999999998
 31
0.0
  0
LINE
  5
51
  8
_________1
 62
     7
 10
-32.845100000000002
 20
57.742899999999999
 30
0.0
 11
-32.845100000000002
 21
54.7746
 31
0.0
  0
LINE
  5
52
  8
_________1
 62
     7
 10
-32.845100000000002
 20
57.742899999999999
 30
0.0
 11
-32.480400000000003
 21
58.106699999999996
 31
0.0
  0
LINE
  5
53
  8
_________1
 62
     7
 10
-34.285600000000002
 20
57.742899999999999
 30
0.0
 11
-34.285600000000002
 21
54.7746
 31
0.0
  0
LINE
  5
54
  8
_________1
 62
     7
 10
-33.764699999999998
 20
57.742899999999999
 30
0.0
 11
-33.764699999999998
 21
54.7746
 31
0.0
  0
LINE
  5
55
  8
_________1
 62
     7
 10
-33.764699999999998
 20
57.742899999999999
 30
0.0
 11
-32.845100000000002
 21
57.742899999999999
 31
0.0
  0
LINE
  5
56
  8
_________1
 62
     7
 10
-34.941099999999999
 20
57.742899999999999
 30
0.0
 11
-34.285600000000002
 21
57.742899999999999
 31
0.0
  0
ARC
  5
57
  8
_________1
 62
     7
 10
-32.868017000000002
 20
54.149928000000003
 30
0.0
 40
0.625103
 50
2.1868039999999991
 51
87.895259999999993
  0
ARC
  5
58
  8
_________1
 62
     7
 10
-32.869253999999998
 20
54.196721999999987
 30
0.0
 40
0.626305
 50
272.21396800000002
 51
357.90074800000002
  0
LINE
  5
59
  8
_________1
 62
     7
 10
-33.764699999999998
 20
54.7746
 30
0.0
 11
-32.845100000000002
 21
54.7746
 31
0.0
  0
LINE
  5
5A
  8
_________1
 62
     7
 10
-34.941099999999999
 20
54.7746
 30
0.0
 11
-34.285600000000002
 21
54.7746
 31
0.0
  0
LINE
  5
5B
  8
_________1
 62
     7
 10
-33.274099999999997
 20
44.904999999999987
 30
0.0
 11
-33.274099999999997
 21
53.570900000000002
 31
0.0
  0
LINE
  5
5C
  8
_________1
 62
     7
 10
-34.941099999999999
 20
53.570900000000002
 30
0.0
 11
-32.845100000000002
 21
53.570900000000002
 31
0.0
  0
ENDBLK
  5
5D
  8
_________1
  0
BLOCK
  8
_________1
  2
AIGNBL02010003
 70
     0
 10
0.0
 20
0.0
 30
0.0
  3
AIGNBL02010003
  1

  0
INSERT
  5
60
  8
_________1
 62
     7
  2
AIGNBL02020004
 10
0.0
 20
0.0
 30
0.0
  0
ENDBLK
  5
61
  8
_________1
  0
BLOCK
  8
_________1
  2
AIGNBL02010006
 70
     0
 10
0.0
 20
0.0
 30
0.0
  3
AIGNBL02010006
  1

  0
LINE
  5
64
  8
_________1
 62
     7
 10
-50.600200000000001
 20
108.295
 30
0.0
 11
-51.192399999999999
 21
110.506
 31
0.0
  0
LINE
  5
65
  8
_________1
 62
     7
 10
-51.192399999999999
 20
110.506
 30
0.0
 11
-51.7851
 21
108.295
 31
0.0
  0
LINE
  5
66
  8
_________1
 62
     7
 10
-51.7851
 20
108.295
 30
0.0
 11
-50.600200000000001
 21
108.295
 31
0.0
  0
LINE
  5
67
  8
_________1
 62
     7
 10
-51.765300000000003
 20
103.068
 30
0.0
 11
-51.173099999999991
 21
100.857
 31
0.0
  0
LINE
  5
68
  8
_________1
 62
     7
 10
-51.173099999999991
 20
100.857
 30
0.0
 11
-50.580899999999993
 21
103.068
 31
0.0
  0
LINE
  5
69
  8
_________1
 62
     7
 10
-50.580899999999993
 20
103.068
 30
0.0
 11
-51.765300000000003
 21
103.068
 31
0.0
  0
LINE
  5
6A
  8
_________1
 62
     7
 10
-51.192399999999999
 20
110.506
 30
0.0
 11
-51.192399999999999
 21
100.855
 31
0.0
  0
ENDBLK
  5
6B
  8
_________1
  0
BLOCK
  8
_________1
  2
AIGNBL02010007
 70
     0
 10
0.0
 20
0.0
 30
0.0
  3
AIGNBL02010007
  1

  0
INSERT
  5
6E
  8
_________1
 62
     7
  2
AIGNBL02020008
 10
0.0
 20
0.0
 30
0.0
  0
ENDBLK
  5
6F
  8
_________1
  0
BLOCK
  8
_________1
  2
AIGNBL02010009
 70
     0
 10
0.0
 20
0.0
 30
0.0
  3
AIGNBL02010009
  1

  0
LINE
  5
72
  8
_________1
 62
     7
 10
86.743399999999994
 20
48.2378
 30
0.0
 11
83.410399999999996
 21
48.2378
 31
0.0
  0
LINE
  5
73
  8
_________1
 62
     7
 10
86.743399999999994
 20
44.904999999999987
 30
0.0
 11
83.410399999999996
 21
44.904999999999987
 31
0.0
  0
LINE
  5
74
  8
_________1
 62
     7
 10
82.616699999999994
 20
60.358499999999992
 30
0.0
 11
82.616699999999994
 21
58.106699999999996
 31
0.0
  0
LINE
  5
75
  8
_________1
 62
     7
 10
82.616699999999994
 20
60.358499999999992
 30
0.0
 11
85.076800000000006
 21
60.358499999999992
 31
0.0
  0
LINE
  5
76
  8
_________1
 62
     7
 10
82.981300000000005
 20
57.742899999999999
 30
0.0
 11
82.981300000000005
 21
54.7746
 31
0.0
  0
LINE
  5
77
  8
_________1
 62
     7
 10
82.981300000000005
 20
57.742899999999999
 30
0.0
 11
82.616699999999994
 21
58.106699999999996
 31
0.0
  0
LINE
  5
78
  8
_________1
 62
     7
 10
84.421899999999994
 20
57.742899999999999
 30
0.0
 11
84.421899999999994
 21
54.7746
 31
0.0
  0
LINE
  5
79
  8
_________1
 62
     7
 10
83.901000000000025
 20
57.742899999999999
 30
0.0
 11
83.901000000000025
 21
54.7746
 31
0.0
  0
LINE
  5
7A
  8
_________1
 62
     7
 10
83.901000000000025
 20
57.742899999999999
 30
0.0
 11
82.981300000000005
 21
57.742899999999999
 31
0.0
  0
LINE
  5
7B
  8
_________1
 62
     7
 10
85.076800000000006
 20
57.742899999999999
 30
0.0
 11
84.421899999999994
 21
57.742899999999999
 31
0.0
  0
ARC
  5
7C
  8
_________1
 62
     7
 10
83.004266999999999
 20
54.195540000000001
 30
0.0
 40
0.6250770000000001
 50
182.18462699999989
 51
267.89747699999998
  0
ARC
  5
7D
  8
_________1
 62
     7
 10
83.005542999999989
 20
54.148756000000013
 30
0.0
 40
0.62632
 50
92.215244000000013
 51
177.89943299999999
  0
LINE
  5
7E
  8
_________1
 62
     7
 10
83.901000000000025
 20
54.7746
 30
0.0
 11
82.981300000000005
 21
54.7746
 31
0.0
  0
LINE
  5
7F
  8
_________1
 62
     7
 10
85.076800000000006
 20
54.7746
 30
0.0
 11
84.421899999999994
 21
54.7746
 31
0.0
  0
LINE
  5
80
  8
_________1
 62
     7
 10
83.410399999999996
 20
44.904999999999987
 30
0.0
 11
83.410399999999996
 21
53.570900000000002
 31
0.0
  0
LINE
  5
81
  8
_________1
 62
     7
 10
85.076800000000006
 20
53.570900000000002
 30
0.0
 11
82.981300000000005
 21
53.570900000000002
 31
0.0
  0
LINE
  5
82
  8
_________1
 62
     7
 10
87.537199999999984
 20
60.358499999999992
 30
0.0
 11
87.537199999999984
 21
58.106699999999996
 31
0.0
  0
LINE
  5
83
  8
_________1
 62
     7
 10
87.537199999999984
 20
60.358499999999992
 30
0.0
 11
85.076800000000006
 21
60.358499999999992
 31
0.0
  0
LINE
  5
84
  8
_________1
 62
     7
 10
87.172499999999985
 20
57.742899999999999
 30
0.0
 11
87.172499999999985
 21
54.7746
 31
0.0
  0
LINE
  5
85
  8
_________1
 62
     7
 10
87.172499999999985
 20
57.742899999999999
 30
0.0
 11
87.537199999999984
 21
58.106699999999996
 31
0.0
  0
LINE
  5
86
  8
_________1
 62
     7
 10
85.731899999999996
 20
57.742899999999999
 30
0.0
 11
85.731899999999996
 21
54.7746
 31
0.0
  0
LINE
  5
87
  8
_________1
 62
     7
 10
86.252799999999993
 20
57.742899999999999
 30
0.0
 11
86.252799999999993
 21
54.7746
 31
0.0
  0
LINE
  5
88
  8
_________1
 62
     7
 10
86.252799999999993
 20
57.742899999999999
 30
0.0
 11
87.172499999999985
 21
57.742899999999999
 31
0.0
  0
LINE
  5
89
  8
_________1
 62
     7
 10
85.076800000000006
 20
57.742899999999999
 30
0.0
 11
85.731899999999996
 21
57.742899999999999
 31
0.0
  0
ARC
  5
8A
  8
_________1
 62
     7
 10
87.149406999999997
 20
54.14988000000001
 30
0.0
 40
0.625155
 50
2.001423
 51
87.883860999999996
  0
ARC
  5
8B
  8
_________1
 62
     7
 10
87.150343999999976
 20
54.194754000000003
 30
0.0
 40
0.6242630000000001
 50
272.03317500000003
 51
357.88476100000003
  0
LINE
  5
8C
  8
_________1
 62
     7
 10
86.252799999999993
 20
54.7746
 30
0.0
 11
87.172499999999985
 21
54.7746
 31
0.0
  0
LINE
  5
8D
  8
_________1
 62
     7
 10
85.076800000000006
 20
54.7746
 30
0.0
 11
85.731899999999996
 21
54.7746
 31
0.0
  0
LINE
  5
8E
  8
_________1
 62
     7
 10
86.743399999999994
 20
44.904999999999987
 30
0.0
 11
86.743399999999994
 21
53.570900000000002
 31
0.0
  0
LINE
  5
8F
  8
_________1
 62
     7
 10
85.076800000000006
 20
53.570900000000002
 30
0.0
 11
87.172499999999985
 21
53.570900000000002
 31
0.0
  0
LINE
  5
90
  8
_________1
 62
     7
 10
87.076899999999995
 20
90.332699999999988
 30
0.0
 11
86.387
 21
91.022800000000004
 31
0.0
  0
LINE
  5
91
  8
_________1
 62
     7
 10
83.766800000000003
 20
91.022800000000004
 30
0.0
 11
83.076899999999995
 21
90.332699999999988
 31
0.0
  0
LINE
  5
92
  8
_________1
 62
     7
 10
87.076899999999995
 20
88.864699999999999
 30
0.0
 11
84.918899999999994
 21
91.022800000000004
 31
0.0
  0
LINE
  5
93
  8
_________1
 62
     7
 10
85.234999999999999
 20
91.022800000000004
 30
0.0
 11
83.076899999999995
 21
88.864699999999999
 31
0.0
  0
LINE
  5
94
  8
_________1
 62
     7
 10
87.076899999999995
 20
87.396399999999986
 30
0.0
 11
83.450699999999983
 21
91.022800000000004
 31
0.0
  0
LINE
  5
95
  8
_________1
 62
     7
 10
86.702899999999985
 20
91.022800000000004
 30
0.0
 11
83.076899999999995
 21
87.396399999999986
 31
0.0
  0
LINE
  5
96
  8
_________1
 62
     7
 10
86.115899999999996
 20
86.889300000000006
 30
0.0
 11
83.076899999999995
 21
89.928600000000003
 31
0.0
  0
LINE
  5
97
  8
_________1
 62
     7
 10
87.076899999999995
 20
89.928600000000003
 30
0.0
 11
84.038799999999995
 21
86.889300000000006
 31
0.0
  0
LINE
  5
98
  8
_________1
 62
     7
 10
84.647900000000007
 20
86.889300000000006
 30
0.0
 11
83.076899999999995
 21
88.460300000000004
 31
0.0
  0
LINE
  5
99
  8
_________1
 62
     7
 10
87.076899999999995
 20
88.460300000000004
 30
0.0
 11
85.506799999999984
 21
86.889300000000006
 31
0.0
  0
LINE
  5
9A
  8
_________1
 62
     7
 10
87.076899999999995
 20
60.358499999999992
 30
0.0
 11
87.076899999999995
 21
73.834000000000003
 31
0.0
  0
LINE
  5
9B
  8
_________1
 62
     7
 10
87.076899999999995
 20
75.558300000000003
 30
0.0
 11
87.076899999999995
 21
91.022800000000004
 31
0.0
  0
LINE
  5
9C
  8
_________1
 62
     7
 10
83.076899999999995
 20
60.358499999999992
 30
0.0
 11
83.076899999999995
 21
74.894099999999995
 31
0.0
  0
LINE
  5
9D
  8
_________1
 62
     7
 10
83.076899999999995
 20
76.619100000000003
 30
0.0
 11
83.076899999999995
 21
91.022800000000004
 31
0.0
  0
ENDBLK
  5
9E
  8
_________1
  0
BLOCK
  8
_________1
  2
AIGNBL0201000A
 70
     0
 10
0.0
 20
0.0
 30
0.0
  3
AIGNBL0201000A
  1

  0
LINE
  5
A1
  8
_________1
 62
     7
 10
82.866100000000003
 20
114.31100000000001
 30
0.0
 11
85.076800000000006
 21
114.90300000000001
 31
0.0
  0
LINE
  5
A2
  8
_________1
 62
     7
 10
85.076800000000006
 20
114.90300000000001
 30
0.0
 11
82.866100000000003
 21
115.495
 31
0.0
  0
LINE
  5
A3
  8
_________1
 62
     7
 10
82.866100000000003
 20
115.495
 30
0.0
 11
82.866100000000003
 21
114.31100000000001
 31
0.0
  0
LINE
  5
A4
  8
_________1
 62
     7
 10
97.864800000000002
 20
114.31100000000001
 30
0.0
 11
100.075
 21
114.90300000000001
 31
0.0
  0
LINE
  5
A5
  8
_________1
 62
     7
 10
100.075
 20
114.90300000000001
 30
0.0
 11
97.864800000000002
 21
115.495
 31
0.0
  0
LINE
  5
A6
  8
_________1
 62
     7
 10
97.864800000000002
 20
115.495
 30
0.0
 11
97.864800000000002
 21
114.31100000000001
 31
0.0
  0
LINE
  5
A7
  8
_________1
 62
     7
 10
87.287599999999983
 20
115.48099999999999
 30
0.0
 11
85.076800000000006
 21
114.88800000000001
 31
0.0
  0
LINE
  5
A8
  8
_________1
 62
     7
 10
85.076800000000006
 20
114.88800000000001
 30
0.0
 11
87.287599999999983
 21
114.29600000000001
 31
0.0
  0
LINE
  5
A9
  8
_________1
 62
     7
 10
87.287599999999983
 20
114.29600000000001
 30
0.0
 11
87.287599999999983
 21
115.48099999999999
 31
0.0
  0
LINE
  5
AA
  8
_________1
 62
     7
 10
68.953199999999995
 20
115.48099999999999
 30
0.0
 11
66.742400000000004
 21
114.88800000000001
 31
0.0
  0
LINE
  5
AB
  8
_________1
 62
     7
 10
66.742400000000004
 20
114.88800000000001
 30
0.0
 11
68.953199999999995
 21
114.29600000000001
 31
0.0
  0
LINE
  5
AC
  8
_________1
 62
     7
 10
68.953199999999995
 20
114.29600000000001
 30
0.0
 11
68.953199999999995
 21
115.48099999999999
 31
0.0
  0
LINE
  5
AD
  8
_________1
 62
     7
 10
100.075
 20
114.88800000000001
 30
0.0
 11
66.742400000000004
 21
114.88800000000001
 31
0.0
  0
ENDBLK
  5
AE
  8
_________1
  0
BLOCK
  8
_________1
  2
AIGNBL0201000B
 70
     0
 10
0.0
 20
0.0
 30
0.0
  3
AIGNBL0201000B
  1

  0
LINE
  5
B1
  8
_________1
 62
     7
 10
111.741
 20
135.47999999999999
 30
0.0
 11
111.148
 21
137.691
 31
0.0
  0
LINE
  5
B2
  8
_________1
 62
     7
 10
111.148
 20
137.691
 30
0.0
 11
110.556
 21
135.47999999999999
 31
0.0
  0
LINE
  5
B3
  8
_________1
 62
     7
 10
110.556
 20
135.47999999999999
 30
0.0
 11
111.741
 21
135.47999999999999
 31
0.0
  0
LINE
  5
B4
  8
_________1
 62
     7
 10
110.56999999999999
 20
126.56699999999999
 30
0.0
 11
111.16200000000001
 21
124.357
 31
0.0
  0
LINE
  5
B5
  8
_________1
 62
     7
 10
111.16200000000001
 20
124.357
 30
0.0
 11
111.754
 21
126.56699999999999
 31
0.0
  0
LINE
  5
B6
  8
_________1
 62
     7
 10
111.754
 20
126.56699999999999
 30
0.0
 11
110.56999999999999
 21
126.56699999999999
 31
0.0
  0
LINE
  5
B7
  8
_________1
 62
     7
 10
111.148
 20
137.691
 30
0.0
 11
111.148
 21
124.357
 31
0.0
  0
ENDBLK
  5
B8
  8
_________1
  0
BLOCK
  8
_________1
  2
AIGNBL0201000C
 70
     0
 10
0.0
 20
0.0
 30
0.0
  3
AIGNBL0201000C
  1

  0
LINE
  5
BB
  8
_________1
 62
     7
 10
-48.605800000000002
 20
133.26599999999999
 30
0.0
 11
-48.155200000000001
 21
131.024
 31
0.0
  0
LINE
  5
BC
  8
_________1
 62
     7
 10
-48.155200000000001
 20
131.024
 30
0.0
 11
-47.424799999999991
 21
133.191
 31
0.0
  0
LINE
  5
BD
  8
_________1
 62
     7
 10
-47.424799999999991
 20
133.191
 30
0.0
 11
-48.605800000000002
 21
133.26599999999999
 31
0.0
  0
LINE
  5
BE
  8
_________1
 62
     7
 10
-37.121499999999997
 20
143.54599999999999
 30
0.0
 11
-34.941600000000001
 21
144.23699999999999
 31
0.0
  0
LINE
  5
BF
  8
_________1
 62
     7
 10
-34.941600000000001
 20
144.23699999999999
 30
0.0
 11
-37.175199999999997
 21
144.72900000000001
 31
0.0
  0
LINE
  5
C0
  8
_________1
 62
     7
 10
-37.175199999999997
 20
144.72900000000001
 30
0.0
 11
-37.121499999999997
 21
143.54599999999999
 31
0.0
  0
LINE
  5
C1
  8
_________1
 62
     7
 10
5.6634299999999991
 20
112.73399999999999
 30
0.0
 11
6.2553000000000001
 21
110.524
 31
0.0
  0
LINE
  5
C2
  8
_________1
 62
     7
 10
6.2553000000000001
 20
110.524
 30
0.0
 11
6.8473399999999991
 21
112.73399999999999
 31
0.0
  0
LINE
  5
C3
  8
_________1
 62
     7
 10
6.8473399999999991
 20
112.73399999999999
 30
0.0
 11
5.6634299999999991
 21
112.73399999999999
 31
0.0
  0
LINE
  5
C4
  8
_________1
 62
     7
 10
6.8333899999999987
 20
187.148
 30
0.0
 11
6.2415199999999986
 21
189.357
 31
0.0
  0
LINE
  5
C5
  8
_________1
 62
     7
 10
6.2415199999999986
 20
189.357
 30
0.0
 11
5.6489599999999989
 21
187.148
 31
0.0
  0
LINE
  5
C6
  8
_________1
 62
     7
 10
5.6489599999999989
 20
187.148
 30
0.0
 11
6.8333899999999987
 21
187.148
 31
0.0
  0
LINE
  5
C7
  8
_________1
 62
     7
 10
6.2480599999999988
 20
110.524
 30
0.0
 11
6.2480599999999988
 21
189.357
 31
0.0
  0
ENDBLK
  5
C8
  8
_________1
  0
BLOCK
  8
_________1
  2
AIGNBL0201000D
 70
     0
 10
0.0
 20
0.0
 30
0.0
  3
AIGNBL0201000D
  1

  0
LINE
  5
CB
  8
_________1
 62
     7
 10
55.776800000000001
 20
133.233
 30
0.0
 11
56.369
 21
131.024
 31
0.0
  0
LINE
  5
CC
  8
_________1
 62
     7
 10
56.369
 20
131.024
 30
0.0
 11
56.961199999999998
 21
133.233
 31
0.0
  0
LINE
  5
CD
  8
_________1
 62
     7
 10
56.961199999999998
 20
133.233
 30
0.0
 11
55.776800000000001
 21
133.233
 31
0.0
  0
LINE
  5
CE
  8
_________1
 62
     7
 10
56.953099999999999
 20
143.81399999999999
 30
0.0
 11
56.36140000000001
 21
146.023
 31
0.0
  0
LINE
  5
CF
  8
_________1
 62
     7
 10
56.36140000000001
 20
146.023
 30
0.0
 11
55.769199999999998
 21
143.81399999999999
 31
0.0
  0
LINE
  5
D0
  8
_________1
 62
     7
 10
55.769199999999998
 20
143.81399999999999
 30
0.0
 11
56.953099999999999
 21
143.81399999999999
 31
0.0
  0
LINE
  5
D1
  8
_________1
 62
     7
 10
56.361600000000003
 20
131.024
 30
0.0
 11
56.361600000000003
 21
146.023
 31
0.0
  0
ENDBLK
  5
D2
  8
_________1
  0
BLOCK
  8
_________1
  2
AIGNBL0201000E
 70
     0
 10
0.0
 20
0.0
 30
0.0
  3
AIGNBL0201000E
  1

  0
LINE
  5
D5
  8
_________1
 62
     7
 10
55.776800000000001
 20
112.73399999999999
 30
0.0
 11
56.369
 21
110.524
 31
0.0
  0
LINE
  5
D6
  8
_________1
 62
     7
 10
56.369
 20
110.524
 30
0.0
 11
56.961199999999998
 21
112.73399999999999
 31
0.0
  0
LINE
  5
D7
  8
_________1
 62
     7
 10
56.961199999999998
 20
112.73399999999999
 30
0.0
 11
55.776800000000001
 21
112.73399999999999
 31
0.0
  0
LINE
  5
D8
  8
_________1
 62
     7
 10
56.953099999999999
 20
128.81399999999999
 30
0.0
 11
56.36140000000001
 21
131.024
 31
0.0
  0
LINE
  5
D9
  8
_________1
 62
     7
 10
56.36140000000001
 20
131.024
 30
0.0
 11
55.769199999999998
 21
128.81399999999999
 31
0.0
  0
LINE
  5
DA
  8
_________1
 62
     7
 10
55.769199999999998
 20
128.81399999999999
 30
0.0
 11
56.953099999999999
 21
128.81399999999999
 31
0.0
  0
LINE
  5
DB
  8
_________1
 62
     7
 10
56.361600000000003
 20
110.524
 30
0.0
 11
56.361600000000003
 21
131.024
 31
0.0
  0
ENDBLK
  5
DC
  8
_________1
  0
BLOCK
  8
_________1
  2
AIGNBL0201000F
 70
     0
 10
0.0
 20
0.0
 30
0.0
  3
AIGNBL0201000F
  1

  0
LINE
  5
DF
  8
_________1
 62
     7
 10
17.0213
 20
112.73399999999999
 30
0.0
 11
17.613199999999999
 21
110.524
 31
0.0
  0
LINE
  5
E0
  8
_________1
 62
     7
 10
17.613199999999999
 20
110.524
 30
0.0
 11
18.205200000000001
 21
112.73399999999999
 31
0.0
  0
LINE
  5
E1
  8
_________1
 62
     7
 10
18.205200000000001
 20
112.73399999999999
 30
0.0
 11
17.0213
 21
112.73399999999999
 31
0.0
  0
LINE
  5
E2
  8
_________1
 62
     7
 10
18.1907
 20
163.768
 30
0.0
 11
17.598500000000001
 21
165.977
 31
0.0
  0
LINE
  5
E3
  8
_________1
 62
     7
 10
17.598500000000001
 20
165.977
 30
0.0
 11
17.0063
 21
163.768
 31
0.0
  0
LINE
  5
E4
  8
_________1
 62
     7
 10
17.0063
 20
163.768
 30
0.0
 11
18.1907
 21
163.768
 31
0.0
  0
LINE
  5
E5
  8
_________1
 62
     7
 10
17.605899999999998
 20
110.524
 30
0.0
 11
17.605899999999998
 21
165.977
 31
0.0
  0
ENDBLK
  5
E6
  8
_________1
  0
BLOCK
  8
_________1
  2
AIGNBL02010010
 70
     0
 10
0.0
 20
0.0
 30
0.0
  3
AIGNBL02010010
  1

  0
LINE
  5
E9
  8
_________1
 62
     7
 10
-30.983000000000001
 20
114.661
 30
0.0
 11
-28.7743
 21
115.253
 31
0.0
  0
LINE
  5
EA
  8
_________1
 62
     7
 10
-28.7743
 20
115.253
 30
0.0
 11
-30.983000000000001
 21
115.84399999999999
 31
0.0
  0
LINE
  5
EB
  8
_________1
 62
     7
 10
-30.983000000000001
 20
115.84399999999999
 30
0.0
 11
-30.983000000000001
 21
114.661
 31
0.0
  0
LINE
  5
EC
  8
_________1
 62
     7
 10
-38.897399999999998
 20
115.83799999999999
 30
0.0
 11
-41.107799999999997
 21
115.246
 31
0.0
  0
LINE
  5
ED
  8
_________1
 62
     7
 10
-41.107799999999997
 20
115.246
 30
0.0
 11
-38.897399999999998
 21
114.654
 31
0.0
  0
LINE
  5
EE
  8
_________1
 62
     7
 10
-38.897399999999998
 20
114.654
 30
0.0
 11
-38.897399999999998
 21
115.83799999999999
 31
0.0
  0
LINE
  5
EF
  8
_________1
 62
     7
 10
-28.7743
 20
115.253
 30
0.0
 11
-48.258999999999993
 21
115.253
 31
0.0
  0
ENDBLK
  5
F0
  8
_________1
  0
BLOCK
  8
_________1
  2
AIGNBL02010011
 70
     0
 10
0.0
 20
0.0
 30
0.0
  3
AIGNBL02010011
  1

  0
LINE
  5
F3
  8
_________1
 62
     7
 10
87.286500000000004
 20
145.31899999999999
 30
0.0
 11
85.076800000000006
 21
144.727
 31
0.0
  0
LINE
  5
F4
  8
_________1
 62
     7
 10
85.076800000000006
 20
144.727
 30
0.0
 11
87.286500000000004
 21
144.13399999999999
 31
0.0
  0
LINE
  5
F5
  8
_________1
 62
     7
 10
87.286500000000004
 20
144.13399999999999
 30
0.0
 11
87.286500000000004
 21
145.31899999999999
 31
0.0
  0
LINE
  5
F6
  8
_________1
 62
     7
 10
92.866200000000006
 20
144.149
 30
0.0
 11
95.075900000000004
 21
144.74100000000001
 31
0.0
  0
LINE
  5
F7
  8
_________1
 62
     7
 10
95.075900000000004
 20
144.74100000000001
 30
0.0
 11
92.866200000000006
 21
145.333
 31
0.0
  0
LINE
  5
F8
  8
_________1
 62
     7
 10
92.866200000000006
 20
145.333
 30
0.0
 11
92.866200000000006
 21
144.149
 31
0.0
  0
LINE
  5
F9
  8
_________1
 62
     7
 10
85.076800000000006
 20
144.73400000000001
 30
0.0
 11
95.075900000000004
 21
144.73400000000001
 31
0.0
  0
ENDBLK
  5
FA
  8
_________1
  0
BLOCK
  8
_________1
  2
AIGNBL02010012
 70
     0
 10
0.0
 20
0.0
 30
0.0
  3
AIGNBL02010012
  1

  0
LINE
  5
FD
  8
_________1
 62
     7
 10
92.866200000000006
 20
155.74000000000001
 30
0.0
 11
95.075900000000004
 21
156.33199999999999
 31
0.0
  0
LINE
  5
FE
  8
_________1
 62
     7
 10
95.075900000000004
 20
156.33199999999999
 30
0.0
 11
92.866200000000006
 21
156.92400000000001
 31
0.0
  0
LINE
  5
FF
  8
_________1
 62
     7
 10
92.866200000000006
 20
156.92400000000001
 30
0.0
 11
92.866200000000006
 21
155.74000000000001
 31
0.0
  0
LINE
  5
100
  8
_________1
 62
     7
 10
30.6188
 20
156.91
 30
0.0
 11
28.408799999999999
 21
156.31700000000001
 31
0.0
  0
LINE
  5
101
  8
_________1
 62
     7
 10
28.408799999999999
 20
156.31700000000001
 30
0.0
 11
30.6188
 21
155.72499999999999
 31
0.0
  0
LINE
  5
102
  8
_________1
 62
     7
 10
30.6188
 20
155.72499999999999
 30
0.0
 11
30.6188
 21
156.91
 31
0.0
  0
LINE
  5
103
  8
_________1
 62
     7
 10
95.075900000000004
 20
156.32499999999999
 30
0.0
 11
28.408799999999999
 21
156.32499999999999
 31
0.0
  0
ENDBLK
  5
104
  8
_________1
  0
BLOCK
  8
_________1
  2
AIGNBL02010013
 70
     0
 10
0.0
 20
0.0
 30
0.0
  3
AIGNBL02010013
  1

  0
LINE
  5
107
  8
_________1
 62
     7
 10
59.9375
 20
180.81399999999999
 30
0.0
 11
59.345799999999997
 21
183.024
 31
0.0
  0
LINE
  5
108
  8
_________1
 62
     7
 10
59.345799999999997
 20
183.024
 30
0.0
 11
58.753500000000003
 21
180.81399999999999
 31
0.0
  0
LINE
  5
109
  8
_________1
 62
     7
 10
58.753500000000003
 20
180.81399999999999
 30
0.0
 11
59.9375
 21
180.81399999999999
 31
0.0
  0
LINE
  5
10A
  8
_________1
 62
     7
 10
58.767499999999998
 20
191.56700000000001
 30
0.0
 11
59.359699999999997
 21
189.357
 31
0.0
  0
LINE
  5
10B
  8
_________1
 62
     7
 10
59.359699999999997
 20
189.357
 30
0.0
 11
59.951900000000002
 21
191.56700000000001
 31
0.0
  0
LINE
  5
10C
  8
_________1
 62
     7
 10
59.951900000000002
 20
191.56700000000001
 30
0.0
 11
58.767499999999998
 21
191.56700000000001
 31
0.0
  0
LINE
  5
10D
  8
_________1
 62
     7
 10
59.352499999999992
 20
199.87299999999999
 30
0.0
 11
59.352499999999992
 21
179.239
 31
0.0
  0
ENDBLK
  5
10E
  8
_________1
  0
BLOCK
  8
_________1
  2
AIGNBL02010014
 70
     0
 10
0.0
 20
0.0
 30
0.0
  3
AIGNBL02010014
  1

  0
LINE
  5
111
  8
_________1
 62
     7
 10
106.788
 20
258.423
 30
0.0
 11
94.788399999999996
 21
258.423
 31
0.0
  0
LINE
  5
112
  8
_________1
 62
     7
 10
91.145899999999983
 20
262.90199999999999
 30
0.0
 11
89.165000000000006
 21
264.04599999999999
 31
0.0
  0
LINE
  5
113
  8
_________1
 62
     7
 10
89.165000000000006
 20
264.04599999999999
 30
0.0
 11
90.308400000000006
 21
262.065
 31
0.0
  0
LINE
  5
114
  8
_________1
 62
     7
 10
90.308400000000006
 20
262.065
 30
0.0
 11
91.145899999999983
 21
262.90199999999999
 31
0.0
  0
LINE
  5
115
  8
_________1
 62
     7
 10
78.9345
 20
273.43900000000002
 30
0.0
 11
80.915499999999994
 21
272.29500000000002
 31
0.0
  0
LINE
  5
116
  8
_________1
 62
     7
 10
80.915499999999994
 20
272.29500000000002
 30
0.0
 11
79.771999999999991
 21
274.27600000000001
 31
0.0
  0
LINE
  5
117
  8
_________1
 62
     7
 10
79.771999999999991
 20
274.27600000000001
 30
0.0
 11
78.9345
 21
273.43900000000002
 31
0.0
  0
LINE
  5
118
  8
_________1
 62
     7
 10
78.150800000000004
 20
275.06
 30
0.0
 11
94.788399999999996
 21
258.423
 31
0.0
  0
ENDBLK
  5
119
  8
_________1
  0
BLOCK
  8
_________2
  2
AIGNBL03010002
 70
     0
 10
0.0
 20
0.0
 30
0.0
  3
AIGNBL03010002
  1

  0
LINE
  5
11C
  8
_________2
 62
     7
 10
186.649
 20
51.052199999999999
 30
0.0
 11
184.46299999999999
 21
51.052199999999999
 31
0.0
  0
LINE
  5
11D
  8
_________2
 62
     7
 10
187.142
 20
51.052199999999999
 30
0.0
 11
186.88900000000001
 21
51.052199999999999
 31
0.0
  0
LINE
  5
11E
  8
_________2
 62
     7
 10
187.63399999999999
 20
51.052199999999999
 30
0.0
 11
190.559
 21
51.052199999999999
 31
0.0
  0
LINE
  5
11F
  8
_________2
 62
     7
 10
187.142
 20
51.052199999999999
 30
0.0
 11
187.39400000000001
 21
51.052199999999999
 31
0.0
  0
LINE
  5
120
  8
_________2
 62
     7
 10
180.745
 20
51.052199999999999
 30
0.0
 11
178.55799999999999
 21
51.052199999999999
 31
0.0
  0
LINE
  5
121
  8
_________2
 62
     7
 10
181.23699999999999
 20
51.052199999999999
 30
0.0
 11
180.98599999999999
 21
51.052199999999999
 31
0.0
  0
LINE
  5
122
  8
_________2
 62
     7
 10
181.23699999999999
 20
51.544800000000002
 30
0.0
 11
181.23699999999999
 21
53.7318
 31
0.0
  0
LINE
  5
123
  8
_________2
 62
     7
 10
181.23699999999999
 20
51.052199999999999
 30
0.0
 11
181.23699999999999
 21
51.304299999999998
 31
0.0
  0
LINE
  5
124
  8
_________2
 62
     7
 10
181.72999999999999
 20
51.052199999999999
 30
0.0
 11
183.917
 21
51.052199999999999
 31
0.0
  0
LINE
  5
125
  8
_________2
 62
     7
 10
181.23699999999999
 20
51.052199999999999
 30
0.0
 11
181.489
 21
51.052199999999999
 31
0.0
  0
LINE
  5
126
  8
_________2
 62
     7
 10
181.23699999999999
 20
50.560200000000002
 30
0.0
 11
181.23699999999999
 21
48.373199999999997
 31
0.0
  0
LINE
  5
127
  8
_________2
 62
     7
 10
181.23699999999999
 20
51.052199999999999
 30
0.0
 11
181.23699999999999
 21
50.800699999999999
 31
0.0
  0
LINE
  5
128
  8
_________2
 62
     7
 10
184.94799999999989
 20
49.832599999999999
 30
0.0
 11
190.12599999999989
 21
48.9679
 31
0.0
  0
LINE
  5
129
  8
_________2
 62
     7
 10
184.94799999999989
 20
52.271700000000003
 30
0.0
 11
190.12599999999989
 21
53.137099999999997
 31
0.0
  0
LINE
  5
12A
  8
_________2
 62
     7
 10
190.12599999999989
 20
48.9679
 30
0.0
 11
190.12599999999989
 21
53.137099999999997
 31
0.0
  0
LINE
  5
12B
  8
_________2
 62
     7
 10
184.94799999999989
 20
49.832599999999999
 30
0.0
 11
184.94799999999989
 21
52.271700000000003
 31
0.0
  0
ARC
  5
12C
  8
_________2
 62
     7
 10
181.190651
 20
51.004810999999989
 30
0.0
 40
1.2677780000000001
 50
2.1403449999999991
 51
87.892005999999995
  0
ARC
  5
12D
  8
_________2
 62
     7
 10
181.28420199999999
 20
51.005241999999988
 30
0.0
 40
1.2673579999999991
 50
92.121564999999975
 51
177.87840600000001
  0
ARC
  5
12E
  8
_________2
 62
     7
 10
181.28381400000001
 20
51.098689
 30
0.0
 40
1.2669559999999991
 50
182.10473099999999
 51
267.89529900000002
  0
ARC
  5
12F
  8
_________2
 62
     7
 10
181.19038399999999
 20
51.099775000000001
 30
0.0
 40
1.268054
 50
272.11960599999998
 51
357.84804300000002
  0
ARC
  5
130
  8
_________2
 62
     7
 10
181.23728399999999
 20
51.05215900000001
 30
0.0
 40
2.0849849999999992
 50
0.00001
 51
89.999980000000008
  0
ARC
  5
131
  8
_________2
 62
     7
 10
181.317331
 20
50.972827000000002
 30
0.0
 40
2.1657969999999991
 50
92.118111999999996
 51
177.90079600000001
  0
ARC
  5
132
  8
_________2
 62
     7
 10
181.31728799999999
 20
51.132162999999998
 30
0.0
 40
2.1657779999999991
 50
182.11700400000001
 51
267.88302499999998
  0
ARC
  5
133
  8
_________2
 62
     7
 10
181.15730300000001
 20
51.132855999999997
 30
0.0
 40
2.166469999999999
 50
272.115725
 51
357.86534699999999
  0
ENDBLK
  5
134
  8
_________2
  0
ENDSEC
  0
SECTION
  2
ENTITIES
  0
TEXT
  5
135
  8
____
 62
     7
 10
-45.097799999999999
 20
39.117899999999999
 30
0.0
 40
3.0923400000000001
  1
%%c10
 41
0.5
  0
TEXT
  5
136
  8
____
 62
     7
 10
-16.336099999999998
 20
75.782287499999995
 30
0.0
 40
3.0923400000000001
  1
480
 50
90.0
 41
0.5
 72
     1
 11
-16.336099999999998
 21
77.715000000000003
 31
0.0
  0
TEXT
  5
137
  8
____
 62
     7
 10
-59.479399999999998
 20
98.454745000000017
 30
0.0
 40
3.0923400000000001
  1
58.5
 50
90.0
 41
0.5
 72
     1
 11
-59.479399999999998
 21
100.774
 31
0.0
  0
TEXT
  5
138
  8
____
 62
     7
 10
-52.032299999999999
 20
102.0044225
 30
0.0
 40
3.0923400000000001
  1
max.30
 50
90.0
 41
0.5
 72
     1
 11
-52.032299999999999
 21
105.741
 31
0.0
  0
TEXT
  5
139
  8
____
 62
     7
 10
83.144087500000012
 20
105.81999999999999
 30
0.0
 40
3.0923400000000001
  1
%%c30
 41
0.5
 72
     1
 11
85.076800000000006
 21
105.81999999999999
 31
0.0
  0
TEXT
  5
13A
  8
____
 62
     7
 10
-24.826699999999999
 20
258.19900000000001
 30
0.0
 40
3.0923400000000001
  1
スパウト使用可能範囲
 41
0.5
  0
TEXT
  5
13B
  8
____
 62
     7
 10
-28.288499999999999
 20
173.33000000000001
 30
0.0
 40
3.0923400000000001
  1
スパウト使用可能範囲
 41
0.5
  0
TEXT
  5
13C
  8
____
 62
     7
 10
-28.288499999999999
 20
209.495
 30
0.0
 40
3.0923400000000001
  1
360%%d：スパウト回転角度
 41
0.5
  0
TEXT
  5
13D
  8
____
 62
     7
 10
-30.902000000000001
 20
142.96700000000001
 30
0.0
 40
3.0923400000000001
  1
閉
 41
0.5
  0
TEXT
  5
13E
  8
____
 62
     7
 10
-53.172713999999999
 20
129.523
 30
0.0
 40
3.0923400000000001
  1
開
 41
0.5
 72
     2
 11
-51.832700000000003
 21
129.523
 31
0.0
  0
TEXT
  5
13F
  8
____
 62
     7
 10
80.643646000000004
 20
250.45500000000001
 30
0.0
 40
3.0923400000000001
  1
水栓取付穴
 41
0.5
 72
     1
 11
85.076000000000008
 21
250.45500000000001
 31
0.0
  0
TEXT
  5
140
  8
____
 62
     7
 10
74.665724999999995
 20
115.589
 30
0.0
 40
3.0923400000000001
  1
55
 41
0.5
 72
     1
 11
75.9542
 21
115.589
 31
0.0
  0
TEXT
  5
141
  8
____
 62
     7
 10
92.794425000000004
 20
115.589
 30
0.0
 40
3.0923400000000001
  1
45
 41
0.5
 72
     1
 11
94.082899999999995
 21
115.589
 31
0.0
  0
TEXT
  5
142
  8
____
 62
     7
 10
88.400472500000006
 20
145.434
 30
0.0
 40
3.0923400000000001
  1
30
 41
0.5
 72
     1
 11
89.560100000000006
 21
145.434
 31
0.0
  0
TEXT
  5
143
  8
____
 62
     7
 10
58.41899999999999
 20
196.2652699999999
 30
0.0
 40
3.0923400000000001
  1
%%c19
 50
90.0
 41
0.5
 72
     2
 11
58.41899999999999
 21
199.87299999999999
 31
0.0
  0
TEXT
  5
144
  8
____
 62
     7
 10
59.371234999999999
 20
157.02500000000001
 30
0.0
 40
3.0923400000000001
  1
200
 41
0.5
 72
     1
 11
61.1751
 21
157.02500000000001
 31
0.0
  0
TEXT
  5
145
  8
____
 62
     7
 10
5.5480199999999993
 20
146.84765999999999
 30
0.0
 40
3.0923400000000001
  1
236.5
 50
90.0
 41
0.5
 72
     1
 11
5.5480199999999993
 21
149.94
 31
0.0
  0
TEXT
  5
146
  8
____
 62
     7
 10
110.44799999999999
 20
129.09128749999999
 30
0.0
 40
3.0923400000000001
  1
%%c40
 50
90.0
 41
0.5
 72
     1
 11
110.44799999999999
 21
131.024
 31
0.0
  0
TEXT
  5
147
  8
____
 62
     7
 10
55.661599999999993
 20
137.03552500000001
 30
0.0
 40
3.0923400000000001
  1
45
 50
90.0
 41
0.5
 72
     1
 11
55.661599999999993
 21
138.32400000000001
 31
0.0
  0
TEXT
  5
148
  8
____
 62
     7
 10
55.661599999999993
 20
118.71244
 30
0.0
 40
3.0923400000000001
  1
61.5
 50
90.0
 41
0.5
 72
     1
 11
55.661599999999993
 21
120.774
 31
0.0
  0
TEXT
  5
149
  8
____
 62
     7
 10
16.905899999999999
 20
135.41635500000001
 30
0.0
 40
3.0923400000000001
  1
166.5
 50
90.0
 41
0.5
 72
     1
 11
16.905899999999999
 21
138.251
 31
0.0
  0
TEXT
  5
14A
  8
____
 62
     7
 10
-48.258999999999993
 20
115.953
 30
0.0
 40
3.0923400000000001
  1
%%c37
 41
0.5
  0
TEXT
  5
14B
  8
____
 62
     7
 10
97.717135999999996
 20
259.12299999999999
 30
0.0
 40
3.0923400000000001
  1
%%c32～35
 41
0.5
 72
     2
 11
106.788
 21
259.12299999999999
 31
0.0
  0
LINE
  5
14C
  8
_________1
 62
     7
 10
-46.399500000000003
 20
183.93600000000001
 30
0.0
 11
-46.017499999999998
 21
186.19099999999989
 31
0.0
  0
LINE
  5
14D
  8
_________1
 62
     7
 10
-46.017499999999998
 20
186.19099999999989
 30
0.0
 11
-45.220299999999988
 21
184.047
 31
0.0
  0
LINE
  5
14E
  8
_________1
 62
     7
 10
-45.220299999999988
 20
184.047
 30
0.0
 11
-46.399500000000003
 21
183.93600000000001
 31
0.0
  0
LINE
  5
14F
  8
_________1
 62
     7
 10
-23.482099999999999
 20
183.93600000000001
 30
0.0
 11
-23.8642
 21
186.19099999999989
 31
0.0
  0
LINE
  5
150
  8
_________1
 62
     7
 10
-23.8642
 20
186.19099999999989
 30
0.0
 11
-24.6614
 21
184.047
 31
0.0
  0
LINE
  5
151
  8
_________1
 62
     7
 10
-24.6614
 20
184.047
 30
0.0
 11
-23.482099999999999
 21
183.93600000000001
 31
0.0
  0
ARC
  5
152
  8
_________1
 62
     7
 10
84.880747
 20
70.573577
 30
0.0
 40
4.7746539999999991
 50
125.73101800000001
 51
135.08727999999999
  0
ARC
  5
153
  8
_________1
 62
     7
 10
83.884497999999994
 20
71.901747999999998
 30
0.0
 40
3.1148729999999989
 50
113.253146
 51
125.122253
  0
ARC
  5
154
  8
_________1
 62
     7
 10
83.553433999999996
 20
72.597258999999994
 30
0.0
 40
2.3453430000000002
 50
76.704132999999985
 51
112.53030800000001
  0
ARC
  5
155
  8
_________1
 62
     7
 10
83.308352999999997
 20
71.311759999999992
 30
0.0
 40
3.6531949999999989
 50
70.534288000000018
 51
77.600122000000013
  0
ARC
  5
156
  8
_________1
 62
     7
 10
82.680481999999998
 20
69.451819999999984
 30
0.0
 40
5.6161260000000004
 50
67.913961999999998
 51
70.818197999999995
  0
ARC
  5
157
  8
_________1
 62
     7
 10
81.249830000000003
 20
65.932900000000004
 30
0.0
 40
9.414752
 50
65.802272000000002
 51
67.898364999999984
  0
ARC
  5
158
  8
_________1
 62
     7
 10
131.419219
 20
175.85201900000001
 30
0.0
 40
111.412491
 50
245.43873500000001
 51
245.882229
  0
ARC
  5
159
  8
_________1
 62
     7
 10
88.385537999999997
 20
79.958943000000005
 30
0.0
 40
6.306716999999999
 50
246.735578
 51
251.34745899999999
  0
ARC
  5
15A
  8
_________1
 62
     7
 10
87.478410999999994
 20
77.338486000000003
 30
0.0
 40
3.5338370000000001
 50
251.69417200000009
 51
258.86143900000002
  0
ARC
  5
15B
  8
_________1
 62
     7
 10
87.240968999999993
 20
76.178604000000007
 30
0.0
 40
2.349950999999999
 50
259.07845200000003
 51
280.76880599999998
  0
ARC
  5
15C
  8
_________1
 62
     7
 10
87.220400999999995
 20
76.071837000000002
 30
0.0
 40
2.2492649999999998
 50
281.79171300000002
 51
301.08209299999999
  0
ARC
  5
15D
  8
_________1
 62
     7
 10
86.812372999999994
 20
76.831417999999999
 30
0.0
 40
3.110736999999999
 50
300.29560700000002
 51
308.490771
  0
ARC
  5
15E
  8
_________1
 62
     7
 10
84.881134000000003
 20
72.297595999999999
 30
0.0
 40
4.7755989999999988
 50
125.72857999999999
 51
135.082481
  0
ARC
  5
15F
  8
_________1
 62
     7
 10
83.883313999999999
 20
73.628382999999985
 30
0.0
 40
3.112778
 50
113.245986
 51
125.12272299999999
  0
ARC
  5
160
  8
_________1
 62
     7
 10
83.553397000000004
 20
74.321736999999985
 30
0.0
 40
2.345685
 50
76.705169999999995
 51
112.52586100000001
  0
ARC
  5
161
  8
_________1
 62
     7
 10
83.308352999999997
 20
73.036580000000001
 30
0.0
 40
3.6531949999999989
 50
70.534288000000018
 51
77.600122000000013
  0
ARC
  5
162
  8
_________1
 62
     7
 10
82.684065000000004
 20
71.185876000000007
 30
0.0
 40
5.6062250000000002
 50
67.912420999999995
 51
70.821767000000008
  0
ARC
  5
163
  8
_________1
 62
     7
 10
81.244546999999983
 20
67.644343000000006
 30
0.0
 40
9.429138
 50
65.806359999999998
 51
67.899216999999993
  0
ARC
  5
164
  8
_________1
 62
     7
 10
131.212682
 20
177.127939
 30
0.0
 40
110.918339
 50
245.43938
 51
245.88484299999999
  0
ARC
  5
165
  8
_________1
 62
     7
 10
88.387945000000002
 20
81.690981000000008
 30
0.0
 40
6.314254
 50
246.74121400000001
 51
251.34749900000011
  0
ARC
  5
166
  8
_________1
 62
     7
 10
87.478220999999976
 20
79.063322999999997
 30
0.0
 40
3.5337230000000002
 50
251.69680099999999
 51
258.86421100000001
  0
ARC
  5
167
  8
_________1
 62
     7
 10
87.240884999999977
 20
77.903706999999997
 30
0.0
 40
2.3501180000000002
 50
259.08132599999999
 51
280.77011800000002
  0
ARC
  5
168
  8
_________1
 62
     7
 10
87.219984999999994
 20
77.797731999999996
 30
0.0
 40
2.2502779999999989
 50
281.79715899999991
 51
301.07893200000001
  0
ARC
  5
169
  8
_________1
 62
     7
 10
86.812624999999997
 20
78.555964000000003
 30
0.0
 40
3.110247999999999
 50
300.29550499999999
 51
308.49201699999998
  0
ARC
  5
16A
  8
_________1
 62
     7
 10
-35.137639
 20
70.572475999999995
 30
0.0
 40
4.7754490000000001
 50
125.721671
 51
135.078147
  0
ARC
  5
16B
  8
_________1
 62
     7
 10
-36.132934000000013
 20
71.899752000000007
 30
0.0
 40
3.1169579999999999
 50
113.249376
 51
125.112948
  0
ARC
  5
16C
  8
_________1
 62
     7
 10
-36.464441999999998
 20
72.596047999999996
 30
0.0
 40
2.3465349999999989
 50
76.709579000000005
 51
112.523279
  0
ARC
  5
16D
  8
_________1
 62
     7
 10
-36.709390999999997
 20
71.311706000000001
 30
0.0
 40
3.653232
 50
70.535207999999997
 51
77.601457999999994
  0
ARC
  5
16E
  8
_________1
 62
     7
 10
-37.337823999999998
 20
69.450102000000001
 30
0.0
 40
5.6179180000000004
 50
67.915493999999995
 51
70.818956999999997
  0
ARC
  5
16F
  8
_________1
 62
     7
 10
-38.770474999999998
 20
65.926819999999992
 30
0.0
 40
9.4213380000000004
 50
65.803341000000003
 51
67.897998999999999
  0
ARC
  5
170
  8
_________1
 62
     7
 10
11.401026999999999
 20
175.849007
 30
0.0
 40
111.40957400000001
 50
245.43829099999999
 51
245.88178900000011
  0
ARC
  5
171
  8
_________1
 62
     7
 10
-31.632740999999999
 20
79.957463000000004
 30
0.0
 40
6.305159999999999
 50
246.73442499999999
 51
251.347308
  0
ARC
  5
172
  8
_________1
 62
     7
 10
-32.539648
 20
77.337327999999999
 30
0.0
 40
3.5326550000000001
 50
251.692296
 51
258.86154099999999
  0
ARC
  5
173
  8
_________1
 62
     7
 10
-32.776879999999998
 20
76.178360999999995
 30
0.0
 40
2.3497080000000001
 50
259.07791300000002
 51
280.76933700000001
  0
ARC
  5
174
  8
_________1
 62
     7
 10
-32.797437000000002
 20
76.071680000000001
 30
0.0
 40
2.2491050000000001
 50
281.79166300000003
 51
301.08303999999998
  0
ARC
  5
175
  8
_________1
 62
     7
 10
-33.206485999999998
 20
76.832793000000009
 30
0.0
 40
3.1124130000000001
 50
300.29825
 51
308.48891099999997
  0
ARC
  5
176
  8
_________1
 62
     7
 10
-35.137251999999997
 20
72.296494999999993
 30
0.0
 40
4.7763949999999991
 50
125.719233
 51
135.07334900000001
  0
ARC
  5
177
  8
_________1
 62
     7
 10
-36.134118999999998
 20
73.626388000000006
 30
0.0
 40
3.1148599999999989
 50
113.24221799999999
 51
125.11341899999999
  0
ARC
  5
178
  8
_________1
 62
     7
 10
-36.464478999999997
 20
74.320525000000004
 30
0.0
 40
2.3468770000000001
 50
76.710615000000004
 51
112.518834
  0
ARC
  5
179
  8
_________1
 62
     7
 10
-36.709390999999997
 20
73.036525999999995
 30
0.0
 40
3.653232
 50
70.535207999999997
 51
77.601457999999994
  0
ARC
  5
17A
  8
_________1
 62
     7
 10
-37.334238999999997
 20
71.184163999999996
 30
0.0
 40
5.6080120000000004
 50
67.913953000000006
 51
70.822525999999996
  0
ARC
  5
17B
  8
_________1
 62
     7
 10
-38.775765
 20
67.638244999999998
 30
0.0
 40
9.4357439999999997
 50
65.807430000000011
 51
67.898851000000008
  0
ARC
  5
17C
  8
_________1
 62
     7
 10
11.194490999999999
 20
177.12493799999999
 30
0.0
 40
110.91543299999999
 50
245.43893499999999
 51
245.88440299999999
  0
ARC
  5
17D
  8
_________1
 62
     7
 10
-31.630336
 20
81.689498
 30
0.0
 40
6.3126939999999996
 50
246.740061
 51
251.34734800000001
  0
ARC
  5
17E
  8
_________1
 62
     7
 10
-32.539838000000003
 20
79.062165000000007
 30
0.0
 40
3.5325410000000002
 50
251.6949250000001
 51
258.86431299999998
  0
ARC
  5
17F
  8
_________1
 62
     7
 10
-32.776964
 20
77.903464
 30
0.0
 40
2.349874999999999
 50
259.08078699999999
 51
280.77064900000011
  0
ARC
  5
180
  8
_________1
 62
     7
 10
-32.797853000000003
 20
77.797576000000007
 30
0.0
 40
2.2501180000000001
 50
281.79710999999998
 51
301.07987900000001
  0
ARC
  5
181
  8
_________1
 62
     7
 10
-33.206234000000009
 20
78.557338000000001
 30
0.0
 40
3.1119240000000001
 50
300.29814900000002
 51
308.49015700000001
  0
LINE
  5
182
  8
_________1
 62
     7
 10
-27.441199999999998
 20
110.524
 30
0.0
 11
-42.440899999999992
 21
110.524
 31
0.0
  0
LINE
  5
183
  8
_________1
 62
     7
 10
-42.440899999999992
 20
110.524
 30
0.0
 11
-42.440899999999992
 21
111.024
 31
0.0
  0
LINE
  5
184
  8
_________1
 62
     7
 10
-42.440899999999992
 20
111.024
 30
0.0
 11
-27.441199999999998
 21
111.024
 31
0.0
  0
LINE
  5
185
  8
_________1
 62
     7
 10
-27.441199999999998
 20
111.024
 30
0.0
 11
-27.441199999999998
 21
110.524
 31
0.0
  0
LINE
  5
186
  8
_________1
 62
     7
 10
92.576200000000014
 20
110.524
 30
0.0
 11
77.576599999999999
 21
110.524
 31
0.0
  0
LINE
  5
187
  8
_________1
 62
     7
 10
77.576599999999999
 20
110.524
 30
0.0
 11
77.576599999999999
 21
111.024
 31
0.0
  0
LINE
  5
188
  8
_________1
 62
     7
 10
77.576599999999999
 20
111.024
 30
0.0
 11
92.576200000000014
 21
111.024
 31
0.0
  0
LINE
  5
189
  8
_________1
 62
     7
 10
92.576200000000014
 20
111.024
 30
0.0
 11
92.576200000000014
 21
110.524
 31
0.0
  0
ARC
  5
18A
  8
_________1
 62
     7
 10
-34.961266999999999
 20
258.12669599999998
 30
0.0
 40
7.4796539999999991
 50
179.934608
 51
207.304596
  0
ARC
  5
18B
  8
_________1
 62
     7
 10
-34.896801000000011
 20
258.127454
 30
0.0
 40
7.5441190000000002
 50
152.81457800000001
 51
179.940924
  0
ARC
  5
18C
  8
_________1
 62
     7
 10
-34.93732700000001
 20
258.139948
 30
0.0
 40
7.4961080000000004
 50
359.96393399999999
 51
27.273956999999999
  0
ARC
  5
18D
  8
_________1
 62
     7
 10
-34.988010000000003
 20
258.14301699999999
 30
0.0
 40
7.5467940000000002
 50
332.83669099999997
 51
359.940879
  0
LINE
  5
18E
  8
_________1
 62
     7
 10
-30.3169
 20
96.006799999999998
 30
0.0
 11
-30.3169
 21
91.022800000000004
 31
0.0
  0
LINE
  5
18F
  8
_________1
 62
     7
 10
-35.277299999999997
 20
100.857
 30
0.0
 11
-35.277299999999997
 21
102.789
 31
0.0
  0
ARC
  5
190
  8
_________1
 62
     7
 10
-34.938462999999999
 20
102.787685
 30
0.0
 40
0.338852
 50
135.00590199999999
 51
179.742558
  0
ARC
  5
191
  8
_________1
 62
     7
 10
-34.943337
 20
102.795744
 30
0.0
 40
0.329715
 50
89.605681000000004
 51
135.397289
  0
ARC
  5
192
  8
_________1
 62
     7
 10
-34.943441999999997
 20
102.78327400000001
 30
0.0
 40
0.342185
 50
45.482630999999991
 51
89.602529999999987
  0
ARC
  5
193
  8
_________1
 62
     7
 10
-34.944853999999999
 20
102.787717
 30
0.0
 40
0.340032
 50
0.251233
 51
44.788167999999992
  0
LINE
  5
194
  8
_________1
 62
     7
 10
-34.604799999999997
 20
102.789
 30
0.0
 11
-34.604799999999997
 21
100.857
 31
0.0
  0
LINE
  5
195
  8
_________1
 62
     7
 10
-40.320399999999999
 20
103.54600000000001
 30
0.0
 11
-40.320399999999999
 21
100.857
 31
0.0
  0
LINE
  5
196
  8
_________1
 62
     7
 10
-29.4785
 20
103.54600000000001
 30
0.0
 11
-40.320399999999999
 21
103.54600000000001
 31
0.0
  0
LINE
  5
197
  8
_________1
 62
     7
 10
-40.320399999999999
 20
103.54600000000001
 30
0.0
 11
-40.739899999999999
 21
100.857
 31
0.0
  0
LINE
  5
198
  8
_________1
 62
     7
 10
-29.4785
 20
100.857
 30
0.0
 11
-29.4785
 21
103.54600000000001
 31
0.0
  0
LINE
  5
199
  8
_________1
 62
     7
 10
-29.4785
 20
103.54600000000001
 30
0.0
 11
-29.059000000000001
 21
100.857
 31
0.0
  0
LINE
  5
19A
  8
_________1
 62
     7
 10
-30.3169
 20
110.52500000000001
 30
0.0
 11
-30.3169
 21
103.547
 31
0.0
  0
LINE
  5
19B
  8
_________1
 62
     7
 10
-29.9834
 20
103.547
 30
0.0
 11
-29.9834
 21
110.52500000000001
 31
0.0
  0
LINE
  5
19C
  8
_________1
 62
     7
 10
-39.649900000000002
 20
110.52500000000001
 30
0.0
 11
-39.649900000000002
 21
103.547
 31
0.0
  0
LINE
  5
19D
  8
_________1
 62
     7
 10
-39.982500000000002
 20
103.547
 30
0.0
 11
-39.982500000000002
 21
110.52500000000001
 31
0.0
  0
LINE
  5
19E
  8
_________1
 62
     7
 10
-30.3169
 20
100.02500000000001
 30
0.0
 11
-30.3169
 21
97.674200000000013
 31
0.0
  0
LINE
  5
19F
  8
_________1
 62
     7
 10
-29.9834
 20
97.674200000000013
 30
0.0
 11
-29.9834
 21
100.02500000000001
 31
0.0
  0
LINE
  5
1A0
  8
_________1
 62
     7
 10
-39.649900000000002
 20
100.02500000000001
 30
0.0
 11
-39.649900000000002
 21
97.674200000000013
 31
0.0
  0
LINE
  5
1A1
  8
_________1
 62
     7
 10
-39.982500000000002
 20
97.674200000000013
 30
0.0
 11
-39.982500000000002
 21
100.02500000000001
 31
0.0
  0
LINE
  5
1A2
  8
_________1
 62
     7
 10
-39.649900000000002
 20
96.006799999999998
 30
0.0
 11
-39.649900000000002
 21
91.022800000000004
 31
0.0
  0
LINE
  5
1A3
  8
_________1
 62
     7
 10
-39.982500000000002
 20
91.356200000000015
 30
0.0
 11
-39.982500000000002
 21
96.006799999999998
 31
0.0
  0
LINE
  5
1A4
  8
_________1
 62
     7
 10
-39.982500000000002
 20
91.356200000000015
 30
0.0
 11
-29.9834
 21
91.356200000000015
 31
0.0
  0
LINE
  5
1A5
  8
_________1
 62
     7
 10
-29.9834
 20
96.006799999999998
 30
0.0
 11
-29.9834
 21
91.356200000000015
 31
0.0
  0
LINE
  5
1A6
  8
_________1
 62
     7
 10
-29.9834
 20
91.356200000000015
 30
0.0
 11
-30.319099999999999
 21
91.022800000000004
 31
0.0
  0
LINE
  5
1A7
  8
_________1
 62
     7
 10
-30.319099999999999
 20
91.022800000000004
 30
0.0
 11
-39.649900000000002
 21
91.022800000000004
 31
0.0
  0
LINE
  5
1A8
  8
_________1
 62
     7
 10
-39.649900000000002
 20
91.022800000000004
 30
0.0
 11
-39.982500000000002
 21
91.356200000000015
 31
0.0
  0
LINE
  5
1A9
  8
_________1
 62
     7
 10
-32.9407
 20
90.333699999999993
 30
0.0
 11
-33.630499999999998
 21
91.022800000000004
 31
0.0
  0
LINE
  5
1AA
  8
_________1
 62
     7
 10
-36.250700000000002
 20
91.022800000000004
 30
0.0
 11
-36.940600000000003
 21
90.333699999999993
 31
0.0
  0
LINE
  5
1AB
  8
_________1
 62
     7
 10
-32.9407
 20
88.864699999999999
 30
0.0
 11
-35.098700000000001
 21
91.022800000000004
 31
0.0
  0
LINE
  5
1AC
  8
_________1
 62
     7
 10
-34.782600000000009
 20
91.022800000000004
 30
0.0
 11
-36.940600000000003
 21
88.864699999999999
 31
0.0
  0
LINE
  5
1AD
  8
_________1
 62
     7
 10
-32.9407
 20
87.397499999999994
 30
0.0
 11
-36.5672
 21
91.022800000000004
 31
0.0
  0
LINE
  5
1AE
  8
_________1
 62
     7
 10
-33.314999999999998
 20
91.022800000000004
 30
0.0
 11
-36.940600000000003
 21
87.397499999999994
 31
0.0
  0
LINE
  5
1AF
  8
_________1
 62
     7
 10
-33.902500000000003
 20
86.890299999999996
 30
0.0
 11
-36.940600000000003
 21
89.928600000000003
 31
0.0
  0
LINE
  5
1B0
  8
_________1
 62
     7
 10
-32.9407
 20
89.928600000000003
 30
0.0
 11
-35.9801
 21
86.890299999999996
 31
0.0
  0
LINE
  5
1B1
  8
_________1
 62
     7
 10
-35.371000000000009
 20
86.890299999999996
 30
0.0
 11
-36.940600000000003
 21
88.461299999999994
 31
0.0
  0
LINE
  5
1B2
  8
_________1
 62
     7
 10
-32.9407
 20
88.461299999999994
 30
0.0
 11
-34.511600000000001
 21
86.890299999999996
 31
0.0
  0
LINE
  5
1B3
  8
_________1
 62
     7
 10
-32.9407
 20
60.359099999999998
 30
0.0
 11
-32.9407
 21
73.834400000000002
 31
0.0
  0
LINE
  5
1B4
  8
_________1
 62
     7
 10
-32.9407
 20
75.559299999999993
 30
0.0
 11
-32.9407
 21
91.022800000000004
 31
0.0
  0
LINE
  5
1B5
  8
_________1
 62
     7
 10
-36.940600000000003
 20
60.359099999999998
 30
0.0
 11
-36.940600000000003
 21
74.8934
 31
0.0
  0
LINE
  5
1B6
  8
_________1
 62
     7
 10
-36.940600000000003
 20
76.620099999999994
 30
0.0
 11
-36.940600000000003
 21
91.022800000000004
 31
0.0
  0
LINE
  5
1B7
  8
_________1
 62
     7
 10
-42.7744
 20
93.522499999999994
 30
0.0
 11
-42.7744
 21
96.006799999999998
 31
0.0
  0
LINE
  5
1B8
  8
_________1
 62
     7
 10
-41.107799999999997
 20
93.522499999999994
 30
0.0
 11
-41.107799999999997
 21
96.006799999999998
 31
0.0
  0
LINE
  5
1B9
  8
_________1
 62
     7
 10
-42.7744
 20
97.673199999999994
 30
0.0
 11
-42.7744
 21
100.023
 31
0.0
  0
LINE
  5
1BA
  8
_________1
 62
     7
 10
-41.107799999999997
 20
97.673199999999994
 30
0.0
 11
-41.107799999999997
 21
100.023
 31
0.0
  0
LINE
  5
1BB
  8
_________1
  6
AIGENLINE001
 62
     7
 10
-41.941499999999991
 20
90.460499999999996
 30
0.0
 11
-41.941499999999991
 21
102.221
 31
0.0
  0
LINE
  5
1BC
  8
_________1
 62
     7
 10
-43.341599999999993
 20
91.855099999999979
 30
0.0
 11
-43.341599999999993
 21
93.522499999999994
 31
0.0
  0
LINE
  5
1BD
  8
_________1
 62
     7
 10
-43.341599999999993
 20
93.522499999999994
 30
0.0
 11
-40.541499999999992
 21
93.522499999999994
 31
0.0
  0
LINE
  5
1BE
  8
_________1
 62
     7
 10
-40.541499999999992
 20
93.522499999999994
 30
0.0
 11
-40.541499999999992
 21
91.855099999999979
 31
0.0
  0
LINE
  5
1BF
  8
_________1
 62
     7
 10
-40.541499999999992
 20
91.855099999999979
 30
0.0
 11
-43.341599999999993
 21
91.855099999999979
 31
0.0
  0
LINE
  5
1C0
  8
_________1
 62
     7
 10
-28.7743
 20
93.522499999999994
 30
0.0
 11
-28.7743
 21
96.006799999999998
 31
0.0
  0
LINE
  5
1C1
  8
_________1
 62
     7
 10
-27.1082
 20
93.522499999999994
 30
0.0
 11
-27.1082
 21
96.006799999999998
 31
0.0
  0
LINE
  5
1C2
  8
_________1
 62
     7
 10
-28.7743
 20
97.673199999999994
 30
0.0
 11
-28.7743
 21
100.023
 31
0.0
  0
LINE
  5
1C3
  8
_________1
 62
     7
 10
-27.1082
 20
97.673199999999994
 30
0.0
 11
-27.1082
 21
100.023
 31
0.0
  0
LINE
  5
1C4
  8
_________1
  6
AIGENLINE001
 62
     7
 10
-27.941099999999999
 20
90.460499999999996
 30
0.0
 11
-27.941099999999999
 21
102.221
 31
0.0
  0
LINE
  5
1C5
  8
_________1
 62
     7
 10
-29.341200000000001
 20
91.855099999999979
 30
0.0
 11
-29.341200000000001
 21
93.522499999999994
 31
0.0
  0
LINE
  5
1C6
  8
_________1
 62
     7
 10
-29.341200000000001
 20
93.522499999999994
 30
0.0
 11
-26.541
 21
93.522499999999994
 31
0.0
  0
LINE
  5
1C7
  8
_________1
 62
     7
 10
-26.541
 20
93.522499999999994
 30
0.0
 11
-26.541
 21
91.855099999999979
 31
0.0
  0
LINE
  5
1C8
  8
_________1
 62
     7
 10
-26.541
 20
91.855099999999979
 30
0.0
 11
-29.341200000000001
 21
91.855099999999979
 31
0.0
  0
LINE
  5
1C9
  8
_________1
 62
     7
 10
-43.27409999999999
 20
96.006799999999998
 30
0.0
 11
-43.27409999999999
 21
97.673199999999994
 31
0.0
  0
LINE
  5
1CA
  8
_________1
 62
     7
 10
-43.27409999999999
 20
97.673199999999994
 30
0.0
 11
-26.607199999999999
 21
97.673199999999994
 31
0.0
  0
LINE
  5
1CB
  8
_________1
 62
     7
 10
-26.607199999999999
 20
97.673199999999994
 30
0.0
 11
-26.607199999999999
 21
96.006799999999998
 31
0.0
  0
LINE
  5
1CC
  8
_________1
 62
     7
 10
-26.607199999999999
 20
96.006799999999998
 30
0.0
 11
-43.27409999999999
 21
96.006799999999998
 31
0.0
  0
LINE
  5
1CD
  8
_________1
 62
     7
 10
-43.27409999999999
 20
100.023
 30
0.0
 11
-43.27409999999999
 21
100.524
 31
0.0
  0
LINE
  5
1CE
  8
_________1
 62
     7
 10
-43.27409999999999
 20
100.524
 30
0.0
 11
-26.607199999999999
 21
100.524
 31
0.0
  0
LINE
  5
1CF
  8
_________1
 62
     7
 10
-26.607199999999999
 20
100.524
 30
0.0
 11
-26.607199999999999
 21
100.023
 31
0.0
  0
LINE
  5
1D0
  8
_________1
 62
     7
 10
-26.607199999999999
 20
100.023
 30
0.0
 11
-43.27409999999999
 21
100.023
 31
0.0
  0
LINE
  5
1D1
  8
_________1
 62
     7
 10
-42.274999999999999
 20
100.524
 30
0.0
 11
-42.274999999999999
 21
100.857
 31
0.0
  0
LINE
  5
1D2
  8
_________1
 62
     7
 10
-42.274999999999999
 20
100.857
 30
0.0
 11
-27.607600000000001
 21
100.857
 31
0.0
  0
LINE
  5
1D3
  8
_________1
 62
     7
 10
-27.607600000000001
 20
100.857
 30
0.0
 11
-27.607600000000001
 21
100.524
 31
0.0
  0
LINE
  5
1D4
  8
_________1
 62
     7
 10
-27.607600000000001
 20
100.524
 30
0.0
 11
-42.274999999999999
 21
100.524
 31
0.0
  0
INSERT
  5
1D5
  8
_________1
 62
     7
  2
AIGNBL02010002
 10
0.0
 20
0.0
 30
0.0
  0
INSERT
  5
1D6
  8
_________1
 62
     7
  2
AIGNBL02010003
 10
0.0
 20
0.0
 30
0.0
  0
LINE
  5
1D7
  8
_________1
 62
     7
 10
-33.274099999999997
 20
44.133299999999998
 30
0.0
 11
-33.274099999999997
 21
37.76400000000001
 31
0.0
  0
LINE
  5
1D8
  8
_________1
 62
     7
 10
-36.607100000000003
 20
44.133299999999998
 30
0.0
 11
-36.607100000000003
 21
37.76400000000001
 31
0.0
  0
LINE
  5
1D9
  8
_________1
 62
     7
 10
-16.2089
 20
47.116799999999998
 30
0.0
 11
-15.6167
 21
44.904999999999987
 31
0.0
  0
LINE
  5
1DA
  8
_________1
 62
     7
 10
-15.6167
 20
44.904999999999987
 30
0.0
 11
-15.0245
 21
47.116799999999998
 31
0.0
  0
LINE
  5
1DB
  8
_________1
 62
     7
 10
-15.0245
 20
47.116799999999998
 30
0.0
 11
-16.2089
 21
47.116799999999998
 31
0.0
  0
LINE
  5
1DC
  8
_________1
 62
     7
 10
-15.043799999999999
 20
108.295
 30
0.0
 11
-15.635999999999999
 21
110.506
 31
0.0
  0
LINE
  5
1DD
  8
_________1
 62
     7
 10
-15.635999999999999
 20
110.506
 30
0.0
 11
-16.228200000000001
 21
108.295
 31
0.0
  0
LINE
  5
1DE
  8
_________1
 62
     7
 10
-16.228200000000001
 20
108.295
 30
0.0
 11
-15.043799999999999
 21
108.295
 31
0.0
  0
LINE
  5
1DF
  8
_________1
 62
     7
 10
-15.635999999999999
 20
44.904999999999987
 30
0.0
 11
-15.635999999999999
 21
110.506
 31
0.0
  0
LINE
  5
1E0
  8
_________1
 62
     7
 10
-32.340699999999998
 20
44.904999999999987
 30
0.0
 11
-14.6319
 21
44.904999999999987
 31
0.0
  0
LINE
  5
1E1
  8
_________1
 62
     7
 10
-59.716999999999999
 20
91.022800000000004
 30
0.0
 11
-41.024299999999997
 21
91.022800000000004
 31
0.0
  0
LINE
  5
1E2
  8
_________1
 62
     7
 10
-52.0137
 20
100.857
 30
0.0
 11
-43.785899999999991
 21
100.857
 31
0.0
  0
LINE
  5
1E3
  8
_________1
 62
     7
 10
-58.293799999999997
 20
108.313
 30
0.0
 11
-58.886400000000002
 21
110.524
 31
0.0
  0
LINE
  5
1E4
  8
_________1
 62
     7
 10
-58.886400000000002
 20
110.524
 30
0.0
 11
-59.478200000000001
 21
108.313
 31
0.0
  0
LINE
  5
1E5
  8
_________1
 62
     7
 10
-59.478200000000001
 20
108.313
 30
0.0
 11
-58.293799999999997
 21
108.313
 31
0.0
  0
LINE
  5
1E6
  8
_________1
 62
     7
 10
-59.4589
 20
93.234899999999996
 30
0.0
 11
-58.867100000000001
 21
91.024500000000003
 31
0.0
  0
LINE
  5
1E7
  8
_________1
 62
     7
 10
-58.867100000000001
 20
91.024500000000003
 30
0.0
 11
-58.274500000000003
 21
93.234899999999996
 31
0.0
  0
LINE
  5
1E8
  8
_________1
 62
     7
 10
-58.274500000000003
 20
93.234899999999996
 30
0.0
 11
-59.4589
 21
93.234899999999996
 31
0.0
  0
LINE
  5
1E9
  8
_________1
 62
     7
 10
-58.886499999999998
 20
110.524
 30
0.0
 11
-58.886499999999998
 21
91.022800000000004
 31
0.0
  0
INSERT
  5
1EA
  8
_________1
 62
     7
  2
AIGNBL02010006
 10
0.0
 20
0.0
 30
0.0
  0
LINE
  5
1EB
  8
_________1
 62
     7
 10
-59.8245
 20
110.524
 30
0.0
 11
-43.47529999999999
 21
110.524
 31
0.0
  0
LINE
  5
1EC
  8
_________1
 62
     7
 10
89.700699999999983
 20
96.006799999999998
 30
0.0
 11
89.700699999999983
 21
91.022800000000004
 31
0.0
  0
LINE
  5
1ED
  8
_________1
 62
     7
 10
80.453100000000006
 20
103.54600000000001
 30
0.0
 11
80.453100000000006
 21
110.52500000000001
 31
0.0
  0
LINE
  5
1EE
  8
_________1
 62
     7
 10
80.119600000000005
 20
110.52500000000001
 30
0.0
 11
80.119600000000005
 21
103.54600000000001
 31
0.0
  0
LINE
  5
1EF
  8
_________1
 62
     7
 10
89.786100000000005
 20
103.54600000000001
 30
0.0
 11
89.786100000000005
 21
110.52500000000001
 31
0.0
  0
LINE
  5
1F0
  8
_________1
 62
     7
 10
90.118799999999993
 20
110.52500000000001
 30
0.0
 11
90.118799999999993
 21
103.54600000000001
 31
0.0
  0
LINE
  5
1F1
  8
_________1
 62
     7
 10
89.700699999999983
 20
100.024
 30
0.0
 11
89.700699999999983
 21
97.673199999999994
 31
0.0
  0
LINE
  5
1F2
  8
_________1
 62
     7
 10
90.034199999999998
 20
97.673199999999994
 30
0.0
 11
90.034199999999998
 21
100.024
 31
0.0
  0
LINE
  5
1F3
  8
_________1
 62
     7
 10
80.366699999999994
 20
100.024
 30
0.0
 11
80.366699999999994
 21
97.673199999999994
 31
0.0
  0
LINE
  5
1F4
  8
_________1
 62
     7
 10
80.0351
 20
97.673199999999994
 30
0.0
 11
80.0351
 21
100.024
 31
0.0
  0
LINE
  5
1F5
  8
_________1
 62
     7
 10
80.366699999999994
 20
96.006799999999998
 30
0.0
 11
80.366699999999994
 21
91.022800000000004
 31
0.0
  0
LINE
  5
1F6
  8
_________1
 62
     7
 10
80.0351
 20
91.356200000000015
 30
0.0
 11
80.0351
 21
96.006799999999998
 31
0.0
  0
LINE
  5
1F7
  8
_________1
 62
     7
 10
80.0351
 20
91.356200000000015
 30
0.0
 11
90.034199999999998
 21
91.356200000000015
 31
0.0
  0
LINE
  5
1F8
  8
_________1
 62
     7
 10
90.034199999999998
 20
96.006799999999998
 30
0.0
 11
90.034199999999998
 21
91.356200000000015
 31
0.0
  0
LINE
  5
1F9
  8
_________1
 62
     7
 10
90.034199999999998
 20
91.356200000000015
 30
0.0
 11
89.698800000000006
 21
91.022800000000004
 31
0.0
  0
LINE
  5
1FA
  8
_________1
 62
     7
 10
89.698800000000006
 20
91.022800000000004
 30
0.0
 11
80.366699999999994
 21
91.022800000000004
 31
0.0
  0
LINE
  5
1FB
  8
_________1
 62
     7
 10
80.366699999999994
 20
91.022800000000004
 30
0.0
 11
80.0351
 21
91.356200000000015
 31
0.0
  0
LINE
  5
1FC
  8
_________1
 62
     7
 10
84.243600000000001
 20
93.522499999999994
 30
0.0
 11
84.243600000000001
 21
96.005799999999994
 31
0.0
  0
LINE
  5
1FD
  8
_________1
 62
     7
 10
85.909199999999998
 20
93.522499999999994
 30
0.0
 11
85.909199999999998
 21
96.005799999999994
 31
0.0
  0
LINE
  5
1FE
  8
_________1
 62
     7
 10
84.243600000000001
 20
97.672200000000004
 30
0.0
 11
84.243600000000001
 21
100.024
 31
0.0
  0
LINE
  5
1FF
  8
_________1
 62
     7
 10
85.909199999999998
 20
97.672200000000004
 30
0.0
 11
85.909199999999998
 21
100.024
 31
0.0
  0
LINE
  5
200
  8
_________1
 62
     7
 10
83.676699999999997
 20
91.855799999999988
 30
0.0
 11
83.676699999999997
 21
93.522499999999994
 31
0.0
  0
LINE
  5
201
  8
_________1
 62
     7
 10
83.676699999999997
 20
93.522499999999994
 30
0.0
 11
86.476900000000001
 21
93.522499999999994
 31
0.0
  0
LINE
  5
202
  8
_________1
 62
     7
 10
86.476900000000001
 20
93.522499999999994
 30
0.0
 11
86.476900000000001
 21
91.855799999999988
 31
0.0
  0
LINE
  5
203
  8
_________1
 62
     7
 10
86.476900000000001
 20
91.855799999999988
 30
0.0
 11
83.676699999999997
 21
91.855799999999988
 31
0.0
  0
LINE
  5
204
  8
_________1
 62
     7
 10
76.742400000000004
 20
96.005799999999994
 30
0.0
 11
76.742400000000004
 21
97.672200000000004
 31
0.0
  0
LINE
  5
205
  8
_________1
 62
     7
 10
76.742400000000004
 20
97.672200000000004
 30
0.0
 11
93.410399999999996
 21
97.672200000000004
 31
0.0
  0
LINE
  5
206
  8
_________1
 62
     7
 10
93.410399999999996
 20
97.672200000000004
 30
0.0
 11
93.410399999999996
 21
96.005799999999994
 31
0.0
  0
LINE
  5
207
  8
_________1
 62
     7
 10
93.410399999999996
 20
96.005799999999994
 30
0.0
 11
76.742400000000004
 21
96.005799999999994
 31
0.0
  0
LINE
  5
208
  8
_________1
 62
     7
 10
76.742400000000004
 20
100.024
 30
0.0
 11
76.742400000000004
 21
100.524
 31
0.0
  0
LINE
  5
209
  8
_________1
 62
     7
 10
76.742400000000004
 20
100.524
 30
0.0
 11
93.410399999999996
 21
100.524
 31
0.0
  0
LINE
  5
20A
  8
_________1
 62
     7
 10
93.410399999999996
 20
100.524
 30
0.0
 11
93.410399999999996
 21
100.024
 31
0.0
  0
LINE
  5
20B
  8
_________1
 62
     7
 10
93.410399999999996
 20
100.024
 30
0.0
 11
76.742400000000004
 21
100.024
 31
0.0
  0
LINE
  5
20C
  8
_________1
 62
     7
 10
77.742900000000006
 20
100.524
 30
0.0
 11
77.742900000000006
 21
100.857
 31
0.0
  0
LINE
  5
20D
  8
_________1
 62
     7
 10
77.742900000000006
 20
100.857
 30
0.0
 11
92.409899999999993
 21
100.857
 31
0.0
  0
LINE
  5
20E
  8
_________1
 62
     7
 10
92.409899999999993
 20
100.857
 30
0.0
 11
92.409899999999993
 21
100.524
 31
0.0
  0
LINE
  5
20F
  8
_________1
 62
     7
 10
92.409899999999993
 20
100.524
 30
0.0
 11
77.742900000000006
 21
100.524
 31
0.0
  0
LINE
  5
210
  8
_________1
 62
     7
 10
84.740599999999986
 20
100.857
 30
0.0
 11
84.740599999999986
 21
102.79000000000001
 31
0.0
  0
ARC
  5
211
  8
_________1
 62
     7
 10
85.078624999999988
 20
102.788709
 30
0.0
 40
0.338045
 50
134.949262
 51
179.74023800000001
  0
ARC
  5
212
  8
_________1
 62
     7
 10
85.076529000000008
 20
102.792843
 30
0.0
 40
0.333642
 50
89.948920000000001
 51
135.19614000000001
  0
ARC
  5
213
  8
_________1
 62
     7
 10
85.074456999999995
 20
102.783911
 30
0.0
 40
0.342582
 50
45.427647999999991
 51
89.603703999999993
  0
ARC
  5
214
  8
_________1
 62
     7
 10
85.068860999999998
 20
102.78720199999999
 30
0.0
 40
0.344222
 50
0.5058660000000002
 51
44.379635999999991
  0
LINE
  5
215
  8
_________1
 62
     7
 10
85.413100000000014
 20
102.79000000000001
 30
0.0
 11
85.413100000000014
 21
100.857
 31
0.0
  0
LINE
  5
216
  8
_________1
 62
     7
 10
79.698000000000008
 20
103.54600000000001
 30
0.0
 11
79.698000000000008
 21
100.857
 31
0.0
  0
LINE
  5
217
  8
_________1
 62
     7
 10
90.539400000000001
 20
103.54600000000001
 30
0.0
 11
79.698000000000008
 21
103.54600000000001
 31
0.0
  0
LINE
  5
218
  8
_________1
 62
     7
 10
79.698000000000008
 20
103.54600000000001
 30
0.0
 11
79.278000000000006
 21
100.857
 31
0.0
  0
LINE
  5
219
  8
_________1
 62
     7
 10
90.539400000000001
 20
100.857
 30
0.0
 11
90.539400000000001
 21
103.54600000000001
 31
0.0
  0
LINE
  5
21A
  8
_________1
 62
     7
 10
90.539400000000001
 20
103.54600000000001
 30
0.0
 11
90.959400000000002
 21
100.857
 31
0.0
  0
INSERT
  5
21B
  8
_________1
 62
     7
  2
AIGNBL02010007
 10
0.0
 20
0.0
 30
0.0
  0
INSERT
  5
21C
  8
_________1
 62
     7
  2
AIGNBL02010009
 10
0.0
 20
0.0
 30
0.0
  0
LINE
  5
21D
  8
_________1
  6
AIGENLINE001
 62
     7
 10
85.076800000000006
 20
104.34
 30
0.0
 11
85.076800000000006
 21
42.509999999999998
 31
0.0
  0
LINE
  5
21E
  8
_________1
 62
     7
 10
-26.408200000000001
 20
110.52500000000001
 30
0.0
 11
-14.703099999999999
 21
110.52500000000001
 31
0.0
  0
ARC
  5
21F
  8
_________1
 62
     7
 10
-34.940812000000001
 20
268.13511499999998
 30
0.0
 40
11.716760000000001
 50
269.99622900000003
 51
359.99619999999999
  0
ARC
  5
220
  8
_________1
 62
     7
 10
-34.941845999999998
 20
268.13459399999999
 30
0.0
 40
11.716239
 50
180.001273
 51
270.001283
  0
LINE
  5
221
  8
_________1
 62
     7
 10
-24.021599999999999
 20
265.99599999999998
 30
0.0
 11
-23.2241
 21
268.13400000000001
 31
0.0
  0
LINE
  5
222
  8
_________1
 62
     7
 10
-23.2241
 20
268.13400000000001
 30
0.0
 11
-22.845400000000001
 21
265.88299999999998
 31
0.0
  0
LINE
  5
223
  8
_________1
 62
     7
 10
-22.845400000000001
 20
265.88299999999998
 30
0.0
 11
-24.021599999999999
 21
265.99599999999998
 31
0.0
  0
LINE
  5
224
  8
_________1
 62
     7
 10
-21.318200000000001
 20
268.13499999999999
 30
0.0
 11
-25.427
 21
268.13499999999999
 31
0.0
  0
LINE
  5
225
  8
_________1
 62
     7
 10
-45.860500000000002
 20
265.99599999999998
 30
0.0
 11
-46.65809999999999
 21
268.13400000000001
 31
0.0
  0
LINE
  5
226
  8
_________1
 62
     7
 10
-46.65809999999999
 20
268.13400000000001
 30
0.0
 11
-47.036700000000003
 21
265.88299999999998
 31
0.0
  0
LINE
  5
227
  8
_________1
 62
     7
 10
-47.036700000000003
 20
265.88299999999998
 30
0.0
 11
-45.860500000000002
 21
265.99599999999998
 31
0.0
  0
LINE
  5
228
  8
_________1
 62
     7
 10
-48.563899999999997
 20
268.13499999999999
 30
0.0
 11
-44.455100000000002
 21
268.13499999999999
 31
0.0
  0
INSERT
  5
229
  8
_________1
 62
     7
  2
AIGNBL0201000A
 10
0.0
 20
0.0
 30
0.0
  0
INSERT
  5
22A
  8
_________1
 62
     7
  2
AIGNBL0201000B
 10
0.0
 20
0.0
 30
0.0
  0
LINE
  5
22B
  8
_________1
 62
     7
 10
55.661599999999993
 20
146.023
 30
0.0
 11
66.232600000000005
 21
146.023
 31
0.0
  0
LINE
  5
22C
  8
_________1
 62
     7
 10
55.661599999999993
 20
131.024
 30
0.0
 11
64.145300000000006
 21
131.024
 31
0.0
  0
ARC
  5
22D
  8
_________1
 62
     7
 10
-34.982779000000001
 20
246.35368099999999
 30
0.0
 40
33.000178000000012
 50
252.72982500000001
 51
270.07153099999999
  0
ARC
  5
22E
  8
_________1
 62
     7
 10
-34.946547000000002
 20
246.67217500000001
 30
0.0
 40
33.318646999999999
 50
270.00854300000009
 51
287.16260899999997
  0
LINE
  5
22F
  8
_________1
 62
     7
 10
-27.400600000000001
 20
214.93000000000001
 30
0.0
 11
-25.114699999999999
 21
214.83699999999999
 31
0.0
  0
LINE
  5
230
  8
_________1
 62
     7
 10
-25.114699999999999
 20
214.83699999999999
 30
0.0
 11
-27.140599999999999
 21
213.77500000000001
 31
0.0
  0
LINE
  5
231
  8
_________1
 62
     7
 10
-27.140599999999999
 20
213.77500000000001
 30
0.0
 11
-27.400600000000001
 21
214.93000000000001
 31
0.0
  0
LINE
  5
232
  8
_________1
 62
     7
 10
-42.494
 20
214.934
 30
0.0
 11
-44.779800000000002
 21
214.84100000000001
 31
0.0
  0
LINE
  5
233
  8
_________1
 62
     7
 10
-44.779800000000002
 20
214.84100000000001
 30
0.0
 11
-42.753399999999992
 21
213.779
 31
0.0
  0
LINE
  5
234
  8
_________1
 62
     7
 10
-42.753399999999992
 20
213.779
 30
0.0
 11
-42.494
 21
214.934
 31
0.0
  0
ARC
  5
235
  8
_________1
 62
     7
 10
84.909392000000011
 20
176.02395899999999
 30
0.0
 40
6.9997899999999991
 50
359.99718999999999
 51
89.997159999999994
  0
ARC
  5
236
  8
_________1
  6
AIGENLINE001
 62
     7
 10
84.909392000000011
 20
176.02395799999999
 30
0.0
 40
10.166543000000001
 50
359.99806799999999
 51
89.998039000000006
  0
ARC
  5
237
  8
_________1
 62
     7
 10
84.909390999999999
 20
176.02395799999999
 30
0.0
 40
13.333295
 50
359.99852900000002
 51
89.998500000000007
  0
ARC
  5
238
  8
_________1
 62
     7
 10
38.844121999999999
 20
175.75518099999999
 30
0.0
 40
7.2735429999999992
 50
92.119236999999984
 51
177.884964
  0
ARC
  5
239
  8
_________1
  6
AIGENLINE001
 62
     7
 10
38.575840999999997
 20
176.02344199999999
 30
0.0
 40
10.167059999999999
 50
89.999029000000021
 51
179.998999
  0
ARC
  5
23A
  8
_________1
 62
     7
 10
38.575411000000003
 20
176.02387200000001
 30
0.0
 40
13.333380999999999
 50
90.001109999999997
 51
180.00111999999999
  0
INSERT
  5
23B
  8
_________1
 62
     7
  2
AIGNBL0201000C
 10
0.0
 20
0.0
 30
0.0
  0
INSERT
  5
23C
  8
_________1
 62
     7
  2
AIGNBL0201000D
 10
0.0
 20
0.0
 30
0.0
  0
INSERT
  5
23D
  8
_________1
 62
     7
  2
AIGNBL0201000E
 10
0.0
 20
0.0
 30
0.0
  0
INSERT
  5
23E
  8
_________1
 62
     7
  2
AIGNBL0201000F
 10
0.0
 20
0.0
 30
0.0
  0
LINE
  5
23F
  8
_________1
 62
     7
 10
24.315100000000001
 20
165.977
 30
0.0
 11
16.753299999999999
 21
165.977
 31
0.0
  0
LINE
  5
240
  8
_________1
 62
     7
 10
33.659100000000002
 20
189.357
 30
0.0
 11
5.2594900000000004
 21
189.357
 31
0.0
  0
LINE
  5
241
  8
_________1
 62
     7
 10
76.876599999999996
 20
110.524
 30
0.0
 11
4.9075699999999989
 21
110.524
 31
0.0
  0
INSERT
  5
242
  8
_________1
 62
     7
  2
AIGNBL02010010
 10
0.0
 20
0.0
 30
0.0
  0
INSERT
  5
243
  8
_________1
 62
     7
  2
AIGNBL02010011
 10
0.0
 20
0.0
 30
0.0
  0
LINE
  5
244
  8
_________1
 62
     7
 10
85.076800000000006
 20
145.44499999999999
 30
0.0
 11
85.076800000000006
 21
139.91499999999999
 31
0.0
  0
INSERT
  5
245
  8
_________1
 62
     7
  2
AIGNBL02010012
 10
0.0
 20
0.0
 30
0.0
  0
LINE
  5
246
  8
_________1
 62
     7
 10
28.408799999999999
 20
162.81899999999999
 30
0.0
 11
28.408799999999999
 21
155.578
 31
0.0
  0
INSERT
  5
247
  8
_________1
 62
     7
  2
AIGNBL02010013
 10
0.0
 20
0.0
 30
0.0
  0
LINE
  5
248
  8
_________1
 62
     7
 10
-38.107300000000002
 20
244.13399999999999
 30
0.0
 11
-31.7743
 21
244.13399999999999
 31
0.0
  0
LINE
  5
249
  8
_________1
 62
     7
 10
-38.107300000000002
 20
201.46700000000001
 30
0.0
 11
-38.107300000000002
 21
268.13499999999999
 31
0.0
  0
LINE
  5
24A
  8
_________1
 62
     7
 10
-31.7743
 20
201.46700000000001
 30
0.0
 11
-31.7743
 21
268.13499999999999
 31
0.0
  0
ARC
  5
24B
  8
_________1
 62
     7
 10
-34.940809999999999
 20
201.46709799999999
 30
0.0
 40
3.166493
 50
179.995295
 51
269.9953450000001
  0
ARC
  5
24C
  8
_________1
 62
     7
 10
-34.941068999999999
 20
201.46735799999999
 30
0.0
 40
3.1667519999999998
 50
270.00002000000001
 51
359.99999000000003
  0
ARC
  5
24D
  8
_________1
 62
     7
 10
-34.941068999999999
 20
268.13451000000009
 30
0.0
 40
3.1667519999999998
 50
0.00001
 51
89.999980000000008
  0
ARC
  5
24E
  8
_________1
 62
     7
 10
-34.940809000000002
 20
268.13476800000001
 30
0.0
 40
3.1664939999999988
 50
90.00467500000002
 51
180.00468499999999
  0
LINE
  5
24F
  8
_________1
  6
AIGENLINE001
 62
     7
 10
-43.582799999999992
 20
268.13499999999999
 30
0.0
 11
-26.252500000000001
 21
268.13499999999999
 31
0.0
  0
LINE
  5
250
  8
_________1
 62
     7
 10
-28.941099999999999
 20
251.46799999999999
 30
0.0
 11
-28.941099999999999
 21
251.96799999999999
 31
0.0
  0
LINE
  5
251
  8
_________1
 62
     7
 10
-40.941099999999992
 20
251.46799999999999
 30
0.0
 11
-40.941099999999992
 21
251.96799999999999
 31
0.0
  0
LINE
  5
252
  8
_________1
 62
     7
 10
-38.107300000000002
 20
251.96799999999999
 30
0.0
 11
-41.607500000000002
 21
251.96799999999999
 31
0.0
  0
LINE
  5
253
  8
_________1
 62
     7
 10
-28.274100000000001
 20
251.96799999999999
 30
0.0
 11
-31.7743
 21
251.96799999999999
 31
0.0
  0
LINE
  5
254
  8
_________1
 62
     7
 10
-38.107300000000002
 20
251.46799999999999
 30
0.0
 11
-41.607500000000002
 21
251.46799999999999
 31
0.0
  0
LINE
  5
255
  8
_________1
 62
     7
 10
-28.274100000000001
 20
251.46799999999999
 30
0.0
 11
-31.7743
 21
251.46799999999999
 31
0.0
  0
LINE
  5
256
  8
_________1
  6
AIGENLINE001
 62
     7
 10
-34.941099999999999
 20
276.416
 30
0.0
 11
-34.941099999999999
 21
195.84899999999999
 31
0.0
  0
LINE
  5
257
  8
_________1
 62
     7
 10
-38.107300000000002
 20
239.80099999999999
 30
0.0
 11
-41.607500000000002
 21
239.80099999999999
 31
0.0
  0
LINE
  5
258
  8
_________1
 62
     7
 10
-28.274100000000001
 20
239.80099999999999
 30
0.0
 11
-31.7743
 21
239.80099999999999
 31
0.0
  0
LINE
  5
259
  8
_________1
 62
     7
 10
-41.607500000000002
 20
251.46799999999999
 30
0.0
 11
-41.607500000000002
 21
239.80099999999999
 31
0.0
  0
LINE
  5
25A
  8
_________1
 62
     7
 10
-41.607500000000002
 20
273.13499999999999
 30
0.0
 11
-41.607500000000002
 21
251.96799999999999
 31
0.0
  0
LINE
  5
25B
  8
_________1
 62
     7
 10
-41.607500000000002
 20
273.13499999999999
 30
0.0
 11
-28.274100000000001
 21
273.13499999999999
 31
0.0
  0
LINE
  5
25C
  8
_________1
 62
     7
 10
-28.274100000000001
 20
251.46799999999999
 30
0.0
 11
-28.274100000000001
 21
239.80099999999999
 31
0.0
  0
LINE
  5
25D
  8
_________1
 62
     7
 10
-28.274100000000001
 20
273.13499999999999
 30
0.0
 11
-28.274100000000001
 21
251.96799999999999
 31
0.0
  0
LINE
  5
25E
  8
_________1
 62
     7
 10
85.076000000000008
 20
127.526
 30
0.0
 11
85.948800000000006
 21
127.526
 31
0.0
  0
LINE
  5
25F
  8
_________1
 62
     7
 10
91.242199999999997
 20
124.357
 30
0.0
 11
86.832499999999996
 21
127.261
 31
0.0
  0
ARC
  5
260
  8
_________1
 62
     7
 10
85.944529000000003
 20
125.90929199999999
 30
0.0
 40
1.6168969999999989
 50
56.690854000000002
 51
89.849171999999996
  0
LINE
  5
261
  8
_________1
 62
     7
 10
85.076000000000008
 20
127.526
 30
0.0
 11
84.203100000000006
 21
127.526
 31
0.0
  0
LINE
  5
262
  8
_________1
 62
     7
 10
78.909700000000001
 20
124.357
 30
0.0
 11
83.319500000000005
 21
127.261
 31
0.0
  0
ARC
  5
263
  8
_________1
 62
     7
 10
84.207456999999991
 20
125.909104
 30
0.0
 40
1.6170850000000001
 50
90.152796000000009
 51
123.30713799999999
  0
LINE
  5
264
  8
_________1
  6
AIGENLINE001
 62
     7
 10
102.211
 20
131.024
 30
0.0
 11
64.915099999999995
 21
131.024
 31
0.0
  0
LINE
  5
265
  8
_________1
 62
     7
 10
78.909700000000001
 20
124.357
 30
0.0
 11
78.909700000000001
 21
111.024
 31
0.0
  0
LINE
  5
266
  8
_________1
 62
     7
 10
91.243200000000002
 20
124.357
 30
0.0
 11
91.243200000000002
 21
111.024
 31
0.0
  0
LINE
  5
267
  8
_________1
 62
     7
 10
68.409899999999993
 20
189.357
 30
0.0
 11
68.409899999999993
 21
183.024
 31
0.0
  0
LINE
  5
268
  8
_________1
 62
     7
 10
98.242699999999999
 20
137.691
 30
0.0
 11
98.242699999999999
 21
176.024
 31
0.0
  0
LINE
  5
269
  8
_________1
  6
AIGENLINE001
 62
     7
 10
95.075900000000004
 20
176.024
 30
0.0
 11
95.075900000000004
 21
131.024
 31
0.0
  0
LINE
  5
26A
  8
_________1
 62
     7
 10
91.909199999999998
 20
137.691
 30
0.0
 11
91.909199999999998
 21
176.024
 31
0.0
  0
LINE
  5
26B
  8
_________1
 62
     7
 10
-41.107799999999997
 20
128.49100000000001
 30
0.0
 11
-41.107799999999997
 21
111.024
 31
0.0
  0
LINE
  5
26C
  8
_________1
 62
     7
 10
-28.7743
 20
128.49100000000001
 30
0.0
 11
-28.7743
 21
111.024
 31
0.0
  0
LINE
  5
26D
  8
_________1
 62
     7
 10
-33.773899999999998
 20
139.249
 30
0.0
 11
-31.7743
 21
139.249
 31
0.0
  0
LINE
  5
26E
  8
_________1
 62
     7
 10
-38.107799999999997
 20
139.249
 30
0.0
 11
-36.107399999999998
 21
139.249
 31
0.0
  0
LINE
  5
26F
  8
_________1
 62
     7
 10
-31.7743
 20
186.21100000000001
 30
0.0
 11
-31.7743
 21
136.88999999999999
 31
0.0
  0
LINE
  5
270
  8
_________1
 62
     7
 10
-38.107300000000002
 20
186.21299999999999
 30
0.0
 11
-38.107300000000002
 21
136.88999999999999
 31
0.0
  0
LINE
  5
271
  8
_________1
  6
AIGENLINE002
 62
     7
 10
-49.941099999999999
 20
129.85599999999999
 30
0.0
 11
-49.941099999999999
 21
132.18899999999999
 31
0.0
  0
LINE
  5
272
  8
_________1
  6
AIGENLINE001
 62
     7
 10
-51.151899999999998
 20
131.024
 30
0.0
 11
-25.977699999999999
 21
131.024
 31
0.0
  0
LINE
  5
273
  8
_________1
  6
AIGENLINE002
 62
     7
 10
-49.941099999999999
 20
129.85599999999999
 30
0.0
 11
-41.5047
 21
129.85599999999999
 31
0.0
  0
LINE
  5
274
  8
_________1
  6
AIGENLINE002
 62
     7
 10
-49.941099999999999
 20
132.18899999999999
 30
0.0
 11
-41.5047
 21
132.18899999999999
 31
0.0
  0
LINE
  5
275
  8
_________1
 62
     7
 10
-36.107399999999998
 20
146.023
 30
0.0
 11
-33.773899999999998
 21
146.023
 31
0.0
  0
LINE
  5
276
  8
_________1
 62
     7
 10
-36.107399999999998
 20
146.023
 30
0.0
 11
-36.107399999999998
 21
137.58699999999999
 31
0.0
  0
LINE
  5
277
  8
_________1
 62
     7
 10
-33.773899999999998
 20
146.023
 30
0.0
 11
-33.773899999999998
 21
137.58699999999999
 31
0.0
  0
LINE
  5
278
  8
_________1
  6
AIGENLINE001
 62
     7
 10
-34.941099999999999
 20
191.69099999999989
 30
0.0
 11
-34.941099999999999
 21
42.14889999999999
 31
0.0
  0
ARC
  5
279
  8
_________1
 62
     7
 10
-34.941496999999998
 20
131.02375000000001
 30
0.0
 40
13.213663
 50
90.000372999999996
 51
180.000383
  0
ARC
  5
27A
  8
_________1
 62
     7
 10
-34.940812000000001
 20
186.19093000000001
 30
0.0
 40
11.076653
 50
179.99774300000001
 51
269.997792
  0
ARC
  5
27B
  8
_________1
 62
     7
 10
-34.941242000000003
 20
186.19136399999999
 30
0.0
 40
11.077087000000001
 50
270.00002000000001
 51
359.99999000000003
  0
ARC
  5
27C
  8
_________1
 62
     7
 10
-34.941325999999997
 20
131.02340699999999
 30
0.0
 40
6.6662169999999987
 50
89.997779000000008
 51
179.997749
  0
ARC
  5
27D
  8
_________1
 62
     7
 10
-34.940810999999997
 20
131.02340699999999
 30
0.0
 40
6.6667309999999986
 50
179.99775
 51
269.99779899999999
  0
ARC
  5
27E
  8
_________1
 62
     7
 10
-34.941068999999999
 20
131.02366699999999
 30
0.0
 40
6.6669919999999987
 50
270.00002000000001
 51
359.99999000000003
  0
ARC
  5
27F
  8
_________1
 62
     7
 10
-34.940553000000001
 20
131.02314799999999
 30
0.0
 40
6.6664750000000002
 50
0.004451
 51
90.004422000000005
  0
ARC
  5
280
  8
_________1
 62
     7
 10
95.075935000000001
 20
143.417654
 30
0.0
 40
6.5760740000000002
 50
245.696809
 51
294.30321099999998
  0
LINE
  5
281
  8
_________1
 62
     7
 10
98.242699999999999
 20
139.249
 30
0.0
 11
91.909199999999998
 21
139.249
 31
0.0
  0
LINE
  5
282
  8
_________1
 62
     7
 10
78.409800000000004
 20
125.024
 30
0.0
 11
78.908699999999996
 21
125.024
 31
0.0
  0
LINE
  5
283
  8
_________1
 62
     7
 10
78.409800000000004
 20
137.024
 30
0.0
 11
78.908699999999996
 21
137.024
 31
0.0
  0
LINE
  5
284
  8
_________1
 62
     7
 10
91.243200000000002
 20
124.357
 30
0.0
 11
100.075
 21
124.357
 31
0.0
  0
LINE
  5
285
  8
_________1
 62
     7
 10
91.909199999999998
 20
137.691
 30
0.0
 11
78.908699999999996
 21
137.691
 31
0.0
  0
LINE
  5
286
  8
_________1
 62
     7
 10
100.075
 20
137.691
 30
0.0
 11
98.242699999999999
 21
137.691
 31
0.0
  0
LINE
  5
287
  8
_________1
  6
AIGENLINE001
 62
     7
 10
-44.204799999999999
 20
258.13499999999999
 30
0.0
 11
-25.860299999999999
 21
258.13499999999999
 31
0.0
  0
LINE
  5
288
  8
_________1
 62
     7
 10
100.075
 20
123.35899999999999
 30
0.0
 11
100.075
 21
114.188
 31
0.0
  0
LINE
  5
289
  8
_________1
 62
     7
 10
66.742400000000004
 20
123.35899999999999
 30
0.0
 11
66.742400000000004
 21
114.188
 31
0.0
  0
LINE
  5
28A
  8
_________1
 62
     7
 10
100.075
 20
137.691
 30
0.0
 11
100.075
 21
124.357
 31
0.0
  0
LINE
  5
28B
  8
_________1
 62
     7
 10
67.242099999999994
 20
146.023
 30
0.0
 11
69.575699999999998
 21
146.023
 31
0.0
  0
LINE
  5
28C
  8
_________1
 62
     7
 10
67.242099999999994
 20
146.023
 30
0.0
 11
67.242099999999994
 21
137.691
 31
0.0
  0
LINE
  5
28D
  8
_________1
 62
     7
 10
69.575699999999998
 20
146.023
 30
0.0
 11
69.575699999999998
 21
137.691
 31
0.0
  0
LINE
  5
28E
  8
_________1
  6
AIGENLINE001
 62
     7
 10
68.408999999999992
 20
147.99100000000001
 30
0.0
 11
68.408999999999992
 21
136.10299999999989
 31
0.0
  0
LINE
  5
28F
  8
_________1
 62
     7
 10
78.908699999999996
 20
137.691
 30
0.0
 11
78.908699999999996
 21
124.357
 31
0.0
  0
LINE
  5
290
  8
_________1
 62
     7
 10
111.848
 20
124.357
 30
0.0
 11
101.13800000000001
 21
124.357
 31
0.0
  0
LINE
  5
291
  8
_________1
 62
     7
 10
111.848
 20
137.691
 30
0.0
 11
101.13800000000001
 21
137.691
 31
0.0
  0
LINE
  5
292
  8
_________1
 62
     7
 10
78.409800000000004
 20
124.357
 30
0.0
 11
66.742400000000004
 21
124.357
 31
0.0
  0
LINE
  5
293
  8
_________1
 62
     7
 10
78.409800000000004
 20
137.691
 30
0.0
 11
66.742400000000004
 21
137.691
 31
0.0
  0
LINE
  5
294
  8
_________1
 62
     7
 10
78.409800000000004
 20
137.691
 30
0.0
 11
78.409800000000004
 21
124.357
 31
0.0
  0
LINE
  5
295
  8
_________1
 62
     7
 10
66.742400000000004
 20
137.691
 30
0.0
 11
66.742400000000004
 21
124.357
 31
0.0
  0
LINE
  5
296
  8
_________1
 62
     7
 10
-31.773800000000001
 20
165.977
 30
0.0
 11
-38.107300000000002
 21
165.977
 31
0.0
  0
ARC
  5
297
  8
_________1
 62
     7
 10
-34.940551999999997
 20
186.19050100000001
 30
0.0
 40
3.1667519999999998
 50
0.00001
 51
89.999980000000008
  0
ARC
  5
298
  8
_________1
 62
     7
 10
-34.81926
 20
186.06921
 30
0.0
 40
3.2902789999999991
 50
92.112593000000004
 51
177.88737699999999
  0
LINE
  5
299
  8
_________1
 62
     7
 10
84.909700000000001
 20
183.024
 30
0.0
 11
38.575200000000002
 21
183.024
 31
0.0
  0
LINE
  5
29A
  8
_________1
 62
     7
 10
84.909700000000001
 20
189.357
 30
0.0
 11
38.575200000000002
 21
189.357
 31
0.0
  0
LINE
  5
29B
  8
_________1
  6
AIGENLINE001
 62
     7
 10
28.408799999999999
 20
163.69
 30
0.0
 11
28.408799999999999
 21
176.024
 31
0.0
  0
LINE
  5
29C
  8
_________1
 62
     7
 10
25.242000000000001
 20
165.977
 30
0.0
 11
25.242000000000001
 21
176.024
 31
0.0
  0
LINE
  5
29D
  8
_________1
 62
     7
 10
-38.107799999999997
 20
172.31100000000001
 30
0.0
 11
-31.7743
 21
172.31100000000001
 31
0.0
  0
LINE
  5
29E
  8
_________1
 62
     7
 10
25.242000000000001
 20
172.31100000000001
 30
0.0
 11
31.575500000000002
 21
172.31100000000001
 31
0.0
  0
LINE
  5
29F
  8
_________1
 62
     7
 10
25.242000000000001
 20
165.977
 30
0.0
 11
31.575500000000002
 21
165.977
 31
0.0
  0
LINE
  5
2A0
  8
_________1
 62
     7
 10
31.575500000000002
 20
165.977
 30
0.0
 11
31.575500000000002
 21
176.024
 31
0.0
  0
LINE
  5
2A1
  8
_________1
  6
AIGENLINE002
 62
     7
 10
-54.734099999999998
 20
186.19099999999989
 30
0.0
 11
-15.147500000000001
 21
186.19099999999989
 31
0.0
  0
LINE
  5
2A2
  8
_________1
  6
AIGENLINE001
 62
     7
 10
38.576000000000001
 20
186.19099999999989
 30
0.0
 11
84.909700000000001
 21
186.19099999999989
 31
0.0
  0
LINE
  5
2A3
  8
_________1
  6
AIGENLINE001
 62
     7
 10
85.076800000000006
 20
139.249
 30
0.0
 11
85.076800000000006
 21
109.69199999999999
 31
0.0
  0
ARC
  5
2A4
  8
_________1
 62
     7
 10
85.031607999999991
 20
268.16181399999999
 30
0.0
 40
5.8330149999999996
 50
270.00255800000002
 51
0.002528
  0
ARC
  5
2A5
  8
_________1
 62
     7
 10
85.031607999999991
 20
268.162329
 30
0.0
 40
5.8335299999999997
 50
180.00254799999999
 51
270.00255800000002
  0
ARC
  5
2A6
  8
_________1
 62
     7
 10
85.031695999999997
 20
268.16189800000001
 30
0.0
 40
5.8336180000000004
 50
89.998307999999994
 51
179.998278
  0
ARC
  5
2A7
  8
_________1
 62
     7
 10
85.031521999999995
 20
268.16241500000001
 30
0.0
 40
5.8331010000000001
 50
359.99662599999999
 51
89.996595999999997
  0
INSERT
  5
2A8
  8
_________1
 62
     7
  2
AIGNBL02010014
 10
0.0
 20
0.0
 30
0.0
  0
LINE
  5
2A9
  8
_________1
  6
AIGENLINE001
 62
     7
 10
85.076800000000006
 20
259.63400000000001
 30
0.0
 11
85.076800000000006
 21
276.63499999999999
 31
0.0
  0
LINE
  5
2AA
  8
_________1
  6
AIGENLINE001
 62
     7
 10
76.5762
 20
268.13499999999999
 30
0.0
 11
93.576599999999999
 21
268.13499999999999
 31
0.0
  0
TEXT
  5
2AB
  8
_________2
 62
     7
 10
-76.682500000000005
 20
20.402699999999999
 30
0.0
 40
4.2168199999999993
  1
使用条件：スパウト操作は使用可能範囲内でご使用ください。範囲外で使用するとスパウトが抜けるおそれがあります。
 41
0.5
  0
TEXT
  5
2AC
  8
_________2
 62
     7
 10
-76.682500000000005
 20
28.257899999999999
 30
0.0
 40
4.2168199999999993
  1
設置条件：ハンドルを正面(シンク及び洗面器側)に向けた状態で設置してください。
 41
0.5
  0
TEXT
  5
2AD
  8
_________2
 62
     7
 10
237.37664890476191
 20
270.04199999999997
 30
0.0
 40
4.2168199999999993
  1
（注）：色番号はカタログを参照ください。
 41
0.5
 72
     2
 11
286.101
 21
270.04199999999997
 31
0.0
  0
TEXT
  5
2AE
  8
_________2
 62
     7
 10
169.50999999999999
 20
85.297300000000007
 30
0.0
 40
3.9357000000000002
  1
※快適にお使いいただくためには、0.2～0.3MPa程度の圧力をおすすめします。
 41
0.5
  0
TEXT
  5
2AF
  8
_________2
 62
     7
 10
169.50999999999999
 20
91.377600000000001
 30
0.0
 40
3.9357000000000002
  1
0.5MPa（流動圧）
 41
0.5
  0
TEXT
  5
2B0
  8
_________2
 62
     7
 10
169.50999999999999
 20
63.960700000000003
 30
0.0
 40
3.9357000000000002
  1
※寒冷地仕様ではありません、凍結が予想される場合は凍結予防をしてください。
 41
0.5
  0
TEXT
  5
2B1
  8
_________2
 62
     7
 10
169.50999999999999
 20
70.040999999999997
 30
0.0
 40
3.9357000000000002
  1
1～40℃
 41
0.5
  0
TEXT
  5
2B2
  8
_________2
 62
     7
 10
219.08699999999999
 20
45.473100000000002
 30
0.0
 40
3.9357000000000002
  1
ボラ　キッチン用立水栓
 41
0.5
  0
TEXT
  5
2B3
  8
_________2
 62
     7
 10
200.4570586666666
 20
34.465299999999999
 30
0.0
 40
3.6545800000000002
  1
1 ： 3
 41
0.5
 72
     1
 11
203.86799999999999
 21
34.465299999999999
 31
0.0
  0
TEXT
  5
2B4
  8
_________2
 62
     7
 10
245.25862499999999
 20
30.3553
 30
0.0
 40
3.9357000000000002
  1
VLKV8CDU
 41
0.5
 72
     1
 11
253.458
 21
30.3553
 31
0.0
  0
TEXT
  5
2B5
  8
_________2
 62
     7
 10
149.3328003333333
 20
34.850499999999997
 30
0.0
 40
3.6545800000000002
  1
井田
 41
0.5
 72
     1
 11
151.221
 21
34.850499999999997
 31
0.0
  0
TEXT
  5
2B6
  8
_________2
 62
     7
 10
130.69789066666669
 20
34.850499999999997
 30
0.0
 40
3.6545800000000002
  1
恋塚
 41
0.5
 72
     1
 11
132.64699999999999
 21
34.850499999999997
 31
0.0
  0
TEXT
  5
2B7
  8
_________2
 62
     7
 10
177.69399999999999
 20
34.465299999999999
 30
0.0
 40
3.6545800000000002
  1
19.07.09
 41
0.5
  0
TEXT
  5
2B8
  8
_________2
 62
     7
 10
290.64778333333328
 20
12.808299999999999
 30
0.0
 40
3.3734599999999988
  1
A3
 41
0.5
 72
     2
 11
293.459
 21
12.808299999999999
 31
0.0
  0
TEXT
  5
2B9
  8
_________2
 62
     7
 10
134.495
 20
21.954699999999999
 30
0.0
 40
3.9357000000000002
  1
（社）日本水道協会認証品
 41
0.5
  0
LINE
  5
2BA
  8
_________2
 62
     7
 10
315.209
 20
148.65899999999999
 30
0.0
 11
293.459
 21
148.65899999999999
 31
0.0
  0
LINE
  5
2BB
  8
_________2
 62
     7
 10
105.20699999999999
 20
17.156300000000002
 30
0.0
 11
105.20699999999999
 21
0.176045
 31
0.0
  0
LINE
  5
2BC
  8
_________2
 62
     7
 10
105.20699999999999
 20
297.178
 30
0.0
 11
105.20699999999999
 21
280.15800000000002
 31
0.0
  0
LINE
  5
2BD
  8
_________2
 62
     7
 10
-83.043899999999994
 20
148.65899999999999
 30
0.0
 11
-104.794
 21
148.65899999999999
 31
0.0
  0
INSERT
  5
2BE
  8
_________2
 62
     7
  2
AIGNBL03010002
 10
0.0
 20
0.0
 30
0.0
  0
TEXT
  5
2BF
  8
_________2
 62
     7
 10
214.51300000000001
 20
22.9269
 30
0.0
 40
3.0923400000000001
  1
図番
 41
0.5
  0
LINE
  5
2C0
  8
_________2
 62
     7
 10
213.458
 20
27.156099999999999
 30
0.0
 11
293.459
 21
27.156099999999999
 31
0.0
  0
TEXT
  5
2C1
  8
_________2
 62
     7
 10
214.51300000000001
 20
32.926699999999997
 30
0.0
 40
3.0923400000000001
  1
品番
 41
0.5
  0
TEXT
  5
2C2
  8
_________2
 62
     7
 10
214.51300000000001
 20
53.0655
 30
0.0
 40
3.0923400000000001
  1
名称
 41
0.5
  0
TEXT
  5
2C3
  8
_________2
 62
     7
 10
201.75325833333329
 20
48.069400000000002
 30
0.0
 40
3.6545800000000002
  1
mm
 41
0.5
 72
     1
 11
203.27600000000001
 21
48.069400000000002
 31
0.0
  0
TEXT
  5
2C4
  8
_________2
 62
     7
 10
195.55099999999999
 20
53.0655
 30
0.0
 40
3.0923400000000001
  1
単位
 41
0.5
  0
TEXT
  5
2C5
  8
_________2
 62
     7
 10
195.55099999999999
 20
40.658200000000001
 30
0.0
 40
3.0923400000000001
  1
尺度
 41
0.5
  0
TEXT
  5
2C6
  8
_________2
 62
     7
 10
245.25862499999999
 20
20.354800000000001
 30
0.0
 40
3.9357000000000002
  1
VLKV8CDU
 41
0.5
 72
     1
 11
253.458
 21
20.354800000000001
 31
0.0
  0
TEXT
  5
2C7
  8
_________2
 62
     7
 10
129.49600000000001
 20
98.999600000000001
 30
0.0
 40
3.9357000000000002
  1
給水圧力
 41
0.5
  0
TEXT
  5
2C8
  8
_________2
 62
     7
 10
129.49600000000001
 20
106.762
 30
0.0
 40
3.9357000000000002
  1
用途
 41
0.5
  0
TEXT
  5
2C9
  8
_________2
 62
     7
 10
169.50999999999999
 20
106.762
 30
0.0
 40
3.9357000000000002
  1
一般住宅用（屋内用）
 41
0.5
  0
LINE
  5
2CA
  8
_________2
 62
     7
 10
145.64099999999999
 20
104.654
 30
0.0
 11
145.64099999999999
 21
83.317400000000006
 31
0.0
  0
LINE
  5
2CB
  8
_________2
 62
     7
 10
166.97200000000001
 20
112.417
 30
0.0
 11
166.97200000000001
 21
61.980800000000002
 31
0.0
  0
LINE
  5
2CC
  8
_________2
 62
     7
 10
290.16199999999998
 20
112.417
 30
0.0
 11
126.95699999999999
 21
112.417
 31
0.0
  0
LINE
  5
2CD
  8
_________2
 62
     7
 10
126.95699999999999
 20
112.417
 30
0.0
 11
126.95699999999999
 21
61.980800000000002
 31
0.0
  0
LINE
  5
2CE
  8
_________2
 62
     7
 10
126.95699999999999
 20
61.980800000000002
 30
0.0
 11
290.16199999999998
 21
61.980800000000002
 31
0.0
  0
LINE
  5
2CF
  8
_________2
 62
     7
 10
290.16199999999998
 20
61.980800000000002
 30
0.0
 11
290.16199999999998
 21
112.417
 31
0.0
  0
TEXT
  5
2D0
  8
_________2
 62
     7
 10
147.41499999999999
 20
98.999600000000001
 30
0.0
 40
3.9357000000000002
  1
最低必要水圧
 41
0.5
  0
TEXT
  5
2D1
  8
_________2
 62
     7
 10
169.50999999999999
 20
98.999600000000001
 30
0.0
 40
3.9357000000000002
  1
0.1MPa（流動圧）
 41
0.5
  0
LINE
  5
2D2
  8
_________2
 62
     7
 10
126.95699999999999
 20
104.654
 30
0.0
 11
290.16199999999998
 21
104.654
 31
0.0
  0
TEXT
  5
2D3
  8
_________2
 62
     7
 10
129.49600000000001
 20
77.662899999999993
 30
0.0
 40
3.9357000000000002
  1
使用可能水質
 41
0.5
  0
TEXT
  5
2D4
  8
_________2
 62
     7
 10
169.50999999999999
 20
77.662899999999993
 30
0.0
 40
3.9357000000000002
  1
水道水
 41
0.5
  0
LINE
  5
2D5
  8
_________2
 62
     7
 10
126.95699999999999
 20
83.317400000000006
 30
0.0
 11
290.16199999999998
 21
83.317400000000006
 31
0.0
  0
TEXT
  5
2D6
  8
_________2
 62
     7
 10
147.41499999999999
 20
91.377600000000001
 30
0.0
 40
3.9357000000000002
  1
最高水圧
 41
0.5
  0
LINE
  5
2D7
  8
_________2
 62
     7
 10
145.64099999999999
 20
96.891499999999994
 30
0.0
 11
290.16199999999998
 21
96.891499999999994
 31
0.0
  0
TEXT
  5
2D8
  8
_________2
 62
     7
 10
129.49600000000001
 20
70.040999999999997
 30
0.0
 40
3.9357000000000002
  1
使用環境温度
 41
0.5
  0
LINE
  5
2D9
  8
_________2
 62
     7
 10
126.95699999999999
 20
75.554900000000004
 30
0.0
 11
290.16199999999998
 21
75.554900000000004
 31
0.0
  0
TEXT
  5
2DA
  8
_________2
 62
     7
 10
176.501
 20
40.658200000000001
 30
0.0
 40
3.0923400000000001
  1
日付
 41
0.5
  0
TEXT
  5
2DB
  8
_________2
 62
     7
 10
139.547
 20
40.658200000000001
 30
0.0
 40
3.0923400000000001
  1
検図
 41
0.5
  0
TEXT
  5
2DC
  8
_________2
 62
     7
 10
127.929
 20
26.4588
 30
0.0
 40
3.0923400000000001
  1
備考
 41
0.5
  0
TEXT
  5
2DD
  8
_________2
 62
     7
 10
127.929
 20
40.658200000000001
 30
0.0
 40
3.0923400000000001
  1
製図
 41
0.5
  0
TEXT
  5
2DE
  8
_________2
 62
     7
 10
133.69596533333331
 20
49.184199999999997
 30
0.0
 40
4.4979399999999989
  1
セラトレーディング株式会社
 41
0.5
 72
     1
 11
151.08799999999999
 21
49.184199999999997
 31
0.0
  0
LINE
  5
2DF
  8
_________2
 62
     7
 10
293.459
 20
17.156300000000002
 30
0.0
 11
-83.043899999999994
 21
17.156300000000002
 31
0.0
  0
LINE
  5
2E0
  8
_________2
 62
     7
 10
-83.043899999999994
 20
17.156300000000002
 30
0.0
 11
-83.043899999999994
 21
280.15800000000002
 31
0.0
  0
LINE
  5
2E1
  8
_________2
 62
     7
 10
-83.043899999999994
 20
280.15800000000002
 30
0.0
 11
293.459
 21
280.15800000000002
 31
0.0
  0
LINE
  5
2E2
  8
_________2
 62
     7
 10
293.459
 20
280.15800000000002
 30
0.0
 11
293.459
 21
17.156300000000002
 31
0.0
  0
LINE
  5
2E3
  8
_________2
 62
     7
 10
175.458
 20
30.656400000000001
 30
0.0
 11
175.458
 21
57.156199999999998
 31
0.0
  0
LINE
  5
2E4
  8
_________2
 62
     7
 10
194.458
 20
30.656400000000001
 30
0.0
 11
194.458
 21
57.156199999999998
 31
0.0
  0
LINE
  5
2E5
  8
_________2
 62
     7
 10
126.95699999999999
 20
17.156300000000002
 30
0.0
 11
126.95699999999999
 21
57.156199999999998
 31
0.0
  0
LINE
  5
2E6
  8
_________2
 62
     7
 10
213.458
 20
17.156300000000002
 30
0.0
 11
213.458
 21
57.156199999999998
 31
0.0
  0
LINE
  5
2E7
  8
_________2
 62
     7
 10
138.45699999999999
 20
30.656400000000001
 30
0.0
 11
138.45699999999999
 21
44.65659999999999
 31
0.0
  0
LINE
  5
2E8
  8
_________2
 62
     7
 10
126.95699999999999
 20
30.656400000000001
 30
0.0
 11
213.458
 21
30.656400000000001
 31
0.0
  0
LINE
  5
2E9
  8
_________2
 62
     7
 10
126.95699999999999
 20
44.65659999999999
 30
0.0
 11
213.458
 21
44.65659999999999
 31
0.0
  0
LINE
  5
2EA
  8
_________2
 62
     7
 10
213.458
 20
37.15590000000001
 30
0.0
 11
293.459
 21
37.15590000000001
 31
0.0
  0
LINE
  5
2EB
  8
_________2
 62
     7
 10
126.95699999999999
 20
57.156199999999998
 30
0.0
 11
293.459
 21
57.156199999999998
 31
0.0
  0
ENDSEC
  0
EOF
