  0
SECTION
  2
HEADER
  9
$ACADVER
  1
AC1009
  9
$INSBASE
 10
0.0
 20
0.0
 30
0.0
  9
$EXTMIN
 10
-4.7008599999999987
 20
-21.071400000000001
 30
0.0
  9
$EXTMAX
 10
205.30000000000001
 20
275.93099999999998
 30
0.0
  9
$LIMMIN
 10
0.0
 20
0.0
  9
$LIMMAX
 10
12.0
 20
9.0
  9
$ORTHOMODE
 70
     0
  9
$REGENMODE
 70
     1
  9
$FILLMODE
 70
     1
  9
$QTEXTMODE
 70
     0
  9
$MIRRTEXT
 70
     1
  9
$DRAGMODE
 70
     2
  9
$LTSCALE
 40
1.0
  9
$OSMODE
 70
    37
  9
$ATTMODE
 70
     1
  9
$TEXTSIZE
 40
0.0
  9
$TRACEWID
 40
0.05
  9
$TEXTSTYLE
  7
STANDARD
  9
$CLAYER
  8
0
  9
$CELTYPE
  6
CONTINUOUS
  9
$CECOLOR
 62
   256
  9
$DIMSCALE
 40
1.0
  9
$DIMASZ
 40
0.18
  9
$DIMEXO
 40
0.0625
  9
$DIMDLI
 40
0.38
  9
$DIMRND
 40
0.0
  9
$DIMDLE
 40
0.0
  9
$DIMEXE
 40
0.18
  9
$DIMTP
 40
0.0
  9
$DIMTM
 40
0.0
  9
$DIMTXT
 40
0.18
  9
$DIMCEN
 40
0.09
  9
$DIMTSZ
 40
0.0
  9
$DIMTOL
 70
     0
  9
$DIMLIM
 70
     0
  9
$DIMTIH
 70
     1
  9
$DIMTOH
 70
     1
  9
$DIMSE1
 70
     0
  9
$DIMSE2
 70
     0
  9
$DIMTAD
 70
     0
  9
$DIMZIN
 70
     0
  9
$DIMBLK
  1

  9
$DIMASO
 70
     1
  9
$DIMSHO
 70
     1
  9
$DIMPOST
  1

  9
$DIMAPOST
  1

  9
$DIMALT
 70
     0
  9
$DIMALTD
 70
     2
  9
$DIMALTF
 40
25.399999999999999
  9
$DIMLFAC
 40
1.0
  9
$DIMTOFL
 70
     0
  9
$DIMTVP
 40
0.0
  9
$DIMTIX
 70
     0
  9
$DIMSOXD
 70
     0
  9
$DIMSAH
 70
     0
  9
$DIMBLK1
  1

  9
$DIMBLK2
  1

  9
$DIMSTYLE
  2
STANDARD
  9
$DIMCLRD
 70
     0
  9
$DIMCLRE
 70
     0
  9
$DIMCLRT
 70
     0
  9
$DIMTFAC
 40
1.0
  9
$DIMGAP
 40
0.09
  9
$LUNITS
 70
     2
  9
$LUPREC
 70
     4
  9
$SKETCHINC
 40
0.1
  9
$FILLETRAD
 40
0.0
  9
$AUNITS
 70
     0
  9
$AUPREC
 70
     0
  9
$MENU
  1
.
  9
$ELEVATION
 40
0.0
  9
$PELEVATION
 40
0.0
  9
$THICKNESS
 40
0.0
  9
$LIMCHECK
 70
     0
  9
$BLIPMODE
 70
     0
  9
$CHAMFERA
 40
0.0
  9
$CHAMFERB
 40
0.0
  9
$SKPOLY
 70
     0
  9
$TDCREATE
 40
2444972.375
  9
$TDUPDATE
 40
2459326.2152572689
  9
$TDINDWG
 40
0.0000443056
  9
$TDUSRTIMER
 40
0.0000443056
  9
$USRTIMER
 70
     1
  9
$ANGBASE
 50
0.0
  9
$ANGDIR
 70
     0
  9
$PDMODE
 70
     0
  9
$PDSIZE
 40
0.0
  9
$PLINEWID
 40
0.0
  9
$COORDS
 70
     1
  9
$SPLFRAME
 70
     0
  9
$SPLINETYPE
 70
     6
  9
$SPLINESEGS
 70
     8
  9
$ATTDIA
 70
     1
  9
$ATTREQ
 70
     1
  9
$HANDLING
 70
     1
  9
$HANDSEED
  5
382
  9
$SURFTAB1
 70
     6
  9
$SURFTAB2
 70
     6
  9
$SURFTYPE
 70
     6
  9
$SURFU
 70
     6
  9
$SURFV
 70
     6
  9
$UCSNAME
  2

  9
$UCSORG
 10
0.0
 20
0.0
 30
0.0
  9
$UCSXDIR
 10
1.0
 20
0.0
 30
0.0
  9
$UCSYDIR
 10
0.0
 20
1.0
 30
0.0
  9
$PUCSNAME
  2

  9
$PUCSORG
 10
0.0
 20
0.0
 30
0.0
  9
$PUCSXDIR
 10
1.0
 20
0.0
 30
0.0
  9
$PUCSYDIR
 10
0.0
 20
1.0
 30
0.0
  9
$USERI1
 70
     0
  9
$USERI2
 70
     0
  9
$USERI3
 70
     0
  9
$USERI4
 70
     0
  9
$USERI5
 70
     0
  9
$USERR1
 40
0.0
  9
$USERR2
 40
0.0
  9
$USERR3
 40
0.0
  9
$USERR4
 40
0.0
  9
$USERR5
 40
0.0
  9
$WORLDVIEW
 70
     1
  9
$SHADEDGE
 70
     3
  9
$SHADEDIF
 70
    70
  9
$TILEMODE
 70
     1
  9
$MAXACTVP
 70
    48
  9
$PLIMCHECK
 70
     0
  9
$PEXTMIN
 10
1.0000000000000000E+020
 20
1.0000000000000000E+020
 30
1.0000000000000000E+020
  9
$PEXTMAX
 10
-1.0000000000000000E+020
 20
-1.0000000000000000E+020
 30
-1.0000000000000000E+020
  9
$PLIMMIN
 10
0.0
 20
0.0
  9
$PLIMMAX
 10
12.0
 20
9.0
  9
$UNITMODE
 70
     0
  9
$VISRETAIN
 70
     1
  9
$PLINEGEN
 70
     0
  9
$PSLTSCALE
 70
     1
  0
ENDSEC
  0
SECTION
  2
TABLES
  0
TABLE
  2
VPORT
 70
     1
  0
VPORT
  2
*ACTIVE
 70
     0
 10
0.0
 20
0.0
 11
1.0
 21
1.0
 12
154.64547572345731
 22
127.4298
 13
0.0
 23
0.0
 14
1.0
 24
1.0
 15
0.0
 25
0.0
 16
0.0
 26
0.0
 36
1.0
 17
0.0
 27
0.0
 37
0.0
 40
257.19551759856728
 41
2.2294736842105261
 42
50.0
 43
0.0
 44
0.0
 50
0.0
 51
0.0
 71
     0
 72
   100
 73
     1
 74
     1
 75
     0
 76
     0
 77
     0
 78
     0
  0
ENDTAB
  0
TABLE
  2
LTYPE
 70
     3
  0
LTYPE
  2
CONTINUOUS
 70
     0
  3
Solid line
 72
    65
 73
     0
 40
0.0
  0
LTYPE
  2
AIGENLINE001
 70
     0
  3
generate AI->DXF Converter
 72
    65
 73
     4
 40
5.8561449999999988
 49
3.5278
 49
-0.776115
 49
0.776115
 49
-0.776115
  0
LTYPE
  2
AIGENLINE002
 70
     0
  3
generate AI->DXF Converter
 72
    65
 73
     6
 40
7.4083750000000004
 49
3.5278
 49
-0.776115
 49
0.776115
 49
-0.776115
 49
0.776115
 49
-0.776115
  0
ENDTAB
  0
TABLE
  2
LAYER
 70
     4
  0
LAYER
  2
0
 70
     0
 62
     7
  6
CONTINUOUS
  0
LAYER
  2
____
 70
     0
 62
     7
  6
CONTINUOUS
  0
LAYER
  2
_________1
 70
     0
 62
     7
  6
CONTINUOUS
  0
LAYER
  2
_________2
 70
     0
 62
     7
  6
CONTINUOUS
  0
ENDTAB
  0
TABLE
  2
STYLE
 70
     1
  0
STYLE
  2
STANDARD
 70
     0
 40
0.0
 41
0.0
 50
0.0
 71
     0
 42
0.0
  3
TXT
  4
EXTFONT.SHX
  0
ENDTAB
  0
TABLE
  2
VIEW
 70
     0
  0
ENDTAB
  0
TABLE
  2
UCS
 70
     0
  0
ENDTAB
  0
TABLE
  2
APPID
 70
     3
  0
APPID
  2
ACAD
 70
     0
  0
APPID
  2
ACAD_NAV_VCDISPLAY
 70
     0
  0
APPID
  2
ACAD_MLEADERVER
 70
     0
  0
ENDTAB
  0
TABLE
  2
DIMSTYLE
 70
     1
  0
DIMSTYLE
  2
STANDARD
 70
     0
  3

  4

  5

  6

  7

 40
1.0
 41
0.18
 42
0.0625
 43
0.38
 44
0.18
 45
0.0
 46
0.0
 47
0.0
 48
0.0
140
0.18
141
0.09
142
0.0
143
25.399999999999999
144
1.0
145
0.0
146
1.0
147
0.09
 71
     0
 72
     0
 73
     1
 74
     1
 75
     0
 76
     0
 77
     0
 78
     0
170
     0
171
     2
172
     0
173
     0
174
     0
175
     0
176
     0
177
     0
178
     0
  0
ENDTAB
  0
ENDSEC
  0
SECTION
  2
BLOCKS
  0
BLOCK
  8
0
  2
$MODEL_SPACE
 70
     0
 10
0.0
 20
0.0
 30
0.0
  3
$MODEL_SPACE
  1

  0
ENDBLK
  5
1A
  8
0
  0
BLOCK
 67
     1
  8
0
  2
$PAPER_SPACE
 70
     0
 10
0.0
 20
0.0
 30
0.0
  3
$PAPER_SPACE
  1

  0
ENDBLK
  5
17
 67
     1
  8
0
  0
BLOCK
  8
_________1
  2
AIGNBL0203000A
 70
     0
 10
0.0
 20
0.0
 30
0.0
  3
AIGNBL0203000A
  1

  0
LINE
  5
27
  8
_________1
 62
     7
 10
68.929900000000004
 20
48.408700000000003
 30
0.0
 11
66.719499999999996
 21
47.816200000000002
 31
0.0
  0
LINE
  5
28
  8
_________1
 62
     7
 10
66.719499999999996
 20
47.816200000000002
 30
0.0
 11
68.929900000000004
 21
47.224299999999999
 31
0.0
  0
LINE
  5
29
  8
_________1
 62
     7
 10
68.929900000000004
 20
47.224299999999999
 30
0.0
 11
68.929900000000004
 21
48.408700000000003
 31
0.0
  0
LINE
  5
2A
  8
_________1
 62
     7
 10
62.009399999999999
 20
47.238799999999998
 30
0.0
 11
64.219700000000003
 21
47.83059999999999
 31
0.0
  0
LINE
  5
2B
  8
_________1
 62
     7
 10
64.219700000000003
 20
47.83059999999999
 30
0.0
 11
62.009399999999999
 21
48.423200000000001
 31
0.0
  0
LINE
  5
2C
  8
_________1
 62
     7
 10
62.009399999999999
 20
48.423200000000001
 30
0.0
 11
62.009399999999999
 21
47.238799999999998
 31
0.0
  0
LINE
  5
2D
  8
_________1
 62
     7
 10
56.2498
 20
47.816200000000002
 30
0.0
 11
70.066100000000006
 21
47.816200000000002
 31
0.0
  0
ENDBLK
  5
2E
  8
_________1
  0
BLOCK
  8
_________1
  2
AIGNBL02020004
 70
     0
 10
0.0
 20
0.0
 30
0.0
  3
AIGNBL02020004
  1

  0
LINE
  5
31
  8
_________1
 62
     7
 10
104.27500000000001
 20
175.607
 30
0.0
 11
103.682
 21
177.81700000000001
 31
0.0
  0
LINE
  5
32
  8
_________1
 62
     7
 10
103.682
 20
177.81700000000001
 30
0.0
 11
103.09
 21
175.607
 31
0.0
  0
LINE
  5
33
  8
_________1
 62
     7
 10
103.09
 20
175.607
 30
0.0
 11
104.27500000000001
 21
175.607
 31
0.0
  0
LINE
  5
34
  8
_________1
 62
     7
 10
103.105
 20
171.80600000000001
 30
0.0
 11
103.697
 21
169.595
 31
0.0
  0
LINE
  5
35
  8
_________1
 62
     7
 10
103.697
 20
169.595
 30
0.0
 11
104.289
 21
171.80600000000001
 31
0.0
  0
LINE
  5
36
  8
_________1
 62
     7
 10
104.289
 20
171.80600000000001
 30
0.0
 11
103.105
 21
171.80600000000001
 31
0.0
  0
LINE
  5
37
  8
_________1
 62
     7
 10
103.682
 20
177.81800000000001
 30
0.0
 11
103.682
 21
169.59399999999999
 31
0.0
  0
ENDBLK
  5
38
  8
_________1
  0
BLOCK
  8
_________1
  2
AIGNBL02020006
 70
     0
 10
0.0
 20
0.0
 30
0.0
  3
AIGNBL02020006
  1

  0
LINE
  5
3B
  8
_________1
 62
     7
 10
125.002
 20
174.34399999999999
 30
0.0
 11
124.40900000000001
 21
176.554
 31
0.0
  0
LINE
  5
3C
  8
_________1
 62
     7
 10
124.40900000000001
 20
176.554
 30
0.0
 11
123.818
 21
174.34399999999999
 31
0.0
  0
LINE
  5
3D
  8
_________1
 62
     7
 10
123.818
 20
174.34399999999999
 30
0.0
 11
125.002
 21
174.34399999999999
 31
0.0
  0
LINE
  5
3E
  8
_________1
 62
     7
 10
123.83199999999999
 20
171.803
 30
0.0
 11
124.42400000000001
 21
169.59299999999999
 31
0.0
  0
LINE
  5
3F
  8
_________1
 62
     7
 10
124.42400000000001
 20
169.59299999999999
 30
0.0
 11
125.01600000000001
 21
171.803
 31
0.0
  0
LINE
  5
40
  8
_________1
 62
     7
 10
125.01600000000001
 20
171.803
 30
0.0
 11
123.83199999999999
 21
171.803
 31
0.0
  0
LINE
  5
41
  8
_________1
 62
     7
 10
124.40900000000001
 20
176.55500000000001
 30
0.0
 11
124.40900000000001
 21
169.59200000000001
 31
0.0
  0
ENDBLK
  5
42
  8
_________1
  0
BLOCK
  8
_________1
  2
AIGNBL02020009
 70
     0
 10
0.0
 20
0.0
 30
0.0
  3
AIGNBL02020009
  1

  0
INSERT
  5
45
  8
_________1
 62
     7
  2
AIGNBL0203000A
 10
0.0
 20
0.0
 30
0.0
  0
ENDBLK
  5
46
  8
_________1
  0
BLOCK
  8
_________1
  2
AIGNBL0202000D
 70
     0
 10
0.0
 20
0.0
 30
0.0
  3
AIGNBL0202000D
  1

  0
LINE
  5
49
  8
_________1
 62
     7
 10
138.37
 20
178.69999999999999
 30
0.0
 11
136.16
 21
178.107
 31
0.0
  0
LINE
  5
4A
  8
_________1
 62
     7
 10
136.16
 20
178.107
 30
0.0
 11
138.37
 21
177.51499999999999
 31
0.0
  0
LINE
  5
4B
  8
_________1
 62
     7
 10
138.37
 20
177.51499999999999
 30
0.0
 11
138.37
 21
178.69999999999999
 31
0.0
  0
LINE
  5
4C
  8
_________1
 62
     7
 10
143.94900000000001
 20
177.51499999999999
 30
0.0
 11
146.16
 21
178.107
 31
0.0
  0
LINE
  5
4D
  8
_________1
 62
     7
 10
146.16
 20
178.107
 30
0.0
 11
143.94900000000001
 21
178.69999999999999
 31
0.0
  0
LINE
  5
4E
  8
_________1
 62
     7
 10
143.94900000000001
 20
178.69999999999999
 30
0.0
 11
143.94900000000001
 21
177.51499999999999
 31
0.0
  0
LINE
  5
4F
  8
_________1
 62
     7
 10
139.666
 20
164.12899999999999
 30
0.0
 11
137.45599999999999
 21
163.53700000000001
 31
0.0
  0
LINE
  5
50
  8
_________1
 62
     7
 10
137.45599999999999
 20
163.53700000000001
 30
0.0
 11
139.666
 21
162.94499999999999
 31
0.0
  0
LINE
  5
51
  8
_________1
 62
     7
 10
139.666
 20
162.94499999999999
 30
0.0
 11
139.666
 21
164.12899999999999
 31
0.0
  0
LINE
  5
52
  8
_________1
 62
     7
 10
142.71700000000001
 20
162.959
 30
0.0
 11
144.928
 21
163.55099999999999
 31
0.0
  0
LINE
  5
53
  8
_________1
 62
     7
 10
144.928
 20
163.55099999999999
 30
0.0
 11
142.71700000000001
 21
164.14400000000001
 31
0.0
  0
LINE
  5
54
  8
_________1
 62
     7
 10
142.71700000000001
 20
164.14400000000001
 30
0.0
 11
142.71700000000001
 21
162.959
 31
0.0
  0
LINE
  5
55
  8
_________1
 62
     7
 10
137.45500000000001
 20
163.53700000000001
 30
0.0
 11
144.929
 21
163.53700000000001
 31
0.0
  0
ENDBLK
  5
56
  8
_________1
  0
BLOCK
  8
_________1
  2
AIGNBL02020010
 70
     0
 10
0.0
 20
0.0
 30
0.0
  3
AIGNBL02020010
  1

  0
LINE
  5
59
  8
_________1
 62
     7
 10
146.245
 20
238.334
 30
0.0
 11
144.26300000000001
 21
239.47800000000001
 31
0.0
  0
LINE
  5
5A
  8
_________1
 62
     7
 10
144.26300000000001
 20
239.47800000000001
 30
0.0
 11
145.40700000000001
 21
237.49600000000001
 31
0.0
  0
LINE
  5
5B
  8
_________1
 62
     7
 10
145.40700000000001
 20
237.49600000000001
 30
0.0
 11
146.245
 21
238.334
 31
0.0
  0
LINE
  5
5C
  8
_________1
 62
     7
 10
136.095
 20
246.809
 30
0.0
 11
138.07599999999999
 21
245.66499999999999
 31
0.0
  0
LINE
  5
5D
  8
_________1
 62
     7
 10
138.07599999999999
 20
245.66499999999999
 30
0.0
 11
136.93199999999999
 21
247.64699999999999
 31
0.0
  0
LINE
  5
5E
  8
_________1
 62
     7
 10
136.93199999999999
 20
247.64699999999999
 30
0.0
 11
136.095
 21
246.809
 31
0.0
  0
LINE
  5
5F
  8
_________1
 62
     7
 10
135.87299999999999
 20
247.86799999999999
 30
0.0
 11
138.32400000000001
 21
245.417
 31
0.0
  0
ENDBLK
  5
60
  8
_________1
  0
BLOCK
  8
_________1
  2
AIGNBL02020015
 70
     0
 10
0.0
 20
0.0
 30
0.0
  3
AIGNBL02020015
  1

  0
LINE
  5
63
  8
_________1
 62
     7
 10
79.592500000000001
 20
240.34100000000001
 30
0.0
 11
79.113
 21
242.58000000000001
 31
0.0
  0
LINE
  5
64
  8
_________1
 62
     7
 10
79.113
 20
242.58000000000001
 30
0.0
 11
78.408799999999999
 21
240.40100000000001
 31
0.0
  0
LINE
  5
65
  8
_________1
 62
     7
 10
78.408799999999999
 20
240.40100000000001
 30
0.0
 11
79.592500000000001
 21
240.34100000000001
 31
0.0
  0
LINE
  5
66
  8
_________1
 62
     7
 10
67.638300000000001
 20
229.67099999999999
 30
0.0
 11
65.4696
 21
228.93600000000001
 31
0.0
  0
LINE
  5
67
  8
_________1
 62
     7
 10
65.4696
 20
228.93600000000001
 30
0.0
 11
67.715199999999996
 21
228.488
 31
0.0
  0
LINE
  5
68
  8
_________1
 62
     7
 10
67.715199999999996
 20
228.488
 30
0.0
 11
67.638300000000001
 21
229.67099999999999
 31
0.0
  0
ARC
  5
69
  8
_________1
 62
     7
 10
65.469628
 20
242.579666
 30
0.0
 40
13.643356000000001
 50
270.00002000000001
 51
359.99999000000003
  0
ENDBLK
  5
6A
  8
_________1
  0
BLOCK
  8
_________1
  2
AIGNBL02010002
 70
     0
 10
0.0
 20
0.0
 30
0.0
  3
AIGNBL02010002
  1

  0
LINE
  5
6D
  8
_________1
 62
     7
 10
116.625
 20
162.86699999999999
 30
0.0
 11
114.411
 21
162.286
 31
0.0
  0
LINE
  5
6E
  8
_________1
 62
     7
 10
114.411
 20
162.286
 30
0.0
 11
116.61799999999999
 21
161.68199999999999
 31
0.0
  0
LINE
  5
6F
  8
_________1
 62
     7
 10
116.61799999999999
 20
161.68199999999999
 30
0.0
 11
116.625
 21
162.86699999999999
 31
0.0
  0
LINE
  5
70
  8
_________1
 62
     7
 10
103.791
 20
166.91399999999999
 30
0.0
 11
105.79600000000001
 21
165.81099999999989
 31
0.0
  0
LINE
  5
71
  8
_________1
 62
     7
 10
105.79600000000001
 20
165.81099999999989
 30
0.0
 11
104.611
 21
167.76900000000001
 31
0.0
  0
LINE
  5
72
  8
_________1
 62
     7
 10
104.611
 20
167.76900000000001
 30
0.0
 11
103.791
 21
166.91399999999999
 31
0.0
  0
ENDBLK
  5
73
  8
_________1
  0
BLOCK
  8
_________1
  2
AIGNBL02010003
 70
     0
 10
0.0
 20
0.0
 30
0.0
  3
AIGNBL02010003
  1

  0
INSERT
  5
76
  8
_________1
 62
     7
  2
AIGNBL02020004
 10
0.0
 20
0.0
 30
0.0
  0
ENDBLK
  5
77
  8
_________1
  0
BLOCK
  8
_________1
  2
AIGNBL02010005
 70
     0
 10
0.0
 20
0.0
 30
0.0
  3
AIGNBL02010005
  1

  0
INSERT
  5
7A
  8
_________1
 62
     7
  2
AIGNBL02020006
 10
0.0
 20
0.0
 30
0.0
  0
ENDBLK
  5
7B
  8
_________1
  0
BLOCK
  8
_________1
  2
AIGNBL02010007
 70
     0
 10
0.0
 20
0.0
 30
0.0
  3
AIGNBL02010007
  1

  0
LINE
  5
7E
  8
_________1
 62
     7
 10
66.719499999999996
 20
56.581200000000003
 30
0.0
 11
64.219700000000003
 21
56.581200000000003
 31
0.0
  0
LINE
  5
7F
  8
_________1
 62
     7
 10
66.719499999999996
 20
54.081499999999998
 30
0.0
 11
64.219700000000003
 21
54.081499999999998
 31
0.0
  0
LINE
  5
80
  8
_________1
 62
     7
 10
63.623699999999999
 20
65.672200000000004
 30
0.0
 11
63.623699999999999
 21
63.982700000000001
 31
0.0
  0
LINE
  5
81
  8
_________1
 62
     7
 10
63.623699999999999
 20
65.672200000000004
 30
0.0
 11
65.4696
 21
65.672200000000004
 31
0.0
  0
LINE
  5
82
  8
_________1
 62
     7
 10
63.897300000000001
 20
63.709200000000003
 30
0.0
 11
63.897300000000001
 21
61.482900000000001
 31
0.0
  0
LINE
  5
83
  8
_________1
 62
     7
 10
63.897300000000001
 20
63.709200000000003
 30
0.0
 11
63.623699999999999
 21
63.982700000000001
 31
0.0
  0
LINE
  5
84
  8
_________1
 62
     7
 10
64.978399999999993
 20
63.709200000000003
 30
0.0
 11
64.978399999999993
 21
61.482900000000001
 31
0.0
  0
LINE
  5
85
  8
_________1
 62
     7
 10
64.587699999999998
 20
63.709200000000003
 30
0.0
 11
64.587699999999998
 21
61.482900000000001
 31
0.0
  0
LINE
  5
86
  8
_________1
 62
     7
 10
64.587699999999998
 20
63.709200000000003
 30
0.0
 11
63.897300000000001
 21
63.709200000000003
 31
0.0
  0
LINE
  5
87
  8
_________1
 62
     7
 10
65.4696
 20
63.709200000000003
 30
0.0
 11
64.978399999999993
 21
63.709200000000003
 31
0.0
  0
ARC
  5
88
  8
_________1
 62
     7
 10
63.914659999999998
 20
61.048985000000002
 30
0.0
 40
0.468299
 50
182.03946999999999
 51
267.873018
  0
ARC
  5
89
  8
_________1
 62
     7
 10
63.914611000000001
 20
61.014986999999998
 30
0.0
 40
0.468274
 50
92.121145999999996
 51
177.87882400000001
  0
LINE
  5
8A
  8
_________1
 62
     7
 10
64.587699999999998
 20
61.482900000000001
 30
0.0
 11
63.897300000000001
 21
61.482900000000001
 31
0.0
  0
LINE
  5
8B
  8
_________1
 62
     7
 10
65.4696
 20
61.482900000000001
 30
0.0
 11
64.978399999999993
 21
61.482900000000001
 31
0.0
  0
LINE
  5
8C
  8
_________1
 62
     7
 10
64.219700000000003
 20
54.081499999999998
 30
0.0
 11
64.219700000000003
 21
60.581000000000003
 31
0.0
  0
LINE
  5
8D
  8
_________1
 62
     7
 10
65.4696
 20
60.581000000000003
 30
0.0
 11
63.897300000000001
 21
60.581000000000003
 31
0.0
  0
LINE
  5
8E
  8
_________1
 62
     7
 10
67.314800000000005
 20
65.672200000000004
 30
0.0
 11
67.314800000000005
 21
63.982700000000001
 31
0.0
  0
LINE
  5
8F
  8
_________1
 62
     7
 10
67.314800000000005
 20
65.672200000000004
 30
0.0
 11
65.4696
 21
65.672200000000004
 31
0.0
  0
LINE
  5
90
  8
_________1
 62
     7
 10
67.041300000000007
 20
63.709200000000003
 30
0.0
 11
67.041300000000007
 21
61.482900000000001
 31
0.0
  0
LINE
  5
91
  8
_________1
 62
     7
 10
67.041300000000007
 20
63.709200000000003
 30
0.0
 11
67.314800000000005
 21
63.982700000000001
 31
0.0
  0
LINE
  5
92
  8
_________1
 62
     7
 10
65.960899999999995
 20
63.709200000000003
 30
0.0
 11
65.960899999999995
 21
61.482900000000001
 31
0.0
  0
LINE
  5
93
  8
_________1
 62
     7
 10
66.351600000000005
 20
63.709200000000003
 30
0.0
 11
66.351600000000005
 21
61.482900000000001
 31
0.0
  0
LINE
  5
94
  8
_________1
 62
     7
 10
66.351600000000005
 20
63.709200000000003
 30
0.0
 11
67.041300000000007
 21
63.709200000000003
 31
0.0
  0
LINE
  5
95
  8
_________1
 62
     7
 10
65.4696
 20
63.709200000000003
 30
0.0
 11
65.960899999999995
 21
63.709200000000003
 31
0.0
  0
ARC
  5
96
  8
_________1
 62
     7
 10
67.023978999999997
 20
61.014288999999998
 30
0.0
 40
0.468971
 50
2.2033469999999991
 51
87.884183999999991
  0
ARC
  5
97
  8
_________1
 62
     7
 10
67.023944999999998
 20
61.049667000000007
 30
0.0
 40
0.468979
 50
272.11986899999999
 51
357.88014099999998
  0
LINE
  5
98
  8
_________1
 62
     7
 10
66.351600000000005
 20
61.482900000000001
 30
0.0
 11
67.041300000000007
 21
61.482900000000001
 31
0.0
  0
LINE
  5
99
  8
_________1
 62
     7
 10
65.4696
 20
61.482900000000001
 30
0.0
 11
65.960899999999995
 21
61.482900000000001
 31
0.0
  0
LINE
  5
9A
  8
_________1
 62
     7
 10
66.719499999999996
 20
54.081499999999998
 30
0.0
 11
66.719499999999996
 21
60.581000000000003
 31
0.0
  0
LINE
  5
9B
  8
_________1
 62
     7
 10
65.4696
 20
60.581000000000003
 30
0.0
 11
67.041300000000007
 21
60.581000000000003
 31
0.0
  0
ENDBLK
  5
9C
  8
_________1
  0
BLOCK
  8
_________1
  2
AIGNBL02010008
 70
     0
 10
0.0
 20
0.0
 30
0.0
  3
AIGNBL02010008
  1

  0
INSERT
  5
9F
  8
_________1
 62
     7
  2
AIGNBL02020009
 10
0.0
 20
0.0
 30
0.0
  0
ENDBLK
  5
A0
  8
_________1
  0
BLOCK
  8
_________1
  2
AIGNBL0201000B
 70
     0
 10
0.0
 20
0.0
 30
0.0
  3
AIGNBL0201000B
  1

  0
LINE
  5
A3
  8
_________1
 62
     7
 10
53.873399999999997
 20
167.35599999999999
 30
0.0
 11
53.280799999999992
 21
169.56700000000001
 31
0.0
  0
LINE
  5
A4
  8
_________1
 62
     7
 10
53.280799999999992
 20
169.56700000000001
 30
0.0
 11
52.688200000000002
 21
167.35599999999999
 31
0.0
  0
LINE
  5
A5
  8
_________1
 62
     7
 10
52.688200000000002
 20
167.35599999999999
 30
0.0
 11
53.873399999999997
 21
167.35599999999999
 31
0.0
  0
LINE
  5
A6
  8
_________1
 62
     7
 10
52.703400000000002
 20
164.791
 30
0.0
 11
53.295299999999997
 21
162.58000000000001
 31
0.0
  0
LINE
  5
A7
  8
_________1
 62
     7
 10
53.295299999999997
 20
162.58000000000001
 30
0.0
 11
53.887799999999999
 21
164.791
 31
0.0
  0
LINE
  5
A8
  8
_________1
 62
     7
 10
53.887799999999999
 20
164.791
 30
0.0
 11
52.703400000000002
 21
164.791
 31
0.0
  0
LINE
  5
A9
  8
_________1
 62
     7
 10
53.280799999999992
 20
169.56700000000001
 30
0.0
 11
53.280799999999992
 21
162.57900000000001
 31
0.0
  0
ENDBLK
  5
AA
  8
_________1
  0
BLOCK
  8
_________1
  2
AIGNBL0201000C
 70
     0
 10
0.0
 20
0.0
 30
0.0
  3
AIGNBL0201000C
  1

  0
INSERT
  5
AD
  8
_________1
 62
     7
  2
AIGNBL0202000D
 10
0.0
 20
0.0
 30
0.0
  0
ENDBLK
  5
AE
  8
_________1
  0
BLOCK
  8
_________1
  2
AIGNBL0201000E
 70
     0
 10
0.0
 20
0.0
 30
0.0
  3
AIGNBL0201000E
  1

  0
LINE
  5
B1
  8
_________1
 62
     7
 10
142.411
 20
56.581200000000003
 30
0.0
 11
139.911
 21
56.581200000000003
 31
0.0
  0
LINE
  5
B2
  8
_________1
 62
     7
 10
142.411
 20
54.080800000000004
 30
0.0
 11
139.911
 21
54.080800000000004
 31
0.0
  0
LINE
  5
B3
  8
_________1
 62
     7
 10
139.316
 20
65.671499999999995
 30
0.0
 11
139.316
 21
63.982700000000001
 31
0.0
  0
LINE
  5
B4
  8
_________1
 62
     7
 10
139.316
 20
65.671499999999995
 30
0.0
 11
141.161
 21
65.671499999999995
 31
0.0
  0
LINE
  5
B5
  8
_________1
 62
     7
 10
139.59
 20
63.709200000000003
 30
0.0
 11
139.59
 21
61.482900000000001
 31
0.0
  0
LINE
  5
B6
  8
_________1
 62
     7
 10
139.59
 20
63.709200000000003
 30
0.0
 11
139.316
 21
63.982700000000001
 31
0.0
  0
LINE
  5
B7
  8
_________1
 62
     7
 10
140.66999999999999
 20
63.709200000000003
 30
0.0
 11
140.66999999999999
 21
61.482900000000001
 31
0.0
  0
LINE
  5
B8
  8
_________1
 62
     7
 10
140.279
 20
63.709200000000003
 30
0.0
 11
140.279
 21
61.482900000000001
 31
0.0
  0
LINE
  5
B9
  8
_________1
 62
     7
 10
140.279
 20
63.709200000000003
 30
0.0
 11
139.59
 21
63.709200000000003
 31
0.0
  0
LINE
  5
BA
  8
_________1
 62
     7
 10
141.161
 20
63.709200000000003
 30
0.0
 11
140.66999999999999
 21
63.709200000000003
 31
0.0
  0
ARC
  5
BB
  8
_________1
 62
     7
 10
139.60690500000001
 20
61.049644999999998
 30
0.0
 40
0.4689550000000001
 50
182.20157699999999
 51
267.88599399999998
  0
ARC
  5
BC
  8
_________1
 62
     7
 10
139.606562
 20
61.014674999999997
 30
0.0
 40
0.468573
 50
92.073751000000001
 51
177.926219
  0
LINE
  5
BD
  8
_________1
 62
     7
 10
140.279
 20
61.482900000000001
 30
0.0
 11
139.59
 21
61.482900000000001
 31
0.0
  0
LINE
  5
BE
  8
_________1
 62
     7
 10
141.161
 20
61.482900000000001
 30
0.0
 11
140.66999999999999
 21
61.482900000000001
 31
0.0
  0
LINE
  5
BF
  8
_________1
 62
     7
 10
139.911
 20
54.080800000000004
 30
0.0
 11
139.911
 21
60.581000000000003
 31
0.0
  0
LINE
  5
C0
  8
_________1
 62
     7
 10
141.161
 20
60.581000000000003
 30
0.0
 11
139.59
 21
60.581000000000003
 31
0.0
  0
LINE
  5
C1
  8
_________1
 62
     7
 10
143.006
 20
65.671499999999995
 30
0.0
 11
143.006
 21
63.982700000000001
 31
0.0
  0
LINE
  5
C2
  8
_________1
 62
     7
 10
143.006
 20
65.671499999999995
 30
0.0
 11
141.161
 21
65.671499999999995
 31
0.0
  0
LINE
  5
C3
  8
_________1
 62
     7
 10
142.733
 20
63.709200000000003
 30
0.0
 11
142.733
 21
61.482900000000001
 31
0.0
  0
LINE
  5
C4
  8
_________1
 62
     7
 10
142.733
 20
63.709200000000003
 30
0.0
 11
143.006
 21
63.982700000000001
 31
0.0
  0
LINE
  5
C5
  8
_________1
 62
     7
 10
141.65299999999999
 20
63.709200000000003
 30
0.0
 11
141.65299999999999
 21
61.482900000000001
 31
0.0
  0
LINE
  5
C6
  8
_________1
 62
     7
 10
142.04300000000001
 20
63.709200000000003
 30
0.0
 11
142.04300000000001
 21
61.482900000000001
 31
0.0
  0
LINE
  5
C7
  8
_________1
 62
     7
 10
142.04300000000001
 20
63.709200000000003
 30
0.0
 11
142.733
 21
63.709200000000003
 31
0.0
  0
LINE
  5
C8
  8
_________1
 62
     7
 10
141.161
 20
63.709200000000003
 30
0.0
 11
141.65299999999999
 21
63.709200000000003
 31
0.0
  0
ARC
  5
C9
  8
_________1
 62
     7
 10
142.71558300000001
 20
61.014282999999999
 30
0.0
 40
0.468979
 50
2.119858999999999
 51
87.88013100000002
  0
ARC
  5
CA
  8
_________1
 62
     7
 10
142.716657
 20
61.048618999999988
 30
0.0
 40
0.4678930000000001
 50
271.99328100000002
 51
357.91918700000002
  0
LINE
  5
CB
  8
_________1
 62
     7
 10
142.04300000000001
 20
61.482900000000001
 30
0.0
 11
142.733
 21
61.482900000000001
 31
0.0
  0
LINE
  5
CC
  8
_________1
 62
     7
 10
141.161
 20
61.482900000000001
 30
0.0
 11
141.65299999999999
 21
61.482900000000001
 31
0.0
  0
LINE
  5
CD
  8
_________1
 62
     7
 10
142.411
 20
54.080800000000004
 30
0.0
 11
142.411
 21
60.581000000000003
 31
0.0
  0
LINE
  5
CE
  8
_________1
 62
     7
 10
141.161
 20
60.581000000000003
 30
0.0
 11
142.733
 21
60.581000000000003
 31
0.0
  0
LINE
  5
CF
  8
_________1
 62
     7
 10
142.661
 20
155.81299999999999
 30
0.0
 11
142.14400000000001
 21
156.33000000000001
 31
0.0
  0
LINE
  5
D0
  8
_________1
 62
     7
 10
140.179
 20
156.33000000000001
 30
0.0
 11
139.661
 21
155.81299999999999
 31
0.0
  0
LINE
  5
D1
  8
_________1
 62
     7
 10
142.661
 20
154.71199999999999
 30
0.0
 11
141.04300000000001
 21
156.33000000000001
 31
0.0
  0
LINE
  5
D2
  8
_________1
 62
     7
 10
141.28
 20
156.33000000000001
 30
0.0
 11
139.661
 21
154.71199999999999
 31
0.0
  0
LINE
  5
D3
  8
_________1
 62
     7
 10
142.661
 20
153.61099999999999
 30
0.0
 11
139.94200000000001
 21
156.33000000000001
 31
0.0
  0
LINE
  5
D4
  8
_________1
 62
     7
 10
142.381
 20
156.33000000000001
 30
0.0
 11
139.661
 21
153.61099999999999
 31
0.0
  0
LINE
  5
D5
  8
_________1
 62
     7
 10
141.941
 20
153.22999999999999
 30
0.0
 11
139.661
 21
155.50899999999999
 31
0.0
  0
LINE
  5
D6
  8
_________1
 62
     7
 10
142.661
 20
155.50899999999999
 30
0.0
 11
140.38300000000001
 21
153.22999999999999
 31
0.0
  0
LINE
  5
D7
  8
_________1
 62
     7
 10
140.839
 20
153.22999999999999
 30
0.0
 11
139.661
 21
154.40799999999999
 31
0.0
  0
LINE
  5
D8
  8
_________1
 62
     7
 10
142.661
 20
154.40799999999999
 30
0.0
 11
141.48400000000001
 21
153.22999999999999
 31
0.0
  0
LINE
  5
D9
  8
_________1
 62
     7
 10
142.661
 20
65.671499999999995
 30
0.0
 11
142.661
 21
156.33000000000001
 31
0.0
  0
LINE
  5
DA
  8
_________1
 62
     7
 10
139.661
 20
65.671499999999995
 30
0.0
 11
139.661
 21
156.33000000000001
 31
0.0
  0
ENDBLK
  5
DB
  8
_________1
  0
BLOCK
  8
_________1
  2
AIGNBL0201000F
 70
     0
 10
0.0
 20
0.0
 30
0.0
  3
AIGNBL0201000F
  1

  0
INSERT
  5
DE
  8
_________1
 62
     7
  2
AIGNBL02020010
 10
0.0
 20
0.0
 30
0.0
  0
ENDBLK
  5
DF
  8
_________1
  0
BLOCK
  8
_________1
  2
AIGNBL02010011
 70
     0
 10
0.0
 20
0.0
 30
0.0
  3
AIGNBL02010011
  1

  0
LINE
  5
E2
  8
_________1
 62
     7
 10
143.99000000000001
 20
239.751
 30
0.0
 11
148.07400000000001
 21
235.667
 31
0.0
  0
ENDBLK
  5
E3
  8
_________1
  0
BLOCK
  8
_________1
  2
AIGNBL02010012
 70
     0
 10
0.0
 20
0.0
 30
0.0
  3
AIGNBL02010012
  1

  0
LINE
  5
E6
  8
_________1
 62
     7
 10
136.16
 20
178.107
 30
0.0
 11
146.16
 21
178.107
 31
0.0
  0
ENDBLK
  5
E7
  8
_________1
  0
BLOCK
  8
_________1
  2
AIGNBL02010013
 70
     0
 10
0.0
 20
0.0
 30
0.0
  3
AIGNBL02010013
  1

  0
LINE
  5
EA
  8
_________1
 62
     7
 10
79.948800000000006
 20
169.60300000000001
 30
0.0
 11
79.948800000000006
 21
201.274
 31
0.0
  0
ENDBLK
  5
EB
  8
_________1
  0
BLOCK
  8
_________1
  2
AIGNBL02010014
 70
     0
 10
0.0
 20
0.0
 30
0.0
  3
AIGNBL02010014
  1

  0
INSERT
  5
EE
  8
_________1
 62
     7
  2
AIGNBL02020015
 10
0.0
 20
0.0
 30
0.0
  0
ENDBLK
  5
EF
  8
_________1
  0
BLOCK
  8
_________1
  2
AIGNBL02010016
 70
     0
 10
0.0
 20
0.0
 30
0.0
  3
AIGNBL02010016
  1

  0
LINE
  5
F2
  8
_________1
 62
     7
 10
138.89599999999999
 20
212.56999999999999
 30
0.0
 11
141.108
 21
213.16200000000001
 31
0.0
  0
LINE
  5
F3
  8
_________1
 62
     7
 10
141.108
 20
213.16200000000001
 30
0.0
 11
138.89599999999999
 21
213.755
 31
0.0
  0
LINE
  5
F4
  8
_________1
 62
     7
 10
138.89599999999999
 20
213.755
 30
0.0
 11
138.89599999999999
 21
212.56999999999999
 31
0.0
  0
LINE
  5
F5
  8
_________1
 62
     7
 10
123.91
 20
213.74000000000001
 30
0.0
 11
121.69799999999999
 21
213.148
 31
0.0
  0
LINE
  5
F6
  8
_________1
 62
     7
 10
121.69799999999999
 20
213.148
 30
0.0
 11
123.91
 21
212.55500000000001
 31
0.0
  0
LINE
  5
F7
  8
_________1
 62
     7
 10
123.91
 20
212.55500000000001
 30
0.0
 11
123.91
 21
213.74000000000001
 31
0.0
  0
LINE
  5
F8
  8
_________1
 62
     7
 10
141.108
 20
213.155
 30
0.0
 11
121.69799999999999
 21
213.155
 31
0.0
  0
ENDBLK
  5
F9
  8
_________1
  0
BLOCK
  8
_________1
  2
AIGNBL02010017
 70
     0
 10
0.0
 20
0.0
 30
0.0
  3
AIGNBL02010017
  1

  0
LINE
  5
FC
  8
_________1
 62
     7
 10
98.163100000000014
 20
204.87200000000001
 30
0.0
 11
97.570899999999995
 21
207.083
 31
0.0
  0
LINE
  5
FD
  8
_________1
 62
     7
 10
97.570899999999995
 20
207.083
 30
0.0
 11
96.978700000000003
 21
204.87200000000001
 31
0.0
  0
LINE
  5
FE
  8
_________1
 62
     7
 10
96.978700000000003
 20
204.87200000000001
 30
0.0
 11
98.163100000000014
 21
204.87200000000001
 31
0.0
  0
LINE
  5
FF
  8
_________1
 62
     7
 10
96.978700000000003
 20
171.792
 30
0.0
 11
97.570899999999995
 21
169.5809999999999
 31
0.0
  0
LINE
  5
100
  8
_________1
 62
     7
 10
97.570899999999995
 20
169.5809999999999
 30
0.0
 11
98.163100000000014
 21
171.792
 31
0.0
  0
LINE
  5
101
  8
_________1
 62
     7
 10
98.163100000000014
 20
171.792
 30
0.0
 11
96.978700000000003
 21
171.792
 31
0.0
  0
LINE
  5
102
  8
_________1
 62
     7
 10
97.570899999999995
 20
207.083
 30
0.0
 11
97.570899999999995
 21
169.5809999999999
 31
0.0
  0
ENDBLK
  5
103
  8
_________1
  0
ENDSEC
  0
SECTION
  2
ENTITIES
  0
TEXT
  5
104
  8
____
 62
     7
 10
109.929135
 20
164.83699999999999
 30
0.0
 40
3.0923400000000001
  1
35%%d
 41
0.5
 72
     1
 11
111.733
 21
164.83699999999999
 31
0.0
  0
TEXT
  5
105
  8
____
 62
     7
 10
103.04000000000001
 20
172.41752500000001
 30
0.0
 40
3.0923400000000001
  1
33
 50
90.0
 41
0.5
 72
     1
 11
103.04000000000001
 21
173.70599999999999
 31
0.0
  0
TEXT
  5
106
  8
____
 62
     7
 10
123.767
 20
171.77952499999989
 30
0.0
 40
3.0923400000000001
  1
29
 50
90.0
 41
0.5
 72
     1
 11
123.767
 21
173.0679999999999
 31
0.0
  0
TEXT
  5
107
  8
____
 62
     7
 10
56.2498
 20
48.516199999999998
 30
0.0
 40
3.0923400000000001
  1
%%c10
 41
0.5
  0
TEXT
  5
108
  8
____
 62
     7
 10
79.335499999999996
 20
109.76944
 30
0.0
 40
3.0923400000000001
  1
462
 50
90.0
 41
0.5
 72
     1
 11
79.335499999999996
 21
111.831
 31
0.0
  0
TEXT
  5
109
  8
____
 62
     7
 10
46.810200000000002
 20
161.66652500000001
 30
0.0
 40
3.0923400000000001
  1
53
 50
90.0
 41
0.5
 72
     1
 11
46.810200000000002
 21
162.95500000000001
 31
0.0
  0
TEXT
  5
10A
  8
____
 62
     7
 10
52.500500000000002
 20
161.6514225
 30
0.0
 40
3.0923400000000001
  1
max.30
 50
90.0
 41
0.5
 72
     1
 11
52.500500000000002
 21
165.38800000000001
 31
0.0
  0
TEXT
  5
10B
  8
____
 62
     7
 10
139.22828749999999
 20
164.239
 30
0.0
 40
3.0923400000000001
  1
%%c30
 41
0.5
 72
     1
 11
141.161
 21
164.239
 31
0.0
  0
TEXT
  5
10C
  8
____
 62
     7
 10
151.055136
 20
236.36699999999999
 30
0.0
 40
3.0923400000000001
  1
%%c32～35
 41
0.5
 72
     2
 11
160.126
 21
236.36699999999999
 31
0.0
  0
TEXT
  5
10D
  8
____
 62
     7
 10
136.728646
 20
228.80699999999999
 30
0.0
 40
3.0923400000000001
  1
水栓取付穴
 41
0.5
 72
     1
 11
141.161
 21
228.80699999999999
 31
0.0
  0
TEXT
  5
10E
  8
____
 62
     7
 10
139.22828749999999
 20
178.89400000000001
 30
0.0
 40
3.0923400000000001
  1
%%c40
 41
0.5
 72
     1
 11
141.161
 21
178.89400000000001
 31
0.0
  0
TEXT
  5
10F
  8
____
 62
     7
 10
79.248699999999999
 20
183.65213499999999
 30
0.0
 40
3.0923400000000001
  1
127
 50
90.0
 41
0.5
 72
     1
 11
79.248699999999999
 21
185.45599999999999
 31
0.0
  0
TEXT
  5
110
  8
____
 62
     7
 10
81.031599999999997
 20
241.20099999999999
 30
0.0
 40
3.0923400000000001
  1
開
 41
0.5
  0
TEXT
  5
111
  8
____
 62
     7
 10
60.407185999999989
 20
227.44900000000001
 30
0.0
 40
3.0923400000000001
  1
閉
 41
0.5
 72
     2
 11
61.747199999999999
 21
227.44900000000001
 31
0.0
  0
TEXT
  5
112
  8
____
 62
     7
 10
129.93052499999999
 20
213.815
 30
0.0
 40
3.0923400000000001
  1
78
 41
0.5
 72
     1
 11
131.21899999999999
 21
213.815
 31
0.0
  0
TEXT
  5
113
  8
____
 62
     7
 10
125.77198249999999
 20
220.15799999999999
 30
0.0
 40
3.0923400000000001
  1
107
 41
0.5
 72
     1
 11
127.447
 21
220.15799999999999
 31
0.0
  0
TEXT
  5
114
  8
____
 62
     7
 10
96.870800000000017
 20
186.6569825
 30
0.0
 40
3.0923400000000001
  1
150
 50
90.0
 41
0.5
 72
     1
 11
96.870800000000017
 21
188.33199999999999
 31
0.0
  0
ARC
  5
115
  8
_________1
 62
     7
 10
64.892380000000003
 20
223.703202
 30
0.0
 40
0.33135
 50
183.04387700000001
 51
218.52588
  0
ARC
  5
116
  8
_________1
 62
     7
 10
64.841650000000001
 20
223.68479099999999
 30
0.0
 40
0.2801530000000001
 50
146.06770800000001
 51
179.83298600000001
  0
ARC
  5
117
  8
_________1
 62
     7
 10
64.988106999999985
 20
223.59699900000001
 30
0.0
 40
0.4507630000000001
 50
127.04053
 51
147.20081399999989
  0
ARC
  5
118
  8
_________1
 62
     7
 10
65.194180000000003
 20
223.34507099999999
 30
0.0
 40
0.776094
 50
112.918797
 51
127.98059499999999
  0
ARC
  5
119
  8
_________1
 62
     7
 10
65.401349999999994
 20
222.88742400000001
 30
0.0
 40
1.278351999999999
 50
95.648372999999978
 51
113.483346
  0
ARC
  5
11A
  8
_________1
 62
     7
 10
65.468215999999998
 20
222.49438000000001
 30
0.0
 40
1.676299999999999
 50
89.951633999999999
 51
96.600543999999985
  0
ARC
  5
11B
  8
_________1
 62
     7
 10
65.469013000000004
 20
222.585768
 30
0.0
 40
1.5849109999999991
 50
70.284273999999996
 51
89.97766
  0
ARC
  5
11C
  8
_________1
 62
     7
 10
65.671477999999993
 20
223.21506299999999
 30
0.0
 40
0.92446
 50
55.377738999999998
 51
68.939346999999984
  0
ARC
  5
11D
  8
_________1
 62
     7
 10
65.886978999999997
 20
223.53546
 30
0.0
 40
0.5383810000000001
 50
36.795349000000002
 51
54.877673999999999
  0
ARC
  5
11E
  8
_________1
 62
     7
 10
66.064605
 20
223.674926
 30
0.0
 40
0.312652
 50
1.9577939999999989
 51
35.825676999999999
  0
ARC
  5
11F
  8
_________1
 62
     7
 10
66.089883
 20
223.68661800000001
 30
0.0
 40
0.287193
 50
318.63201900000001
 51
359.79826300000002
  0
LINE
  5
120
  8
_________1
 62
     7
 10
66.305400000000006
 20
223.49700000000001
 30
0.0
 11
66.156899999999993
 21
223.316
 31
0.0
  0
LINE
  5
121
  8
_________1
 62
     7
 10
64.631100000000004
 20
223.499
 30
0.0
 11
64.779899999999998
 21
223.31800000000001
 31
0.0
  0
ARC
  5
122
  8
_________1
 62
     7
 10
65.989979000000005
 20
223.47441499999999
 30
0.0
 40
0.229311
 50
320.64886300000001
 51
359.78633600000001
  0
ARC
  5
123
  8
_________1
 62
     7
 10
65.833151999999998
 20
223.58485099999999
 30
0.0
 40
0.4208390000000001
 50
301.62381399999998
 51
322.56108699999999
  0
ARC
  5
124
  8
_________1
 62
     7
 10
65.638489000000007
 20
223.87220199999999
 30
0.0
 40
0.76774
 50
287.244731
 51
302.7498490000001
  0
ARC
  5
125
  8
_________1
 62
     7
 10
65.487515999999999
 20
224.310136
 30
0.0
 40
1.230828
 50
269.16739699999999
 51
287.91317199999997
  0
ARC
  5
126
  8
_________1
 62
     7
 10
65.468347999999992
 20
224.38822500000001
 30
0.0
 40
1.3087869999999999
 50
248.99258900000001
 51
270.056172
  0
ARC
  5
127
  8
_________1
 62
     7
 10
65.263540000000006
 20
223.80273500000001
 30
0.0
 40
0.6890450000000001
 50
231.283333
 51
247.43768800000001
  0
ARC
  5
128
  8
_________1
 62
     7
 10
65.067229999999995
 20
223.548678
 30
0.0
 40
0.368076
 50
208.981405
 51
230.39064200000001
  0
ARC
  5
129
  8
_________1
 62
     7
 10
64.948227000000003
 20
223.47626500000001
 30
0.0
 40
0.228959
 50
180.676939
 51
207.55862999999999
  0
ARC
  5
12A
  8
_________1
 62
     7
 10
64.948308999999995
 20
223.47268600000001
 30
0.0
 40
0.229027
 50
140.61917700000001
 51
179.78121999999999
  0
ARC
  5
12B
  8
_________1
 62
     7
 10
65.104782999999983
 20
223.36263600000001
 30
0.0
 40
0.420037
 50
121.58057599999999
 51
142.55871099999999
  0
ARC
  5
12C
  8
_________1
 62
     7
 10
65.299706
 20
223.07516200000001
 30
0.0
 40
0.7671750000000001
 50
107.213599
 51
122.73870700000001
  0
ARC
  5
12D
  8
_________1
 62
     7
 10
65.451611
 20
222.63451900000001
 30
0.0
 40
1.2331219999999989
 50
89.162707999999995
 51
107.8965979999999
  0
ARC
  5
12E
  8
_________1
 62
     7
 10
65.470905999999999
 20
222.56139899999999
 30
0.0
 40
1.306111
 50
68.973449000000002
 51
90.055942000000002
  0
ARC
  5
12F
  8
_________1
 62
     7
 10
65.674888999999993
 20
223.144105
 30
0.0
 40
0.6892689999999999
 50
51.280169000000008
 51
67.420919999999995
  0
ARC
  5
130
  8
_________1
 62
     7
 10
65.871900999999994
 20
223.398729
 30
0.0
 40
0.367416
 50
28.97585900000001
 51
50.413367999999991
  0
ARC
  5
131
  8
_________1
 62
     7
 10
65.990552000000008
 20
223.47084100000001
 30
0.0
 40
0.228752
 50
0.6810570000000001
 51
27.571445000000001
  0
LINE
  5
132
  8
_________1
 62
     7
 10
64.561499999999995
 20
237.66300000000001
 30
0.0
 11
64.561499999999995
 21
223.68600000000001
 31
0.0
  0
LINE
  5
133
  8
_________1
 62
     7
 10
66.377099999999999
 20
237.66300000000001
 30
0.0
 11
66.377099999999999
 21
223.68600000000001
 31
0.0
  0
LINE
  5
134
  8
_________1
 62
     7
 10
66.347399999999993
 20
206.173
 30
0.0
 11
66.347399999999993
 21
200.059
 31
0.0
  0
ARC
  5
135
  8
_________1
 62
     7
 10
65.744536999999994
 20
200.02867599999999
 30
0.0
 40
0.60368
 50
357.10500400000001
 51
2.894995999999999
  0
ARC
  5
136
  8
_________1
 62
     7
 10
65.461289000000008
 20
200.031373
 30
0.0
 40
0.886778
 50
313.26652899999999
 51
357.855279
  0
ARC
  5
137
  8
_________1
 62
     7
 10
65.464516000000003
 20
200.04062200000001
 30
0.0
 40
0.8913439999999999
 50
268.3354589999999
 51
312.70800800000001
  0
ARC
  5
138
  8
_________1
 62
     7
 10
65.475387999999995
 20
200.04216400000001
 30
0.0
 40
0.8932669999999999
 50
223.373794
 51
267.64124299999997
  0
ARC
  5
139
  8
_________1
 62
     7
 10
65.479876000000004
 20
200.03283099999999
 30
0.0
 40
0.890173
 50
178.30470399999999
 51
222.738744
  0
LINE
  5
13A
  8
_________1
 62
     7
 10
64.590100000000007
 20
200.059
 30
0.0
 11
64.590100000000007
 21
206.173
 31
0.0
  0
ARC
  5
13B
  8
_________1
 62
     7
 10
65.481821999999994
 20
206.14760899999999
 30
0.0
 40
0.892098
 50
178.355176
 51
222.68827099999999
  0
ARC
  5
13C
  8
_________1
 62
     7
 10
65.473399000000001
 20
206.15294399999999
 30
0.0
 40
0.8895749999999999
 50
223.30872099999999
 51
267.75970000000001
  0
ARC
  5
13D
  8
_________1
 62
     7
 10
65.465063999999998
 20
206.15355199999999
 30
0.0
 40
0.8898959999999998
 50
268.29744799999997
 51
312.7460200000001
  0
ARC
  5
13E
  8
_________1
 62
     7
 10
65.458206000000004
 20
206.14716799999999
 30
0.0
 40
0.8899119999999999
 50
313.34923900000001
 51
357.77256899999998
  0
ARC
  5
13F
  8
_________1
 62
     7
 10
65.762529999999998
 20
206.142898
 30
0.0
 40
0.5857020000000001
 50
357.032937
 51
2.9670629999999991
  0
ARC
  5
140
  8
_________1
 62
     7
 10
65.459319999999991
 20
206.20052699999999
 30
0.0
 40
0.888546
 50
358.2385910000001
 51
42.749923000000003
  0
ARC
  5
141
  8
_________1
 62
     7
 10
65.463593000000003
 20
206.19267099999999
 30
0.0
 40
0.890783
 50
43.307498999999993
 51
87.683171999999999
  0
ARC
  5
142
  8
_________1
 62
     7
 10
65.476404000000002
 20
206.185531
 30
0.0
 40
0.8974949999999999
 50
88.518781000000004
 51
132.57955999999999
  0
ARC
  5
143
  8
_________1
 62
     7
 10
65.481622000000002
 20
206.197532
 30
0.0
 40
0.8922690000000001
 50
133.34770499999999
 51
177.66727299999999
  0
ARC
  5
144
  8
_________1
 62
     7
 10
65.478217000000001
 20
206.203532
 30
0.0
 40
0.888643
 50
178.044892
 51
181.955108
  0
LINE
  5
145
  8
_________1
 62
     7
 10
66.347399999999993
 20
201.33099999999999
 30
0.0
 11
70.226299999999995
 21
201.33099999999999
 31
0.0
  0
LINE
  5
146
  8
_________1
 62
     7
 10
70.226299999999995
 20
201.33099999999999
 30
0.0
 11
70.286900000000003
 21
201.33099999999999
 31
0.0
  0
ARC
  5
147
  8
_________1
 62
     7
 10
70.254266000000001
 20
201.11530300000001
 30
0.0
 40
0.2186
 50
37.286545000000011
 51
81.404444999999996
  0
ARC
  5
148
  8
_________1
 62
     7
 10
70.251287000000005
 20
201.11736500000001
 30
0.0
 40
0.219748
 50
352.56005399999998
 51
36.388047999999998
  0
LINE
  5
149
  8
_________1
 62
     7
 10
70.469200000000001
 20
201.089
 30
0.0
 11
70.469200000000001
 21
191.952
 31
0.0
  0
LINE
  5
14A
  8
_________1
 62
     7
 10
70.469200000000001
 20
191.952
 30
0.0
 11
60.468999999999987
 21
191.952
 31
0.0
  0
LINE
  5
14B
  8
_________1
 62
     7
 10
60.468999999999987
 20
191.952
 30
0.0
 11
60.468999999999987
 21
201.089
 31
0.0
  0
ARC
  5
14C
  8
_________1
 62
     7
 10
60.694004999999997
 20
201.11922799999999
 30
0.0
 40
0.226996
 50
172.32476500000001
 51
187.67523499999999
  0
ARC
  5
14D
  8
_________1
 62
     7
 10
60.685842000000001
 20
201.11680999999999
 30
0.0
 40
0.219256
 50
127.48428199999999
 51
171.41374500000001
  0
ARC
  5
14E
  8
_________1
 62
     7
 10
60.682507000000001
 20
201.113362
 30
0.0
 40
0.220015
 50
82.406846999999999
 51
126.24847800000001
  0
LINE
  5
14F
  8
_________1
 62
     7
 10
60.71159999999999
 20
201.33099999999999
 30
0.0
 11
64.590100000000007
 21
201.33099999999999
 31
0.0
  0
LINE
  5
150
  8
_________1
 62
     7
 10
146.786
 20
169.5809999999999
 30
0.0
 11
135.536
 21
169.5809999999999
 31
0.0
  0
LINE
  5
151
  8
_________1
 62
     7
 10
135.536
 20
169.5809999999999
 30
0.0
 11
135.536
 21
170.08099999999999
 31
0.0
  0
LINE
  5
152
  8
_________1
 62
     7
 10
135.536
 20
170.08099999999999
 30
0.0
 11
146.786
 21
170.08099999999999
 31
0.0
  0
LINE
  5
153
  8
_________1
 62
     7
 10
146.786
 20
170.08099999999999
 30
0.0
 11
146.786
 21
169.5809999999999
 31
0.0
  0
LINE
  5
154
  8
_________1
 62
     7
 10
71.094499999999996
 20
169.5809999999999
 30
0.0
 11
59.8444
 21
169.5809999999999
 31
0.0
  0
LINE
  5
155
  8
_________1
 62
     7
 10
59.8444
 20
169.5809999999999
 30
0.0
 11
59.8444
 21
170.08099999999999
 31
0.0
  0
LINE
  5
156
  8
_________1
 62
     7
 10
59.8444
 20
170.08099999999999
 30
0.0
 11
71.094499999999996
 21
170.08099999999999
 31
0.0
  0
LINE
  5
157
  8
_________1
 62
     7
 10
71.094499999999996
 20
170.08099999999999
 30
0.0
 11
71.094499999999996
 21
169.5809999999999
 31
0.0
  0
ARC
  5
158
  8
_________1
 62
     7
 10
116.208455
 20
178.91725400000001
 30
0.0
 40
16.714493999999998
 50
217.92515299999991
 51
269.51640600000002
  0
ARC
  5
159
  8
_________1
 62
     7
 10
116.06948199999999
 20
178.813524
 30
0.0
 40
16.610168999999999
 50
269.99275599999999
 51
279.555857
  0
INSERT
  5
15A
  8
_________1
 62
     7
  2
AIGNBL02010002
 10
0.0
 20
0.0
 30
0.0
  0
LINE
  5
15B
  8
_________1
 62
     7
 10
112.94799999999999
 20
175.78100000000001
 30
0.0
 11
105.497
 21
165.33600000000001
 31
0.0
  0
INSERT
  5
15C
  8
_________1
 62
     7
  2
AIGNBL02010003
 10
0.0
 20
0.0
 30
0.0
  0
LINE
  5
15D
  8
_________1
 62
     7
 10
115.101
 20
177.83099999999999
 30
0.0
 11
102.982
 21
177.83099999999999
 31
0.0
  0
LINE
  5
15E
  8
_________1
 62
     7
 10
114.411
 20
161.58600000000001
 30
0.0
 11
114.411
 21
176.465
 31
0.0
  0
INSERT
  5
15F
  8
_________1
 62
     7
  2
AIGNBL02010005
 10
0.0
 20
0.0
 30
0.0
  0
LINE
  5
160
  8
_________1
 62
     7
 10
125.10899999999999
 20
176.554
 30
0.0
 11
117.15300000000001
 21
176.554
 31
0.0
  0
ARC
  5
161
  8
_________1
 62
     7
 10
141.16833
 20
242.56984600000001
 30
0.0
 40
4.3751269999999991
 50
270.00227599999999
 51
0.002246
  0
ARC
  5
162
  8
_________1
 62
     7
 10
141.16867500000001
 20
242.56984499999999
 30
0.0
 40
4.375125999999999
 50
179.997714
 51
269.99776400000002
  0
ARC
  5
163
  8
_________1
 62
     7
 10
141.33596
 20
242.40256099999999
 30
0.0
 40
4.5454970000000001
 50
92.111255999999997
 51
177.88871499999999
  0
ARC
  5
164
  8
_________1
 62
     7
 10
141.00026
 20
242.40177499999999
 30
0.0
 40
4.5463110000000002
 50
2.1207950000000002
 51
87.879194999999996
  0
LINE
  5
165
  8
_________1
  6
AIGENLINE001
 62
     7
 10
141.161
 20
237.06100000000001
 30
0.0
 11
141.161
 21
248.19499999999999
 31
0.0
  0
LINE
  5
166
  8
_________1
  6
AIGENLINE001
 62
     7
 10
135.86199999999999
 20
242.58000000000001
 30
0.0
 11
146.60900000000001
 21
242.58000000000001
 31
0.0
  0
LINE
  5
167
  8
_________1
 62
     7
 10
68.9375
 20
159.45500000000001
 30
0.0
 11
68.9375
 21
156.33000000000001
 31
0.0
  0
LINE
  5
168
  8
_________1
 62
     7
 10
68.9375
 20
167.56399999999999
 30
0.0
 11
68.9375
 21
162.58099999999999
 31
0.0
  0
LINE
  5
169
  8
_________1
 62
     7
 10
69.187600000000003
 20
162.58099999999999
 30
0.0
 11
69.187600000000003
 21
167.56399999999999
 31
0.0
  0
LINE
  5
16A
  8
_________1
 62
     7
 10
61.9377
 20
167.56399999999999
 30
0.0
 11
61.9377
 21
162.58099999999999
 31
0.0
  0
LINE
  5
16B
  8
_________1
 62
     7
 10
61.688299999999991
 20
162.58099999999999
 30
0.0
 11
61.688299999999991
 21
167.56399999999999
 31
0.0
  0
LINE
  5
16C
  8
_________1
 62
     7
 10
68.9375
 20
161.95599999999999
 30
0.0
 11
68.9375
 21
160.70599999999999
 31
0.0
  0
LINE
  5
16D
  8
_________1
 62
     7
 10
69.187600000000003
 20
160.70599999999999
 30
0.0
 11
69.187600000000003
 21
161.95599999999999
 31
0.0
  0
LINE
  5
16E
  8
_________1
 62
     7
 10
61.9377
 20
161.95599999999999
 30
0.0
 11
61.9377
 21
160.70599999999999
 31
0.0
  0
LINE
  5
16F
  8
_________1
 62
     7
 10
61.688299999999991
 20
160.70599999999999
 30
0.0
 11
61.688299999999991
 21
161.95599999999999
 31
0.0
  0
LINE
  5
170
  8
_________1
 62
     7
 10
61.9377
 20
159.45500000000001
 30
0.0
 11
61.9377
 21
156.33000000000001
 31
0.0
  0
LINE
  5
171
  8
_________1
 62
     7
 10
61.688299999999991
 20
156.58099999999999
 30
0.0
 11
61.688299999999991
 21
159.45500000000001
 31
0.0
  0
LINE
  5
172
  8
_________1
 62
     7
 10
61.688299999999991
 20
156.58099999999999
 30
0.0
 11
69.187600000000003
 21
156.58099999999999
 31
0.0
  0
LINE
  5
173
  8
_________1
 62
     7
 10
69.187600000000003
 20
159.45500000000001
 30
0.0
 11
69.187600000000003
 21
156.58099999999999
 31
0.0
  0
LINE
  5
174
  8
_________1
 62
     7
 10
69.187600000000003
 20
156.58099999999999
 30
0.0
 11
68.936099999999996
 21
156.33000000000001
 31
0.0
  0
LINE
  5
175
  8
_________1
 62
     7
 10
68.936099999999996
 20
156.33000000000001
 30
0.0
 11
61.9377
 21
156.33000000000001
 31
0.0
  0
LINE
  5
176
  8
_________1
 62
     7
 10
61.9377
 20
156.33000000000001
 30
0.0
 11
61.688299999999991
 21
156.58099999999999
 31
0.0
  0
LINE
  5
177
  8
_________1
 62
     7
 10
66.9696
 20
155.81299999999999
 30
0.0
 11
66.452200000000005
 21
156.33000000000001
 31
0.0
  0
LINE
  5
178
  8
_________1
 62
     7
 10
64.487099999999998
 20
156.33000000000001
 30
0.0
 11
63.969599999999993
 21
155.81299999999999
 31
0.0
  0
LINE
  5
179
  8
_________1
 62
     7
 10
66.9696
 20
154.71199999999999
 30
0.0
 11
65.351100000000002
 21
156.33000000000001
 31
0.0
  0
LINE
  5
17A
  8
_________1
 62
     7
 10
65.588099999999997
 20
156.33000000000001
 30
0.0
 11
63.969599999999993
 21
154.71199999999999
 31
0.0
  0
LINE
  5
17B
  8
_________1
 62
     7
 10
66.9696
 20
153.61099999999999
 30
0.0
 11
64.250100000000003
 21
156.33000000000001
 31
0.0
  0
LINE
  5
17C
  8
_________1
 62
     7
 10
66.689199999999985
 20
156.33000000000001
 30
0.0
 11
63.969599999999993
 21
153.61099999999999
 31
0.0
  0
LINE
  5
17D
  8
_________1
 62
     7
 10
66.248199999999997
 20
153.23099999999999
 30
0.0
 11
63.969599999999993
 21
155.50999999999999
 31
0.0
  0
LINE
  5
17E
  8
_________1
 62
     7
 10
66.9696
 20
155.50999999999999
 30
0.0
 11
64.690299999999993
 21
153.23099999999999
 31
0.0
  0
LINE
  5
17F
  8
_________1
 62
     7
 10
65.147199999999998
 20
153.23099999999999
 30
0.0
 11
63.969599999999993
 21
154.40899999999999
 31
0.0
  0
LINE
  5
180
  8
_________1
 62
     7
 10
66.9696
 20
154.40899999999999
 30
0.0
 11
65.791399999999996
 21
153.23099999999999
 31
0.0
  0
LINE
  5
181
  8
_________1
 62
     7
 10
66.9696
 20
65.672200000000004
 30
0.0
 11
66.9696
 21
156.33000000000001
 31
0.0
  0
LINE
  5
182
  8
_________1
 62
     7
 10
63.969599999999993
 20
65.672200000000004
 30
0.0
 11
63.969599999999993
 21
156.33000000000001
 31
0.0
  0
LINE
  5
183
  8
_________1
 62
     7
 10
59.594299999999997
 20
158.20500000000001
 30
0.0
 11
59.594299999999997
 21
159.45500000000001
 31
0.0
  0
LINE
  5
184
  8
_________1
 62
     7
 10
60.844200000000001
 20
158.20500000000001
 30
0.0
 11
60.844200000000001
 21
159.45500000000001
 31
0.0
  0
LINE
  5
185
  8
_________1
 62
     7
 10
59.594299999999997
 20
160.70500000000001
 30
0.0
 11
59.594299999999997
 21
161.95500000000001
 31
0.0
  0
LINE
  5
186
  8
_________1
 62
     7
 10
60.844200000000001
 20
160.70500000000001
 30
0.0
 11
60.844200000000001
 21
161.95500000000001
 31
0.0
  0
LINE
  5
187
  8
_________1
  6
AIGENLINE001
 62
     7
 10
60.219299999999997
 20
155.9079999999999
 30
0.0
 11
60.219299999999997
 21
163.60300000000001
 31
0.0
  0
LINE
  5
188
  8
_________1
 62
     7
 10
59.169199999999996
 20
156.95500000000001
 30
0.0
 11
59.169199999999996
 21
158.20500000000001
 31
0.0
  0
LINE
  5
189
  8
_________1
 62
     7
 10
59.169199999999996
 20
158.20500000000001
 30
0.0
 11
61.269300000000001
 21
158.20500000000001
 31
0.0
  0
LINE
  5
18A
  8
_________1
 62
     7
 10
61.269300000000001
 20
158.20500000000001
 30
0.0
 11
61.269300000000001
 21
156.95500000000001
 31
0.0
  0
LINE
  5
18B
  8
_________1
 62
     7
 10
61.269300000000001
 20
156.95500000000001
 30
0.0
 11
59.169199999999996
 21
156.95500000000001
 31
0.0
  0
LINE
  5
18C
  8
_________1
 62
     7
 10
70.094399999999993
 20
158.20500000000001
 30
0.0
 11
70.094399999999993
 21
159.45500000000001
 31
0.0
  0
LINE
  5
18D
  8
_________1
 62
     7
 10
71.344200000000001
 20
158.20500000000001
 30
0.0
 11
71.344200000000001
 21
159.45500000000001
 31
0.0
  0
LINE
  5
18E
  8
_________1
 62
     7
 10
70.094399999999993
 20
160.70500000000001
 30
0.0
 11
70.094399999999993
 21
161.95500000000001
 31
0.0
  0
LINE
  5
18F
  8
_________1
 62
     7
 10
71.344200000000001
 20
160.70500000000001
 30
0.0
 11
71.344200000000001
 21
161.95500000000001
 31
0.0
  0
LINE
  5
190
  8
_________1
  6
AIGENLINE001
 62
     7
 10
70.719300000000004
 20
155.9079999999999
 30
0.0
 11
70.719300000000004
 21
163.60300000000001
 31
0.0
  0
LINE
  5
191
  8
_________1
 62
     7
 10
69.669200000000004
 20
156.95500000000001
 30
0.0
 11
69.669200000000004
 21
158.20500000000001
 31
0.0
  0
LINE
  5
192
  8
_________1
 62
     7
 10
69.669200000000004
 20
158.20500000000001
 30
0.0
 11
71.769400000000005
 21
158.20500000000001
 31
0.0
  0
LINE
  5
193
  8
_________1
 62
     7
 10
71.769400000000005
 20
158.20500000000001
 30
0.0
 11
71.769400000000005
 21
156.95500000000001
 31
0.0
  0
LINE
  5
194
  8
_________1
 62
     7
 10
71.769400000000005
 20
156.95500000000001
 30
0.0
 11
69.669200000000004
 21
156.95500000000001
 31
0.0
  0
LINE
  5
195
  8
_________1
 62
     7
 10
59.219499999999989
 20
159.45500000000001
 30
0.0
 11
59.219499999999989
 21
160.70500000000001
 31
0.0
  0
LINE
  5
196
  8
_________1
 62
     7
 10
59.219499999999989
 20
160.70500000000001
 30
0.0
 11
71.719800000000006
 21
160.70500000000001
 31
0.0
  0
LINE
  5
197
  8
_________1
 62
     7
 10
71.719800000000006
 20
160.70500000000001
 30
0.0
 11
71.719800000000006
 21
159.45500000000001
 31
0.0
  0
LINE
  5
198
  8
_________1
 62
     7
 10
71.719800000000006
 20
159.45500000000001
 30
0.0
 11
59.219499999999989
 21
159.45500000000001
 31
0.0
  0
LINE
  5
199
  8
_________1
 62
     7
 10
59.219499999999989
 20
161.95500000000001
 30
0.0
 11
59.219499999999989
 21
162.33000000000001
 31
0.0
  0
LINE
  5
19A
  8
_________1
 62
     7
 10
59.219499999999989
 20
162.33000000000001
 30
0.0
 11
71.719800000000006
 21
162.33000000000001
 31
0.0
  0
LINE
  5
19B
  8
_________1
 62
     7
 10
71.719800000000006
 20
162.33000000000001
 30
0.0
 11
71.719800000000006
 21
161.95500000000001
 31
0.0
  0
LINE
  5
19C
  8
_________1
 62
     7
 10
71.719800000000006
 20
161.95500000000001
 30
0.0
 11
59.219499999999989
 21
161.95500000000001
 31
0.0
  0
LINE
  5
19D
  8
_________1
 62
     7
 10
59.969200000000001
 20
162.33000000000001
 30
0.0
 11
59.969200000000001
 21
162.58000000000001
 31
0.0
  0
LINE
  5
19E
  8
_________1
 62
     7
 10
59.969200000000001
 20
162.58000000000001
 30
0.0
 11
70.969399999999993
 21
162.58000000000001
 31
0.0
  0
LINE
  5
19F
  8
_________1
 62
     7
 10
70.969399999999993
 20
162.58000000000001
 30
0.0
 11
70.969399999999993
 21
162.33000000000001
 31
0.0
  0
LINE
  5
1A0
  8
_________1
 62
     7
 10
70.969399999999993
 20
162.33000000000001
 30
0.0
 11
59.969200000000001
 21
162.33000000000001
 31
0.0
  0
LINE
  5
1A1
  8
_________1
 62
     7
 10
65.721800000000002
 20
169.5809999999999
 30
0.0
 11
65.721800000000002
 21
168.13200000000001
 31
0.0
  0
ARC
  5
1A2
  8
_________1
 62
     7
 10
65.467175999999995
 20
168.13297800000001
 30
0.0
 40
0.254641
 50
315.05220500000001
 51
359.67665800000009
  0
ARC
  5
1A3
  8
_________1
 62
     7
 10
65.470292000000001
 20
168.12894399999999
 30
0.0
 40
0.249586
 50
269.84809100000001
 51
315.20229799999998
  0
ARC
  5
1A4
  8
_________1
 62
     7
 10
65.471056000000004
 20
168.13565399999999
 30
0.0
 40
0.2563
 50
225.424915
 51
269.68138699999997
  0
ARC
  5
1A5
  8
_________1
 62
     7
 10
65.472195999999997
 20
168.132327
 30
0.0
 40
0.25475
 50
180.17681999999999
 51
224.716938
  0
LINE
  5
1A6
  8
_________1
 62
     7
 10
65.217399999999998
 20
168.13200000000001
 30
0.0
 11
65.217399999999998
 21
169.5809999999999
 31
0.0
  0
LINE
  5
1A7
  8
_________1
 62
     7
 10
69.503900000000002
 20
167.56399999999999
 30
0.0
 11
69.503900000000002
 21
169.5809999999999
 31
0.0
  0
LINE
  5
1A8
  8
_________1
 62
     7
 10
61.372700000000002
 20
167.56399999999999
 30
0.0
 11
69.503900000000002
 21
167.56399999999999
 31
0.0
  0
LINE
  5
1A9
  8
_________1
 62
     7
 10
69.503900000000002
 20
167.56399999999999
 30
0.0
 11
69.818700000000007
 21
169.5809999999999
 31
0.0
  0
LINE
  5
1AA
  8
_________1
 62
     7
 10
61.372700000000002
 20
169.5809999999999
 30
0.0
 11
61.372700000000002
 21
167.56399999999999
 31
0.0
  0
LINE
  5
1AB
  8
_________1
 62
     7
 10
61.372700000000002
 20
167.56399999999999
 30
0.0
 11
61.0578
 21
169.5809999999999
 31
0.0
  0
INSERT
  5
1AC
  8
_________1
 62
     7
  2
AIGNBL02010007
 10
0.0
 20
0.0
 30
0.0
  0
INSERT
  5
1AD
  8
_________1
 62
     7
  2
AIGNBL02010008
 10
0.0
 20
0.0
 30
0.0
  0
LINE
  5
1AE
  8
_________1
 62
     7
 10
66.719499999999996
 20
53.502699999999997
 30
0.0
 11
66.719499999999996
 21
47.3249
 31
0.0
  0
LINE
  5
1AF
  8
_________1
 62
     7
 10
64.219700000000003
 20
53.502699999999997
 30
0.0
 11
64.219700000000003
 21
47.3249
 31
0.0
  0
LINE
  5
1B0
  8
_________1
 62
     7
 10
79.356200000000001
 20
171.77799999999999
 30
0.0
 11
79.948099999999997
 21
169.56700000000001
 31
0.0
  0
LINE
  5
1B1
  8
_________1
 62
     7
 10
79.948099999999997
 20
169.56700000000001
 30
0.0
 11
80.540599999999984
 21
171.77799999999999
 31
0.0
  0
LINE
  5
1B2
  8
_________1
 62
     7
 10
80.540599999999984
 20
171.77799999999999
 30
0.0
 11
79.356200000000001
 21
171.77799999999999
 31
0.0
  0
LINE
  5
1B3
  8
_________1
 62
     7
 10
79.370699999999999
 20
56.29249999999999
 30
0.0
 11
79.962500000000006
 21
54.081499999999998
 31
0.0
  0
LINE
  5
1B4
  8
_________1
 62
     7
 10
79.962500000000006
 20
54.081499999999998
 30
0.0
 11
80.555099999999996
 21
56.29249999999999
 31
0.0
  0
LINE
  5
1B5
  8
_________1
 62
     7
 10
80.555099999999996
 20
56.29249999999999
 30
0.0
 11
79.370699999999999
 21
56.29249999999999
 31
0.0
  0
LINE
  5
1B6
  8
_________1
 62
     7
 10
80.541300000000007
 20
199.06299999999999
 30
0.0
 11
79.948800000000006
 21
201.274
 31
0.0
  0
LINE
  5
1B7
  8
_________1
 62
     7
 10
79.948800000000006
 20
201.274
 30
0.0
 11
79.356899999999996
 21
199.06299999999999
 31
0.0
  0
LINE
  5
1B8
  8
_________1
 62
     7
 10
79.356899999999996
 20
199.06299999999999
 30
0.0
 11
80.541300000000007
 21
199.06299999999999
 31
0.0
  0
LINE
  5
1B9
  8
_________1
 62
     7
 10
80.540599999999984
 20
167.35599999999999
 30
0.0
 11
79.948099999999997
 21
169.56700000000001
 31
0.0
  0
LINE
  5
1BA
  8
_________1
 62
     7
 10
79.948099999999997
 20
169.56700000000001
 30
0.0
 11
79.356200000000001
 21
167.35599999999999
 31
0.0
  0
LINE
  5
1BB
  8
_________1
 62
     7
 10
79.356200000000001
 20
167.35599999999999
 30
0.0
 11
80.540599999999984
 21
167.35599999999999
 31
0.0
  0
LINE
  5
1BC
  8
_________1
 62
     7
 10
79.948099999999997
 20
54.080800000000004
 30
0.0
 11
79.948099999999997
 21
169.56700000000001
 31
0.0
  0
LINE
  5
1BD
  8
_________1
 62
     7
 10
67.419600000000003
 20
54.080800000000004
 30
0.0
 11
80.701200000000014
 21
54.080800000000004
 31
0.0
  0
LINE
  5
1BE
  8
_________1
 62
     7
 10
46.8874
 20
156.33000000000001
 30
0.0
 11
60.9069
 21
156.33000000000001
 31
0.0
  0
LINE
  5
1BF
  8
_________1
 62
     7
 10
52.6648
 20
162.58000000000001
 30
0.0
 11
58.835700000000003
 21
162.58000000000001
 31
0.0
  0
LINE
  5
1C0
  8
_________1
 62
     7
 10
48.102800000000002
 20
167.37
 30
0.0
 11
47.51019999999999
 21
169.5809999999999
 31
0.0
  0
LINE
  5
1C1
  8
_________1
 62
     7
 10
47.51019999999999
 20
169.5809999999999
 30
0.0
 11
46.918399999999998
 21
167.37
 31
0.0
  0
LINE
  5
1C2
  8
_________1
 62
     7
 10
46.918399999999998
 20
167.37
 30
0.0
 11
48.102800000000002
 21
167.37
 31
0.0
  0
LINE
  5
1C3
  8
_________1
 62
     7
 10
46.9328
 20
158.542
 30
0.0
 11
47.524700000000003
 21
156.33099999999999
 31
0.0
  0
LINE
  5
1C4
  8
_________1
 62
     7
 10
47.524700000000003
 20
156.33099999999999
 30
0.0
 11
48.1173
 21
158.542
 31
0.0
  0
LINE
  5
1C5
  8
_________1
 62
     7
 10
48.1173
 20
158.542
 30
0.0
 11
46.9328
 21
158.542
 31
0.0
  0
LINE
  5
1C6
  8
_________1
 62
     7
 10
47.51019999999999
 20
169.5809999999999
 30
0.0
 11
47.51019999999999
 21
156.33000000000001
 31
0.0
  0
INSERT
  5
1C7
  8
_________1
 62
     7
  2
AIGNBL0201000B
 10
0.0
 20
0.0
 30
0.0
  0
LINE
  5
1C8
  8
_________1
 62
     7
 10
46.806699999999999
 20
169.5809999999999
 30
0.0
 11
59.068600000000004
 21
169.5809999999999
 31
0.0
  0
LINE
  5
1C9
  8
_________1
 62
     7
 10
144.62899999999999
 20
159.45599999999999
 30
0.0
 11
144.62899999999999
 21
156.33000000000001
 31
0.0
  0
LINE
  5
1CA
  8
_________1
 62
     7
 10
144.62899999999999
 20
167.56399999999999
 30
0.0
 11
144.62899999999999
 21
162.58000000000001
 31
0.0
  0
LINE
  5
1CB
  8
_________1
 62
     7
 10
144.87899999999999
 20
162.58000000000001
 30
0.0
 11
144.87899999999999
 21
167.56399999999999
 31
0.0
  0
LINE
  5
1CC
  8
_________1
 62
     7
 10
137.62899999999999
 20
167.56399999999999
 30
0.0
 11
137.62899999999999
 21
162.58000000000001
 31
0.0
  0
LINE
  5
1CD
  8
_________1
 62
     7
 10
137.38
 20
162.58000000000001
 30
0.0
 11
137.38
 21
167.56399999999999
 31
0.0
  0
LINE
  5
1CE
  8
_________1
 62
     7
 10
144.62899999999999
 20
161.95500000000001
 30
0.0
 11
144.62899999999999
 21
160.70500000000001
 31
0.0
  0
LINE
  5
1CF
  8
_________1
 62
     7
 10
144.87899999999999
 20
160.70500000000001
 30
0.0
 11
144.87899999999999
 21
161.95500000000001
 31
0.0
  0
LINE
  5
1D0
  8
_________1
 62
     7
 10
137.62899999999999
 20
161.95500000000001
 30
0.0
 11
137.62899999999999
 21
160.70500000000001
 31
0.0
  0
LINE
  5
1D1
  8
_________1
 62
     7
 10
137.38
 20
160.70500000000001
 30
0.0
 11
137.38
 21
161.95500000000001
 31
0.0
  0
LINE
  5
1D2
  8
_________1
 62
     7
 10
137.62899999999999
 20
159.45599999999999
 30
0.0
 11
137.62899999999999
 21
156.33000000000001
 31
0.0
  0
LINE
  5
1D3
  8
_________1
 62
     7
 10
137.38
 20
156.58000000000001
 30
0.0
 11
137.38
 21
159.45599999999999
 31
0.0
  0
LINE
  5
1D4
  8
_________1
 62
     7
 10
137.38
 20
156.58000000000001
 30
0.0
 11
144.87899999999999
 21
156.58000000000001
 31
0.0
  0
LINE
  5
1D5
  8
_________1
 62
     7
 10
144.87899999999999
 20
159.45599999999999
 30
0.0
 11
144.87899999999999
 21
156.58000000000001
 31
0.0
  0
LINE
  5
1D6
  8
_________1
 62
     7
 10
144.87899999999999
 20
156.58000000000001
 30
0.0
 11
144.62700000000001
 21
156.33000000000001
 31
0.0
  0
LINE
  5
1D7
  8
_________1
 62
     7
 10
144.62700000000001
 20
156.33000000000001
 30
0.0
 11
137.62899999999999
 21
156.33000000000001
 31
0.0
  0
LINE
  5
1D8
  8
_________1
 62
     7
 10
137.62899999999999
 20
156.33000000000001
 30
0.0
 11
137.38
 21
156.58000000000001
 31
0.0
  0
LINE
  5
1D9
  8
_________1
 62
     7
 10
140.536
 20
158.20500000000001
 30
0.0
 11
140.536
 21
159.45500000000001
 31
0.0
  0
LINE
  5
1DA
  8
_________1
 62
     7
 10
141.786
 20
158.20500000000001
 30
0.0
 11
141.786
 21
159.45500000000001
 31
0.0
  0
LINE
  5
1DB
  8
_________1
 62
     7
 10
140.536
 20
160.70500000000001
 30
0.0
 11
140.536
 21
161.95500000000001
 31
0.0
  0
LINE
  5
1DC
  8
_________1
 62
     7
 10
141.786
 20
160.70500000000001
 30
0.0
 11
141.786
 21
161.95500000000001
 31
0.0
  0
LINE
  5
1DD
  8
_________1
 62
     7
 10
140.11099999999999
 20
156.95500000000001
 30
0.0
 11
140.11099999999999
 21
158.20500000000001
 31
0.0
  0
LINE
  5
1DE
  8
_________1
 62
     7
 10
140.11099999999999
 20
158.20500000000001
 30
0.0
 11
142.21100000000001
 21
158.20500000000001
 31
0.0
  0
LINE
  5
1DF
  8
_________1
 62
     7
 10
142.21100000000001
 20
158.20500000000001
 30
0.0
 11
142.21100000000001
 21
156.95500000000001
 31
0.0
  0
LINE
  5
1E0
  8
_________1
 62
     7
 10
142.21100000000001
 20
156.95500000000001
 30
0.0
 11
140.11099999999999
 21
156.95500000000001
 31
0.0
  0
LINE
  5
1E1
  8
_________1
 62
     7
 10
134.911
 20
159.45500000000001
 30
0.0
 11
134.911
 21
160.70500000000001
 31
0.0
  0
LINE
  5
1E2
  8
_________1
 62
     7
 10
134.911
 20
160.70500000000001
 30
0.0
 11
147.411
 21
160.70500000000001
 31
0.0
  0
LINE
  5
1E3
  8
_________1
 62
     7
 10
147.411
 20
160.70500000000001
 30
0.0
 11
147.411
 21
159.45500000000001
 31
0.0
  0
LINE
  5
1E4
  8
_________1
 62
     7
 10
147.411
 20
159.45500000000001
 30
0.0
 11
134.911
 21
159.45500000000001
 31
0.0
  0
LINE
  5
1E5
  8
_________1
 62
     7
 10
134.911
 20
161.95500000000001
 30
0.0
 11
134.911
 21
162.33000000000001
 31
0.0
  0
LINE
  5
1E6
  8
_________1
 62
     7
 10
134.911
 20
162.33000000000001
 30
0.0
 11
147.411
 21
162.33000000000001
 31
0.0
  0
LINE
  5
1E7
  8
_________1
 62
     7
 10
147.411
 20
162.33000000000001
 30
0.0
 11
147.411
 21
161.95500000000001
 31
0.0
  0
LINE
  5
1E8
  8
_________1
 62
     7
 10
147.411
 20
161.95500000000001
 30
0.0
 11
134.911
 21
161.95500000000001
 31
0.0
  0
LINE
  5
1E9
  8
_________1
 62
     7
 10
135.661
 20
162.33000000000001
 30
0.0
 11
135.661
 21
162.58000000000001
 31
0.0
  0
LINE
  5
1EA
  8
_________1
 62
     7
 10
135.661
 20
162.58000000000001
 30
0.0
 11
146.661
 21
162.58000000000001
 31
0.0
  0
LINE
  5
1EB
  8
_________1
 62
     7
 10
146.661
 20
162.58000000000001
 30
0.0
 11
146.661
 21
162.33000000000001
 31
0.0
  0
LINE
  5
1EC
  8
_________1
 62
     7
 10
146.661
 20
162.33000000000001
 30
0.0
 11
135.661
 21
162.33000000000001
 31
0.0
  0
LINE
  5
1ED
  8
_________1
 62
     7
 10
141.41300000000001
 20
169.5809999999999
 30
0.0
 11
141.41300000000001
 21
168.13200000000001
 31
0.0
  0
ARC
  5
1EE
  8
_________1
 62
     7
 10
141.15846999999999
 20
168.13297800000001
 30
0.0
 40
0.254641
 50
315.05220500000001
 51
359.67665800000009
  0
ARC
  5
1EF
  8
_________1
 62
     7
 10
141.161586
 20
168.12894399999999
 30
0.0
 40
0.249586
 50
269.84809100000001
 51
315.20229799999998
  0
ARC
  5
1F0
  8
_________1
 62
     7
 10
141.16234900000001
 20
168.13565399999999
 30
0.0
 40
0.2563
 50
225.424915
 51
269.68138699999997
  0
ARC
  5
1F1
  8
_________1
 62
     7
 10
141.16717399999999
 20
168.133849
 30
0.0
 40
0.258443
 50
180.51171299999999
 51
224.38204500000001
  0
LINE
  5
1F2
  8
_________1
 62
     7
 10
140.90899999999999
 20
168.13200000000001
 30
0.0
 11
140.90899999999999
 21
169.5809999999999
 31
0.0
  0
LINE
  5
1F3
  8
_________1
 62
     7
 10
145.19499999999999
 20
167.56399999999999
 30
0.0
 11
145.19499999999999
 21
169.5809999999999
 31
0.0
  0
LINE
  5
1F4
  8
_________1
 62
     7
 10
137.06399999999999
 20
167.56399999999999
 30
0.0
 11
145.19499999999999
 21
167.56399999999999
 31
0.0
  0
LINE
  5
1F5
  8
_________1
 62
     7
 10
145.19499999999999
 20
167.56399999999999
 30
0.0
 11
145.50999999999999
 21
169.5809999999999
 31
0.0
  0
LINE
  5
1F6
  8
_________1
 62
     7
 10
137.06399999999999
 20
169.5809999999999
 30
0.0
 11
137.06399999999999
 21
167.56399999999999
 31
0.0
  0
LINE
  5
1F7
  8
_________1
 62
     7
 10
137.06399999999999
 20
167.56399999999999
 30
0.0
 11
136.749
 21
169.5809999999999
 31
0.0
  0
INSERT
  5
1F8
  8
_________1
 62
     7
  2
AIGNBL0201000C
 10
0.0
 20
0.0
 30
0.0
  0
INSERT
  5
1F9
  8
_________1
 62
     7
  2
AIGNBL0201000E
 10
0.0
 20
0.0
 30
0.0
  0
LINE
  5
1FA
  8
_________1
 62
     7
 10
160.126
 20
235.667
 30
0.0
 11
148.07400000000001
 21
235.667
 31
0.0
  0
INSERT
  5
1FB
  8
_________1
 62
     7
  2
AIGNBL0201000F
 10
0.0
 20
0.0
 30
0.0
  0
LINE
  5
1FC
  8
_________1
 62
     7
 10
138.33199999999999
 20
245.40799999999999
 30
0.0
 11
143.99000000000001
 21
239.751
 31
0.0
  0
INSERT
  5
1FD
  8
_________1
 62
     7
  2
AIGNBL02010011
 10
0.0
 20
0.0
 30
0.0
  0
LINE
  5
1FE
  8
_________1
 62
     7
 10
67.844700000000003
 20
177.33099999999999
 30
0.0
 11
67.844700000000003
 21
185.32300000000001
 31
0.0
  0
LINE
  5
1FF
  8
_________1
 62
     7
 10
63.0946
 20
177.33099999999999
 30
0.0
 11
63.0946
 21
185.32300000000001
 31
0.0
  0
ARC
  5
200
  8
_________1
 62
     7
 10
66.981453999999999
 20
181.39921000000001
 30
0.0
 40
0.863244
 50
0.159687
 51
34.79325
  0
ARC
  5
201
  8
_________1
 62
     7
 10
66.613117000000003
 20
181.18149099999999
 30
0.0
 40
1.2903439999999999
 50
33.399539000000011
 51
50.208013000000001
  0
ARC
  5
202
  8
_________1
 62
     7
 10
66.158449000000005
 20
180.67205799999999
 30
0.0
 40
1.9729039999999991
 50
49.530852999999993
 51
64.684528999999984
  0
ARC
  5
203
  8
_________1
 62
     7
 10
65.690445999999994
 20
179.765297
 30
0.0
 40
2.992913999999999
 50
64.008216000000004
 51
80.128915000000006
  0
ARC
  5
204
  8
_________1
 62
     7
 10
65.482165000000009
 20
178.87324699999999
 30
0.0
 40
3.9078140000000001
 50
79.362487999999999
 51
90.183767999999986
  0
ARC
  5
205
  8
_________1
 62
     7
 10
65.468937999999994
 20
178.827226
 30
0.0
 40
3.9538150000000001
 50
89.989959999999996
 51
105.475025
  0
ARC
  5
206
  8
_________1
 62
     7
 10
65.226979
 20
179.803631
 30
0.0
 40
2.948375
 50
106.006241
 51
117.805571
  0
ARC
  5
207
  8
_________1
 62
     7
 10
64.810684999999992
 20
180.62646899999999
 30
0.0
 40
2.0264159999999989
 50
118.246785
 51
132.05179999999999
  0
ARC
  5
208
  8
_________1
 62
     7
 10
64.305447999999984
 20
181.20652999999999
 30
0.0
 40
1.25736
 50
132.66098799999989
 51
155.40369000000001
  0
ARC
  5
209
  8
_________1
 62
     7
 10
63.955581000000002
 20
181.395364
 30
0.0
 40
0.8610369999999999
 50
157.13919899999999
 51
179.58395200000001
  0
ARC
  5
20A
  8
_________1
 62
     7
 10
66.981453999999999
 20
177.32847100000001
 30
0.0
 40
0.8632429999999999
 50
0.158959
 51
34.793256999999997
  0
ARC
  5
20B
  8
_________1
 62
     7
 10
66.612262999999999
 20
177.10998699999999
 30
0.0
 40
1.2914779999999999
 50
33.406970999999999
 51
50.200580999999993
  0
ARC
  5
20C
  8
_________1
 62
     7
 10
66.157488999999984
 20
176.59983399999999
 30
0.0
 40
1.974656999999999
 50
49.537616999999997
 51
64.677765000000008
  0
ARC
  5
20D
  8
_________1
 62
     7
 10
65.689705000000004
 20
175.69226599999999
 30
0.0
 40
2.9952990000000002
 50
64.014675999999994
 51
80.122455999999985
  0
ARC
  5
20E
  8
_________1
 62
     7
 10
65.481453000000002
 20
174.794096
 30
0.0
 40
3.9162119999999998
 50
79.374966999999998
 51
90.172955999999985
  0
ARC
  5
20F
  8
_________1
 62
     7
 10
65.468937999999994
 20
174.75647599999999
 30
0.0
 40
3.9538150000000001
 50
89.989959999999996
 51
105.475025
  0
ARC
  5
210
  8
_________1
 62
     7
 10
65.226819999999989
 20
175.73340099999999
 30
0.0
 40
2.9478309999999999
 50
106.006052
 51
117.807648
  0
ARC
  5
211
  8
_________1
 62
     7
 10
64.808498999999983
 20
176.55875399999999
 30
0.0
 40
2.0226980000000001
 50
118.233088
 51
132.06342699999999
  0
ARC
  5
212
  8
_________1
 62
     7
 10
64.311695
 20
177.1294639999999
 30
0.0
 40
1.2662379999999991
 50
132.675195
 51
154.44556299999999
  0
ARC
  5
213
  8
_________1
 62
     7
 10
63.961559999999999
 20
177.32340300000001
 30
0.0
 40
0.8670250000000001
 50
156.02714800000001
 51
179.50684999999999
  0
ARC
  5
214
  8
_________1
 62
     7
 10
63.957040999999997
 20
177.33327299999999
 30
0.0
 40
0.8624769999999999
 50
180.15997699999991
 51
214.79919699999999
  0
ARC
  5
215
  8
_________1
 62
     7
 10
64.326148000000003
 20
177.55170100000001
 30
0.0
 40
1.2906089999999999
 50
213.410089
 51
230.20730699999999
  0
ARC
  5
216
  8
_________1
 62
     7
 10
64.780901999999998
 20
178.061713
 30
0.0
 40
1.973665999999999
 50
229.539512
 51
244.68294599999999
  0
ARC
  5
217
  8
_________1
 62
     7
 10
65.248249999999985
 20
178.967603
 30
0.0
 40
2.9926069999999991
 50
244.011313
 51
260.13375500000001
  0
ARC
  5
218
  8
_________1
 62
     7
 10
65.457301000000001
 20
179.86561699999999
 30
0.0
 40
3.9135070000000001
 50
259.37117899999998
 51
270.180519
  0
ARC
  5
219
  8
_________1
 62
     7
 10
65.469927999999996
 20
179.83874299999999
 30
0.0
 40
3.8866139999999989
 50
269.99561999999997
 51
288.84523100000001
  0
ARC
  5
21A
  8
_________1
 62
     7
 10
65.867918000000003
 20
178.546165
 30
0.0
 40
2.5350980000000001
 50
289.76883900000001
 51
306.411652
  0
ARC
  5
21B
  8
_________1
 62
     7
 10
66.492361000000002
 20
177.65119899999999
 30
0.0
 40
1.444480999999999
 50
307.550164
 51
328.88524200000001
  0
ARC
  5
21C
  8
_________1
 62
     7
 10
66.942342000000011
 20
177.34705199999999
 30
0.0
 40
0.9024979999999999
 50
330.65431599999999
 51
358.97231799999997
  0
ARC
  5
21D
  8
_________1
 62
     7
 10
65.378662000000006
 20
185.23239699999999
 30
0.0
 40
2.4677090000000002
 50
2.1125919999999989
 51
87.887398000000005
  0
ARC
  5
21E
  8
_________1
 62
     7
 10
65.469631000000007
 20
185.323365
 30
0.0
 40
2.3750640000000001
 50
90.0
 51
179.99996999999999
  0
ARC
  5
21F
  8
_________1
 62
     7
 10
135.599907
 20
184.00748899999999
 30
0.0
 40
0.790917
 50
315.08425699999998
 51
328.19060400000001
  0
ARC
  5
220
  8
_________1
 62
     7
 10
134.91774899999999
 20
184.45752899999999
 30
0.0
 40
1.6079959999999991
 50
327.37516299999999
 51
338.05712199999999
  0
ARC
  5
221
  8
_________1
 62
     7
 10
133.45649599999999
 20
185.08753899999999
 30
0.0
 40
3.1990439999999989
 50
337.37067400000001
 51
345.08205900000002
  0
ARC
  5
222
  8
_________1
 62
     7
 10
131.05373599999999
 20
185.769655
 30
0.0
 40
5.6965649999999997
 50
344.67400400000002
 51
353.1900740000001
  0
ARC
  5
223
  8
_________1
 62
     7
 10
130.58160699999999
 20
185.88081600000001
 30
0.0
 40
6.1787839999999994
 50
352.685675
 51
359.47418699999997
  0
ARC
  5
224
  8
_________1
 62
     7
 10
135.599907
 20
187.64004800000001
 30
0.0
 40
0.790917
 50
31.809396
 51
44.915742999999992
  0
ARC
  5
225
  8
_________1
 62
     7
 10
134.91725199999999
 20
187.18970300000001
 30
0.0
 40
1.6085789999999991
 50
21.947051999999999
 51
32.624442000000002
  0
ARC
  5
226
  8
_________1
 62
     7
 10
133.45577299999999
 20
186.55973
 30
0.0
 40
3.199822999999999
 50
14.919987000000001
 51
22.629124999999998
  0
ARC
  5
227
  8
_________1
 62
     7
 10
130.75597500000001
 20
185.80050299999999
 30
0.0
 40
6.0042019999999994
 50
0.2253030000000001
 51
15.287516999999999
  0
LINE
  5
228
  8
_________1
 62
     7
 10
119.123
 20
180.34800000000001
 30
0.0
 11
116.48999999999999
 21
176.65600000000001
 31
0.0
  0
LINE
  5
229
  8
_________1
 62
     7
 10
136.16
 20
183.44900000000001
 30
0.0
 11
125.455
 21
183.44900000000001
 31
0.0
  0
ARC
  5
22A
  8
_________1
 62
     7
 10
125.452118
 20
174.17900900000001
 30
0.0
 40
9.2700410000000009
 50
89.982309000000015
 51
102.670322
  0
ARC
  5
22B
  8
_________1
 62
     7
 10
125.109612
 20
175.984983
 30
0.0
 40
7.433177999999999
 50
103.147913
 51
129.05896000000001
  0
ARC
  5
22C
  8
_________1
 62
     7
 10
125.093805
 20
176.13434799999999
 30
0.0
 40
7.3076939999999997
 50
129.70066299999999
 51
144.78858299999999
  0
LINE
  5
22D
  8
_________1
  6
AIGENLINE001
 62
     7
 10
117.19
 20
181.727
 30
0.0
 11
113.251
 21
176.20699999999999
 31
0.0
  0
LINE
  5
22E
  8
_________1
  6
AIGENLINE001
 62
     7
 10
141.161
 20
185.82400000000001
 30
0.0
 11
125.45399999999999
 21
185.82400000000001
 31
0.0
  0
ARC
  5
22F
  8
_________1
  6
AIGENLINE001
 62
     7
 10
125.454345
 20
174.279301
 30
0.0
 40
11.544468
 50
90.003686999999999
 51
104.751053
  0
ARC
  5
230
  8
_________1
  6
AIGENLINE001
 62
     7
 10
125.095815
 20
176.07117600000001
 30
0.0
 40
9.7209789999999998
 50
105.396658
 51
144.419039
  0
LINE
  5
231
  8
_________1
 62
     7
 10
115.256
 20
183.107
 30
0.0
 11
112.623
 21
179.41399999999999
 31
0.0
  0
LINE
  5
232
  8
_________1
 62
     7
 10
136.16
 20
188.19800000000001
 30
0.0
 11
125.455
 21
188.19800000000001
 31
0.0
  0
ARC
  5
233
  8
_________1
 62
     7
 10
125.456688
 20
174.39219
 30
0.0
 40
13.806298
 50
90.007085000000004
 51
107.110167
  0
ARC
  5
234
  8
_________1
 62
     7
 10
125.069579
 20
176.10761500000001
 30
0.0
 40
12.053658
 50
107.75055500000001
 51
144.50653299999999
  0
LINE
  5
235
  8
_________1
 62
     7
 10
114.411
 20
177.83099999999999
 30
0.0
 11
112.682
 21
179.065
 31
0.0
  0
ARC
  5
236
  8
_________1
 62
     7
 10
112.840101
 20
179.27119099999999
 30
0.0
 40
0.259877
 50
146.677312
 51
232.39419599999999
  0
LINE
  5
237
  8
_________1
 62
     7
 10
116.14100000000001
 20
176.59700000000001
 30
0.0
 11
114.411
 21
177.83099999999999
 31
0.0
  0
ARC
  5
238
  8
_________1
 62
     7
 10
116.283868
 20
176.814378
 30
0.0
 40
0.259877
 50
236.677359
 51
322.39416899999998
  0
LINE
  5
239
  8
_________1
 62
     7
 10
119.248
 20
180.523
 30
0.0
 11
115.381
 21
183.28100000000001
 31
0.0
  0
INSERT
  5
23A
  8
_________1
 62
     7
  2
AIGNBL02010012
 10
0.0
 20
0.0
 30
0.0
  0
LINE
  5
23B
  8
_________1
  6
AIGENLINE001
 62
     7
 10
141.161
 20
202.952
 30
0.0
 11
141.161
 21
182.13800000000001
 31
0.0
  0
LINE
  5
23C
  8
_________1
  6
AIGENLINE001
 62
     7
 10
141.161
 20
162.99600000000001
 30
0.0
 11
141.161
 21
52.285200000000003
 31
0.0
  0
LINE
  5
23D
  8
_________1
  6
AIGENLINE001
 62
     7
 10
141.161
 20
176.85400000000001
 30
0.0
 11
141.161
 21
168.071
 31
0.0
  0
INSERT
  5
23E
  8
_________1
 62
     7
  2
AIGNBL02010013
 10
0.0
 20
0.0
 30
0.0
  0
LINE
  5
23F
  8
_________1
 62
     7
 10
71.869299999999996
 20
169.5809999999999
 30
0.0
 11
80.648099999999985
 21
169.5809999999999
 31
0.0
  0
LINE
  5
240
  8
_________1
 62
     7
 10
71.169200000000004
 20
201.33099999999999
 30
0.0
 11
80.648099999999985
 21
201.33099999999999
 31
0.0
  0
LINE
  5
241
  8
_________1
 62
     7
 10
136.81
 20
191.952
 30
0.0
 11
136.81
 21
191.458
 31
0.0
  0
LINE
  5
242
  8
_________1
 62
     7
 10
145.511
 20
191.952
 30
0.0
 11
145.511
 21
191.458
 31
0.0
  0
LINE
  5
243
  8
_________1
 62
     7
 10
136.16
 20
183.44900000000001
 30
0.0
 11
136.16
 21
170.08099999999999
 31
0.0
  0
LINE
  5
244
  8
_________1
 62
     7
 10
136.16
 20
170.08099999999999
 30
0.0
 11
146.16
 21
170.08099999999999
 31
0.0
  0
LINE
  5
245
  8
_________1
 62
     7
 10
146.16
 20
170.08099999999999
 30
0.0
 11
146.16
 21
191.458
 31
0.0
  0
LINE
  5
246
  8
_________1
 62
     7
 10
146.16
 20
191.458
 30
0.0
 11
136.16
 21
191.458
 31
0.0
  0
LINE
  5
247
  8
_________1
 62
     7
 10
136.16
 20
191.458
 30
0.0
 11
136.16
 21
188.19800000000001
 31
0.0
  0
LINE
  5
248
  8
_________1
  6
AIGENLINE001
 62
     7
 10
65.4696
 20
208.33199999999999
 30
0.0
 11
65.4696
 21
52.474600000000002
 31
0.0
  0
LINE
  5
249
  8
_________1
 62
     7
 10
61.118400000000001
 20
191.952
 30
0.0
 11
61.118400000000001
 21
191.458
 31
0.0
  0
LINE
  5
24A
  8
_________1
 62
     7
 10
69.819400000000002
 20
191.952
 30
0.0
 11
69.819400000000002
 21
191.458
 31
0.0
  0
LINE
  5
24B
  8
_________1
 62
     7
 10
60.468699999999998
 20
170.08099999999999
 30
0.0
 11
70.469200000000001
 21
170.08099999999999
 31
0.0
  0
LINE
  5
24C
  8
_________1
 62
     7
 10
70.469200000000001
 20
170.08099999999999
 30
0.0
 11
70.469200000000001
 21
191.458
 31
0.0
  0
LINE
  5
24D
  8
_________1
 62
     7
 10
70.469200000000001
 20
191.458
 30
0.0
 11
60.468699999999998
 21
191.458
 31
0.0
  0
LINE
  5
24E
  8
_________1
 62
     7
 10
60.468699999999998
 20
191.458
 30
0.0
 11
60.468699999999998
 21
170.08099999999999
 31
0.0
  0
LINE
  5
24F
  8
_________1
 62
     7
 10
79.813000000000002
 20
242.58000000000001
 30
0.0
 11
77.554100000000005
 21
242.58000000000001
 31
0.0
  0
ARC
  5
250
  8
_________1
 62
     7
 10
66.299931000000001
 20
215.87120200000001
 30
0.0
 40
1.5447690000000001
 50
323.64811800000001
 51
359.84095000000008
  0
ARC
  5
251
  8
_________1
 62
     7
 10
65.917209999999983
 20
216.116387
 30
0.0
 40
1.9985580000000001
 50
302.87582600000002
 51
324.490567
  0
ARC
  5
252
  8
_________1
 62
     7
 10
65.549951000000007
 20
216.63500099999999
 30
0.0
 40
2.6336080000000002
 50
274.187613
 51
303.46168299999999
  0
ARC
  5
253
  8
_________1
 62
     7
 10
65.470968999999997
 20
217.016526
 30
0.0
 40
3.0203109999999991
 50
269.97461900000002
 51
275.15344700000003
  0
ARC
  5
254
  8
_________1
 62
     7
 10
65.471454000000008
 20
216.93135699999999
 30
0.0
 40
2.935141999999999
 50
244.100784
 51
269.96441399999998
  0
ARC
  5
255
  8
_________1
 62
     7
 10
65.220337999999984
 20
216.33704800000001
 30
0.0
 40
2.2910870000000001
 50
218.94190499999999
 51
243.25815399999999
  0
ARC
  5
256
  8
_________1
 62
     7
 10
64.749202999999994
 20
215.90756400000001
 30
0.0
 40
1.6551359999999999
 50
181.407353
 51
217.62903399999999
  0
ARC
  5
257
  8
_________1
 62
     7
 10
66.298726000000002
 20
218.67519100000001
 30
0.0
 40
1.545974
 50
323.66277700000001
 51
359.84078299999999
  0
ARC
  5
258
  8
_________1
 62
     7
 10
65.91820899999999
 20
218.91879499999999
 30
0.0
 40
1.9970549999999989
 50
302.86954300000002
 51
324.50161100000003
  0
ARC
  5
259
  8
_________1
 62
     7
 10
65.550336000000001
 20
219.43794600000001
 30
0.0
 40
2.632890999999999
 50
274.18034
 51
303.46193799999998
  0
ARC
  5
25A
  8
_________1
 62
     7
 10
65.470968999999997
 20
219.82016300000001
 30
0.0
 40
3.0203109999999991
 50
269.97461900000002
 51
275.15344700000003
  0
ARC
  5
25B
  8
_________1
 62
     7
 10
65.471456000000003
 20
219.735579
 30
0.0
 40
2.9357279999999988
 50
244.1063
 51
269.96438899999998
  0
ARC
  5
25C
  8
_________1
 62
     7
 10
65.220337999999984
 20
219.14062000000001
 30
0.0
 40
2.2910870000000001
 50
218.94190499999999
 51
243.25815399999999
  0
ARC
  5
25D
  8
_________1
 62
     7
 10
64.750070999999991
 20
218.71142599999999
 30
0.0
 40
1.655999999999999
 50
181.40251000000001
 51
217.618662
  0
LINE
  5
25E
  8
_________1
 62
     7
 10
67.844700000000003
 20
215.86699999999999
 30
0.0
 11
67.844700000000003
 21
238.179
 31
0.0
  0
LINE
  5
25F
  8
_________1
 62
     7
 10
63.0946
 20
215.86699999999999
 30
0.0
 11
63.0946
 21
238.179
 31
0.0
  0
LINE
  5
260
  8
_________1
  6
AIGENLINE002
 62
     7
 10
70.386200000000002
 20
241.672
 30
0.0
 11
76.614199999999997
 21
241.672
 31
0.0
  0
LINE
  5
261
  8
_________1
  6
AIGENLINE002
 62
     7
 10
70.386200000000002
 20
243.488
 30
0.0
 11
76.614199999999997
 21
243.488
 31
0.0
  0
LINE
  5
262
  8
_________1
  6
AIGENLINE002
 62
     7
 10
76.614199999999997
 20
241.672
 30
0.0
 11
76.614199999999997
 21
243.488
 31
0.0
  0
LINE
  5
263
  8
_________1
  6
AIGENLINE001
 62
     7
 10
65.4696
 20
249.303
 30
0.0
 11
65.4696
 21
211.85300000000001
 31
0.0
  0
INSERT
  5
264
  8
_________1
 62
     7
  2
AIGNBL02010014
 10
0.0
 20
0.0
 30
0.0
  0
ARC
  5
265
  8
_________1
 62
     7
 10
65.469630000000009
 20
242.57966500000001
 30
0.0
 40
5.0002440000000004
 50
270.00002000000001
 51
359.99999000000003
  0
ARC
  5
266
  8
_________1
 62
     7
 10
65.469802000000001
 20
242.57949099999999
 30
0.0
 40
5.00007
 50
179.997996
 51
269.99804599999999
  0
ARC
  5
267
  8
_________1
 62
     7
 10
65.469804000000011
 20
242.579835
 30
0.0
 40
5.0000720000000003
 50
90.001974000000004
 51
180.00198399999999
  0
ARC
  5
268
  8
_________1
 62
     7
 10
65.469630000000009
 20
242.57966300000001
 30
0.0
 40
5.0002440000000004
 50
0.00001
 51
89.999980000000008
  0
LINE
  5
269
  8
_________1
  6
AIGENLINE001
 62
     7
 10
57.532800000000002
 20
242.58000000000001
 30
0.0
 11
77.050700000000006
 21
242.58000000000001
 31
0.0
  0
ARC
  5
26A
  8
_________1
 62
     7
 10
131.81657300000001
 20
203.55385999999999
 30
0.0
 40
4.5254810000000001
 50
232.928225
 51
269.89298300000002
  0
ARC
  5
26B
  8
_________1
 62
     7
 10
131.76719199999999
 20
203.54176200000001
 30
0.0
 40
2.5131450000000002
 50
232.92050399999999
 51
269.89631700000001
  0
LINE
  5
26C
  8
_________1
 62
     7
 10
96.968299999999999
 20
207.083
 30
0.0
 11
122.011
 21
207.083
 31
0.0
  0
INSERT
  5
26D
  8
_________1
 62
     7
  2
AIGNBL02010016
 10
0.0
 20
0.0
 30
0.0
  0
LINE
  5
26E
  8
_________1
 62
     7
 10
121.661
 20
206.727
 30
0.0
 11
121.661
 21
213.84800000000001
 31
0.0
  0
LINE
  5
26F
  8
_________1
 62
     7
 10
141.161
 20
203.852
 30
0.0
 11
141.161
 21
220.21100000000001
 31
0.0
  0
LINE
  5
270
  8
_________1
 62
     7
 10
121.747
 20
205.53700000000001
 30
0.0
 11
129.089
 21
199.94300000000001
 31
0.0
  0
LINE
  5
271
  8
_________1
 62
     7
 10
130.25200000000001
 20
201.53700000000001
 30
0.0
 11
122.943
 21
207.083
 31
0.0
  0
LINE
  5
273
  8
_________1
 62
     7
 10
131.80799999999999
 20
199.029
 30
0.0
 11
136.191
 21
199.029
 31
0.0
  0
LINE
  5
274
  8
_________1
 62
     7
 10
136.191
 20
201.029
 30
0.0
 11
131.76300000000001
 21
201.029
 31
0.0
  0
LINE
  5
275
  8
_________1
 62
     7
 10
122.943
 20
207.083
 30
0.0
 11
122.634
 21
207.06399999999999
 31
0.0
  0
LINE
  5
276
  8
_________1
 62
     7
 10
122.634
 20
207.06399999999999
 30
0.0
 11
121.661
 21
205.79400000000001
 31
0.0
  0
LINE
  5
277
  8
_________1
 62
     7
 10
121.661
 20
205.79400000000001
 30
0.0
 11
121.747
 21
205.53700000000001
 31
0.0
  0
LINE
  5
278
  8
_________1
 62
     7
 10
121.747
 20
205.53700000000001
 30
0.0
 11
122.943
 21
207.083
 31
0.0
  0
LINE
  5
279
  8
_________1
 62
     7
 10
146.191
 20
191.952
 30
0.0
 11
136.191
 21
191.952
 31
0.0
  0
LINE
  5
27A
  8
_________1
 62
     7
 10
136.191
 20
191.952
 30
0.0
 11
136.191
 21
199.029
 31
0.0
  0
ARC
  5
27B
  8
_________1
 62
     7
 10
134.98390800000001
 20
200.03403900000001
 30
0.0
 40
1.5711589999999991
 50
320.21928700000001
 51
4.7661790000000002
  0
ARC
  5
27C
  8
_________1
 62
     7
 10
134.99113799999989
 20
200.02462399999999
 30
0.0
 40
1.5647690000000001
 50
5.1317180000000002
 51
39.913212000000001
  0
LINE
  5
27D
  8
_________1
 62
     7
 10
136.191
 20
201.029
 30
0.0
 11
136.191
 21
201.089
 31
0.0
  0
ARC
  5
27E
  8
_________1
 62
     7
 10
136.41349600000001
 20
201.11922799999999
 30
0.0
 40
0.224213
 50
172.22890100000001
 51
187.77109899999999
  0
ARC
  5
27F
  8
_________1
 62
     7
 10
136.40646100000001
 20
201.117481
 30
0.0
 40
0.217496
 50
127.168611
 51
171.52235899999999
  0
ARC
  5
280
  8
_________1
 62
     7
 10
136.405562
 20
201.11151000000001
 30
0.0
 40
0.221753
 50
82.663648999999992
 51
126.05126799999999
  0
LINE
  5
281
  8
_________1
 62
     7
 10
136.434
 20
201.33099999999999
 30
0.0
 11
145.94900000000001
 21
201.33099999999999
 31
0.0
  0
LINE
  5
282
  8
_________1
 62
     7
 10
145.94900000000001
 20
201.33099999999999
 30
0.0
 11
146.00999999999999
 21
201.33099999999999
 31
0.0
  0
ARC
  5
283
  8
_________1
 62
     7
 10
145.97656900000001
 20
201.11472699999999
 30
0.0
 40
0.21922
 50
37.352229999999999
 51
81.338759999999979
  0
ARC
  5
284
  8
_________1
 62
     7
 10
145.978497
 20
201.11946800000001
 30
0.0
 40
0.214827
 50
351.82252
 51
36.659008999999998
  0
LINE
  5
285
  8
_________1
 62
     7
 10
146.191
 20
201.089
 30
0.0
 11
146.191
 21
191.952
 31
0.0
  0
LINE
  5
286
  8
_________1
 62
     7
 10
138.93600000000001
 20
218.91800000000001
 30
0.0
 11
141.14599999999999
 21
219.511
 31
0.0
  0
LINE
  5
287
  8
_________1
 62
     7
 10
141.14599999999999
 20
219.511
 30
0.0
 11
138.93600000000001
 21
220.10300000000001
 31
0.0
  0
LINE
  5
288
  8
_________1
 62
     7
 10
138.93600000000001
 20
220.10300000000001
 30
0.0
 11
138.93600000000001
 21
218.91800000000001
 31
0.0
  0
LINE
  5
289
  8
_________1
 62
     7
 10
116.636
 20
220.08799999999999
 30
0.0
 11
114.425
 21
219.49600000000001
 31
0.0
  0
LINE
  5
28A
  8
_________1
 62
     7
 10
114.425
 20
219.49600000000001
 30
0.0
 11
116.636
 21
218.904
 31
0.0
  0
LINE
  5
28B
  8
_________1
 62
     7
 10
116.636
 20
218.904
 30
0.0
 11
116.636
 21
220.08799999999999
 31
0.0
  0
LINE
  5
28C
  8
_________1
 62
     7
 10
141.14699999999999
 20
219.49600000000001
 30
0.0
 11
114.42400000000001
 21
219.49600000000001
 31
0.0
  0
LINE
  5
28D
  8
_________1
 62
     7
 10
114.411
 20
179.3179999999999
 30
0.0
 11
114.411
 21
220.196
 31
0.0
  0
LINE
  5
28E
  8
_________1
 62
     7
 10
96.870800000000017
 20
169.5809999999999
 30
0.0
 11
135.18799999999999
 21
169.5809999999999
 31
0.0
  0
INSERT
  5
28F
  8
_________1
 62
     7
  2
AIGNBL02010017
 10
0.0
 20
0.0
 30
0.0
  0
LINE
  5
290
  8
_________2
 62
     7
 10
205.30000000000001
 20
127.411
 30
0.0
 11
183.55000000000001
 21
127.411
 31
0.0
  0
LINE
  5
291
  8
_________2
 62
     7
 10
100.3
 20
-4.0910799999999998
 30
0.0
 11
100.3
 21
-21.071400000000001
 31
0.0
  0
LINE
  5
292
  8
_________2
 62
     7
 10
100.3
 20
275.93099999999998
 30
0.0
 11
100.3
 21
258.911
 31
0.0
  0
LINE
  5
293
  8
_________2
 62
     7
 10
17.049499999999998
 20
127.411
 30
0.0
 11
-4.7008599999999987
 21
127.411
 31
0.0
  0
LINE
  5
294
  8
_________2
 62
     7
 10
76.741
 20
29.8047
 30
0.0
 11
74.554699999999997
 21
29.8047
 31
0.0
  0
LINE
  5
295
  8
_________2
 62
     7
 10
77.233699999999999
 20
29.8047
 30
0.0
 11
76.981499999999997
 21
29.8047
 31
0.0
  0
LINE
  5
296
  8
_________2
 62
     7
 10
77.726299999999995
 20
29.8047
 30
0.0
 11
80.651200000000003
 21
29.8047
 31
0.0
  0
LINE
  5
297
  8
_________2
 62
     7
 10
77.233699999999999
 20
29.8047
 30
0.0
 11
77.485200000000006
 21
29.8047
 31
0.0
  0
LINE
  5
298
  8
_________2
 62
     7
 10
70.836799999999997
 20
29.8047
 30
0.0
 11
68.650499999999994
 21
29.8047
 31
0.0
  0
LINE
  5
299
  8
_________2
 62
     7
 10
71.329400000000007
 20
29.8047
 30
0.0
 11
71.077200000000005
 21
29.8047
 31
0.0
  0
LINE
  5
29A
  8
_________2
 62
     7
 10
71.329400000000007
 20
30.2974
 30
0.0
 11
71.329400000000007
 21
32.484400000000001
 31
0.0
  0
LINE
  5
29B
  8
_________2
 62
     7
 10
71.329400000000007
 20
29.8047
 30
0.0
 11
71.329400000000007
 21
30.056899999999999
 31
0.0
  0
LINE
  5
29C
  8
_________2
 62
     7
 10
71.822100000000006
 20
29.8047
 30
0.0
 11
74.009
 21
29.8047
 31
0.0
  0
LINE
  5
29D
  8
_________2
 62
     7
 10
71.329400000000007
 20
29.8047
 30
0.0
 11
71.581599999999995
 21
29.8047
 31
0.0
  0
LINE
  5
29E
  8
_________2
 62
     7
 10
71.329400000000007
 20
29.312799999999999
 30
0.0
 11
71.329400000000007
 21
27.125800000000002
 31
0.0
  0
LINE
  5
29F
  8
_________2
 62
     7
 10
71.329400000000007
 20
29.8047
 30
0.0
 11
71.329400000000007
 21
29.5532
 31
0.0
  0
LINE
  5
2A0
  8
_________2
 62
     7
 10
75.040499999999994
 20
28.5852
 30
0.0
 11
80.218500000000006
 21
27.720400000000001
 31
0.0
  0
LINE
  5
2A1
  8
_________2
 62
     7
 10
75.040499999999994
 20
31.0243
 30
0.0
 11
80.218500000000006
 21
31.889700000000001
 31
0.0
  0
LINE
  5
2A2
  8
_________2
 62
     7
 10
80.218500000000006
 20
27.720400000000001
 30
0.0
 11
80.218500000000006
 21
31.889700000000001
 31
0.0
  0
LINE
  5
2A3
  8
_________2
 62
     7
 10
75.040499999999994
 20
28.5852
 30
0.0
 11
75.040499999999994
 21
31.0243
 31
0.0
  0
ARC
  5
2A4
  8
_________2
 62
     7
 10
71.282522999999983
 20
29.757836000000001
 30
0.0
 40
1.267347
 50
2.1211329999999999
 51
87.878856999999996
  0
ARC
  5
2A5
  8
_________2
 62
     7
 10
71.375959999999992
 20
29.758213000000001
 30
0.0
 40
1.2669559999999991
 50
92.104701000000006
 51
177.89526900000001
  0
ARC
  5
2A6
  8
_________2
 62
     7
 10
71.376357999999996
 20
29.851671
 30
0.0
 40
1.2673680000000001
 50
182.12203600000001
 51
267.877993
  0
ARC
  5
2A7
  8
_________2
 62
     7
 10
71.282522999999983
 20
29.851649999999999
 30
0.0
 40
1.267347
 50
272.12114300000002
 51
357.87886700000001
  0
ARC
  5
2A8
  8
_________2
 62
     7
 10
71.329430000000002
 20
29.804742999999998
 30
0.0
 40
2.0849849999999992
 50
0.00001
 51
89.999980000000008
  0
ARC
  5
2A9
  8
_________2
 62
     7
 10
71.329431
 20
29.804742999999998
 30
0.0
 40
2.0849849999999992
 50
90.0
 51
179.99996999999999
  0
ARC
  5
2AA
  8
_________2
 62
     7
 10
71.408771999999999
 20
29.884799999999998
 30
0.0
 40
2.165807
 50
182.1183979999999
 51
267.90056900000002
  0
ARC
  5
2AB
  8
_________2
 62
     7
 10
71.249459000000002
 20
29.885429999999999
 30
0.0
 40
2.1664590000000001
 50
272.11546800000002
 51
357.86560400000002
  0
TEXT
  5
2AC
  8
_________2
 62
     7
 10
104.604
 20
1.6794899999999999
 30
0.0
 40
3.0923400000000001
  1
図番
 41
0.5
  0
LINE
  5
2AD
  8
_________2
 62
     7
 10
103.55
 20
5.9087199999999989
 30
0.0
 11
183.55099999999999
 21
5.9087199999999989
 31
0.0
  0
TEXT
  5
2AE
  8
_________2
 62
     7
 10
104.604
 20
11.6793
 30
0.0
 40
3.0923400000000001
  1
品番
 41
0.5
  0
TEXT
  5
2AF
  8
_________2
 62
     7
 10
104.604
 20
31.818100000000001
 30
0.0
 40
3.0923400000000001
  1
名称
 41
0.5
  0
TEXT
  5
2B0
  8
_________2
 62
     7
 10
91.845058333333341
 20
26.821999999999999
 30
0.0
 40
3.6545800000000002
  1
mm
 41
0.5
 72
     1
 11
93.367800000000003
 21
26.821999999999999
 31
0.0
  0
TEXT
  5
2B1
  8
_________2
 62
     7
 10
85.643199999999993
 20
31.818100000000001
 30
0.0
 40
3.0923400000000001
  1
単位
 41
0.5
  0
TEXT
  5
2B2
  8
_________2
 62
     7
 10
85.643199999999993
 20
19.410799999999998
 30
0.0
 40
3.0923400000000001
  1
尺度
 41
0.5
  0
TEXT
  5
2B3
  8
_________2
 62
     7
 10
90.548758666666686
 20
13.2179
 30
0.0
 40
3.6545800000000002
  1
1 ： 4
 41
0.5
 72
     1
 11
93.959699999999998
 21
13.2179
 31
0.0
  0
TEXT
  5
2B4
  8
_________2
 62
     7
 10
135.02164999999999
 20
9.1078600000000005
 30
0.0
 40
3.9357000000000002
  1
VLRB1CDMS
 41
0.5
 72
     1
 11
143.54900000000001
 21
9.1078600000000005
 31
0.0
  0
TEXT
  5
2B5
  8
_________2
 62
     7
 10
135.02164999999999
 20
-0.8926299999999999
 30
0.0
 40
3.9357000000000002
  1
VLRB1CDMS
 41
0.5
 72
     1
 11
143.54900000000001
 21
-0.8926299999999999
 31
0.0
  0
TEXT
  5
2B6
  8
_________2
 62
     7
 10
24.5868
 20
0.707283
 30
0.0
 40
3.9357000000000002
  1
（社）日本水道協会認証品
 41
0.5
  0
TEXT
  5
2B7
  8
_________2
 62
     7
 10
109.178
 20
24.2257
 30
0.0
 40
3.9357000000000002
  1
ボラ　立水栓
 41
0.5
  0
TEXT
  5
2B8
  8
_________2
 62
     7
 10
39.364390666666672
 20
13.603
 30
0.0
 40
3.6545800000000002
  1
井伊
 41
0.5
 72
     1
 11
41.313499999999998
 21
13.603
 31
0.0
  0
TEXT
  5
2B9
  8
_________2
 62
     7
 10
20.85060033333334
 20
13.603
 30
0.0
 40
3.6545800000000002
  1
福田
 41
0.5
 72
     1
 11
22.738800000000001
 21
13.603
 31
0.0
  0
TEXT
  5
2BA
  8
_________2
 62
     7
 10
67.7851
 20
13.2179
 30
0.0
 40
3.6545800000000002
  1
21.04.14
 41
0.5
  0
TEXT
  5
2BB
  8
_________2
 62
     7
 10
66.593100000000007
 20
19.410799999999998
 30
0.0
 40
3.0923400000000001
  1
日付
 41
0.5
  0
TEXT
  5
2BC
  8
_________2
 62
     7
 10
29.639399999999998
 20
19.410799999999998
 30
0.0
 40
3.0923400000000001
  1
検図
 41
0.5
  0
TEXT
  5
2BD
  8
_________2
 62
     7
 10
18.021100000000001
 20
5.21143
 30
0.0
 40
3.0923400000000001
  1
備考
 41
0.5
  0
TEXT
  5
2BE
  8
_________2
 62
     7
 10
18.021100000000001
 20
19.410799999999998
 30
0.0
 40
3.0923400000000001
  1
製図
 41
0.5
  0
TEXT
  5
2BF
  8
_________2
 62
     7
 10
23.788465333333338
 20
27.936800000000002
 30
0.0
 40
4.4979399999999989
  1
セラトレーディング株式会社
 41
0.5
 72
     1
 11
41.180500000000002
 21
27.936800000000002
 31
0.0
  0
LINE
  5
2C0
  8
_________2
 62
     7
 10
183.55099999999999
 20
-4.0910799999999998
 30
0.0
 11
17.049499999999998
 21
-4.0910799999999998
 31
0.0
  0
LINE
  5
2C1
  8
_________2
 62
     7
 10
17.049499999999998
 20
-4.0910799999999998
 30
0.0
 11
17.049499999999998
 21
258.911
 31
0.0
  0
LINE
  5
2C2
  8
_________2
 62
     7
 10
17.049499999999998
 20
258.911
 30
0.0
 11
183.55099999999999
 21
258.911
 31
0.0
  0
LINE
  5
2C3
  8
_________2
 62
     7
 10
183.55099999999999
 20
258.911
 30
0.0
 11
183.55099999999999
 21
-4.0910799999999998
 31
0.0
  0
LINE
  5
2C4
  8
_________2
 62
     7
 10
65.549199999999999
 20
9.4089600000000004
 30
0.0
 11
65.549199999999999
 21
35.908799999999999
 31
0.0
  0
LINE
  5
2C5
  8
_________2
 62
     7
 10
84.549700000000016
 20
9.4089600000000004
 30
0.0
 11
84.549700000000016
 21
35.908799999999999
 31
0.0
  0
LINE
  5
2C6
  8
_________2
 62
     7
 10
103.55
 20
-4.0910799999999998
 30
0.0
 11
103.55
 21
35.908799999999999
 31
0.0
  0
LINE
  5
2C7
  8
_________2
 62
     7
 10
28.549299999999999
 20
9.4089600000000004
 30
0.0
 11
28.549299999999999
 21
23.409199999999998
 31
0.0
  0
LINE
  5
2C8
  8
_________2
 62
     7
 10
17.049499999999998
 20
9.4089600000000004
 30
0.0
 11
103.55
 21
9.4089600000000004
 31
0.0
  0
LINE
  5
2C9
  8
_________2
 62
     7
 10
17.049499999999998
 20
23.409199999999998
 30
0.0
 11
103.55
 21
23.409199999999998
 31
0.0
  0
LINE
  5
2CA
  8
_________2
 62
     7
 10
103.55
 20
15.9085
 30
0.0
 11
183.55099999999999
 21
15.9085
 31
0.0
  0
LINE
  5
2CB
  8
_________2
 62
     7
 10
17.049499999999998
 20
35.908799999999999
 30
0.0
 11
183.55099999999999
 21
35.908799999999999
 31
0.0
  0
TEXT
  5
2CC
  8
_________2
 62
     7
 10
141.05481
 20
39.0687
 30
0.0
 40
3.9357000000000002
  1
注：色番号はカタログを参照ください
 41
0.5
 72
     2
 11
180.54300000000001
 21
39.0687
 31
0.0
  0
ENDSEC
  0
EOF
