  0
SECTION
  2
HEADER
  9
$ACADVER
  1
AC1009
  9
$INSBASE
 10
0.0
 20
0.0
 30
0.0
  9
$EXTMIN
 10
-4.7008599999999987
 20
-21.071400000000001
 30
0.0
  9
$EXTMAX
 10
205.2999999999999
 20
275.93099999999993
 30
0.0
  9
$LIMMIN
 10
0.0
 20
0.0
  9
$LIMMAX
 10
12.0
 20
9.0
  9
$ORTHOMODE
 70
     0
  9
$REGENMODE
 70
     1
  9
$FILLMODE
 70
     1
  9
$QTEXTMODE
 70
     0
  9
$MIRRTEXT
 70
     1
  9
$DRAGMODE
 70
     2
  9
$LTSCALE
 40
1.0
  9
$OSMODE
 70
    37
  9
$ATTMODE
 70
     1
  9
$TEXTSIZE
 40
0.0
  9
$TRACEWID
 40
0.05
  9
$TEXTSTYLE
  7
STANDARD
  9
$CLAYER
  8
0
  9
$CELTYPE
  6
CONTINUOUS
  9
$CECOLOR
 62
   256
  9
$DIMSCALE
 40
1.0
  9
$DIMASZ
 40
0.18
  9
$DIMEXO
 40
0.0625
  9
$DIMDLI
 40
0.38
  9
$DIMRND
 40
0.0
  9
$DIMDLE
 40
0.0
  9
$DIMEXE
 40
0.18
  9
$DIMTP
 40
0.0
  9
$DIMTM
 40
0.0
  9
$DIMTXT
 40
0.18
  9
$DIMCEN
 40
0.09
  9
$DIMTSZ
 40
0.0
  9
$DIMTOL
 70
     0
  9
$DIMLIM
 70
     0
  9
$DIMTIH
 70
     1
  9
$DIMTOH
 70
     1
  9
$DIMSE1
 70
     0
  9
$DIMSE2
 70
     0
  9
$DIMTAD
 70
     0
  9
$DIMZIN
 70
     0
  9
$DIMBLK
  1

  9
$DIMASO
 70
     1
  9
$DIMSHO
 70
     1
  9
$DIMPOST
  1

  9
$DIMAPOST
  1

  9
$DIMALT
 70
     0
  9
$DIMALTD
 70
     2
  9
$DIMALTF
 40
25.399999999999999
  9
$DIMLFAC
 40
1.0
  9
$DIMTOFL
 70
     0
  9
$DIMTVP
 40
0.0
  9
$DIMTIX
 70
     0
  9
$DIMSOXD
 70
     0
  9
$DIMSAH
 70
     0
  9
$DIMBLK1
  1

  9
$DIMBLK2
  1

  9
$DIMSTYLE
  2
STANDARD
  9
$DIMCLRD
 70
     0
  9
$DIMCLRE
 70
     0
  9
$DIMCLRT
 70
     0
  9
$DIMTFAC
 40
1.0
  9
$DIMGAP
 40
0.09
  9
$LUNITS
 70
     2
  9
$LUPREC
 70
     4
  9
$SKETCHINC
 40
0.1
  9
$FILLETRAD
 40
0.0
  9
$AUNITS
 70
     0
  9
$AUPREC
 70
     0
  9
$MENU
  1
.
  9
$ELEVATION
 40
0.0
  9
$PELEVATION
 40
0.0
  9
$THICKNESS
 40
0.0
  9
$LIMCHECK
 70
     0
  9
$BLIPMODE
 70
     0
  9
$CHAMFERA
 40
0.0
  9
$CHAMFERB
 40
0.0
  9
$SKPOLY
 70
     0
  9
$TDCREATE
 40
2444972.375
  9
$TDUPDATE
 40
2456676.250439757
  9
$TDINDWG
 40
0.0000059491
  9
$TDUSRTIMER
 40
0.0000059491
  9
$USRTIMER
 70
     1
  9
$ANGBASE
 50
0.0
  9
$ANGDIR
 70
     0
  9
$PDMODE
 70
     0
  9
$PDSIZE
 40
0.0
  9
$PLINEWID
 40
0.0
  9
$COORDS
 70
     1
  9
$SPLFRAME
 70
     0
  9
$SPLINETYPE
 70
     6
  9
$SPLINESEGS
 70
     8
  9
$ATTDIA
 70
     0
  9
$ATTREQ
 70
     1
  9
$HANDLING
 70
     1
  9
$HANDSEED
  5
1C2
  9
$SURFTAB1
 70
     6
  9
$SURFTAB2
 70
     6
  9
$SURFTYPE
 70
     6
  9
$SURFU
 70
     6
  9
$SURFV
 70
     6
  9
$UCSNAME
  2

  9
$UCSORG
 10
0.0
 20
0.0
 30
0.0
  9
$UCSXDIR
 10
1.0
 20
0.0
 30
0.0
  9
$UCSYDIR
 10
0.0
 20
1.0
 30
0.0
  9
$PUCSNAME
  2

  9
$PUCSORG
 10
0.0
 20
0.0
 30
0.0
  9
$PUCSXDIR
 10
1.0
 20
0.0
 30
0.0
  9
$PUCSYDIR
 10
0.0
 20
1.0
 30
0.0
  9
$USERI1
 70
     0
  9
$USERI2
 70
     0
  9
$USERI3
 70
     0
  9
$USERI4
 70
     0
  9
$USERI5
 70
     0
  9
$USERR1
 40
0.0
  9
$USERR2
 40
0.0
  9
$USERR3
 40
0.0
  9
$USERR4
 40
0.0
  9
$USERR5
 40
0.0
  9
$WORLDVIEW
 70
     1
  9
$SHADEDGE
 70
     3
  9
$SHADEDIF
 70
    70
  9
$TILEMODE
 70
     1
  9
$MAXACTVP
 70
    48
  9
$PLIMCHECK
 70
     0
  9
$PEXTMIN
 10
1.0000000000000000E+020
 20
1.0000000000000000E+020
 30
1.0000000000000000E+020
  9
$PEXTMAX
 10
-1.0000000000000000E+020
 20
-1.0000000000000000E+020
 30
-1.0000000000000000E+020
  9
$PLIMMIN
 10
0.0
 20
0.0
  9
$PLIMMAX
 10
12.0
 20
9.0
  9
$UNITMODE
 70
     0
  9
$VISRETAIN
 70
     1
  9
$PLINEGEN
 70
     0
  9
$PSLTSCALE
 70
     1
  0
ENDSEC
  0
SECTION
  2
TABLES
  0
TABLE
  2
VPORT
 70
     2
  0
VPORT
  2
*ACTIVE
 70
     0
 10
0.0
 20
0.0
 11
1.0
 21
1.0
 12
202.00611374696729
 22
127.4298
 13
0.0
 23
0.0
 14
1.0
 24
1.0
 15
0.0
 25
0.0
 16
0.0
 26
0.0
 36
1.0
 17
0.0
 27
0.0
 37
0.0
 40
299.45358899587342
 41
2.2894736842105261
 42
50.0
 43
0.0
 44
0.0
 50
0.0
 51
0.0
 71
     0
 72
   100
 73
     1
 74
     1
 75
     0
 76
     0
 77
     0
 78
     0
  0
ENDTAB
  0
TABLE
  2
LTYPE
 70
     3
  0
LTYPE
  2
CONTINUOUS
 70
     0
  3
Solid line
 72
    65
 73
     0
 40
0.0
  0
LTYPE
  2
AIGENLINE001
 70
     0
  3
generate AI->DXF Converter
 72
    65
 73
     4
 40
5.8561449999999988
 49
3.5278
 49
-0.776115
 49
0.776115
 49
-0.776115
  0
LTYPE
  2
AIGENLINE002
 70
     0
  3
generate AI->DXF Converter
 72
    65
 73
     6
 40
7.4083750000000004
 49
3.5278
 49
-0.776115
 49
0.776115
 49
-0.776115
 49
0.776115
 49
-0.776115
  0
ENDTAB
  0
TABLE
  2
LAYER
 70
     2
  0
LAYER
  2
0
 70
     0
 62
     7
  6
CONTINUOUS
  0
LAYER
  2
_________2
 70
     0
 62
     7
  6
CONTINUOUS
  0
ENDTAB
  0
TABLE
  2
STYLE
 70
     1
  0
STYLE
  2
STANDARD
 70
     0
 40
0.0
 41
0.0
 50
0.0
 71
     0
 42
0.0
  3
TXT
  4
EXTFONT.SHX
  0
ENDTAB
  0
TABLE
  2
VIEW
 70
     0
  0
ENDTAB
  0
TABLE
  2
UCS
 70
     0
  0
ENDTAB
  0
TABLE
  2
APPID
 70
     1
  0
APPID
  2
ACAD
 70
     0
  0
ENDTAB
  0
TABLE
  2
DIMSTYLE
 70
     1
  0
DIMSTYLE
  2
STANDARD
 70
     0
  3

  4

  5

  6

  7

 40
1.0
 41
0.18
 42
0.0625
 43
0.38
 44
0.18
 45
0.0
 46
0.0
 47
0.0
 48
0.0
140
0.18
141
0.09
142
0.0
143
25.399999999999999
144
1.0
145
0.0
146
1.0
147
0.09
 71
     0
 72
     0
 73
     1
 74
     1
 75
     0
 76
     0
 77
     0
 78
     0
170
     0
171
     2
172
     0
173
     0
174
     0
175
     0
176
     0
177
     0
178
     0
  0
ENDTAB
  0
ENDSEC
  0
SECTION
  2
BLOCKS
  0
BLOCK
  8
0
  2
$MODEL_SPACE
 70
     0
 10
0.0
 20
0.0
 30
0.0
  3
$MODEL_SPACE
  1

  0
ENDBLK
  5
1A
  8
0
  0
BLOCK
 67
     1
  8
0
  2
$PAPER_SPACE
 70
     0
 10
0.0
 20
0.0
 30
0.0
  3
$PAPER_SPACE
  1

  0
ENDBLK
  5
17
 67
     1
  8
0
  0
ENDSEC
  0
SECTION
  2
ENTITIES
  0
TEXT
  5
23
  8
0
 62
     7
 10
145.188242
 20
211.13900000000001
 30
0.0
 40
3.0923400000000001
  1
水栓金具取付穴
 41
0.5
 72
     1
 11
151.476
 21
211.13900000000001
 31
0.0
  0
TEXT
  5
24
  8
0
 62
     7
 10
163.02313599999999
 20
218.67599999999999
 30
0.0
 40
3.0923400000000001
  1
%%c25～28
 41
0.5
 72
     2
 11
172.09399999999999
 21
218.67599999999999
 31
0.0
  0
TEXT
  5
25
  8
0
 62
     7
 10
47.862998999999988
 20
61.65659999999999
 30
0.0
 40
3.0923400000000001
  1
G 1/2
 41
0.5
 72
     1
 11
50.90379999999999
 21
61.65659999999999
 31
0.0
  0
TEXT
  5
26
  8
0
 62
     7
 10
92.915334999999985
 20
99.307199999999995
 30
0.0
 40
3.0923400000000001
  1
35%%d
 41
0.5
 72
     1
 11
94.719200000000001
 21
99.307199999999995
 31
0.0
  0
TEXT
  5
27
  8
0
 62
     7
 10
80.102400000000003
 20
225.26299999999989
 30
0.0
 40
3.0923400000000001
  1
開
 41
0.5
  0
TEXT
  5
28
  8
0
 62
     7
 10
43.520186000000002
 20
197.82599999999991
 30
0.0
 40
3.0923400000000001
  1
閉
 41
0.5
 72
     2
 11
44.860199999999992
 21
197.82599999999991
 31
0.0
  0
TEXT
  5
29
  8
0
 62
     7
 10
122.5109825
 20
104.377
 30
0.0
 40
3.0923400000000001
  1
107
 41
0.5
 72
     1
 11
124.18600000000001
 21
104.377
 31
0.0
  0
TEXT
  5
2A
  8
0
 62
     7
 10
160.64826999999991
 20
89.178200000000004
 30
0.0
 40
3.0923400000000001
  1
%%c21
 41
0.5
 72
     2
 11
164.25599999999989
 21
89.178200000000004
 31
0.0
  0
TEXT
  5
2B
  8
0
 62
     7
 10
148.92028749999989
 20
113.04000000000001
 30
0.0
 40
3.0923400000000001
  1
%%c40
 41
0.5
 72
     1
 11
150.85299999999989
 21
113.04000000000001
 31
0.0
  0
TEXT
  5
2C
  8
0
 62
     7
 10
110.036
 20
104.7353725
 30
0.0
 40
3.0923400000000001
  1
30
 50
90.0
 41
0.5
 72
     1
 11
110.036
 21
105.895
 31
0.0
  0
TEXT
  5
2D
  8
0
 62
     7
 10
86.114199999999997
 20
103.36552500000001
 30
0.0
 40
3.0923400000000001
  1
35
 50
90.0
 41
0.5
 72
     1
 11
86.114199999999997
 21
104.654
 31
0.0
  0
TEXT
  5
2E
  8
0
 62
     7
 10
31.6432
 20
86.927222499999999
 30
0.0
 40
3.0923400000000001
  1
max.20
 50
90.0
 41
0.5
 72
     1
 11
31.6432
 21
90.663799999999995
 31
0.0
  0
TEXT
  5
2F
  8
0
 62
     7
 10
71.638599999999997
 20
123.5909825
 30
0.0
 40
3.0923400000000001
  1
120
 50
90.0
 41
0.5
 72
     1
 11
71.638599999999997
 21
125.26600000000001
 31
0.0
  0
TEXT
  5
30
  8
0
 62
     7
 10
71.851699999999994
 20
80.240925000000004
 30
0.0
 40
3.0923400000000001
  1
55
 50
90.0
 41
0.5
 72
     1
 11
71.851699999999994
 21
81.529399999999995
 31
0.0
  0
LINE
  5
31
  8
0
 62
     7
 10
47.740400000000001
 20
61.32139999999999
 30
0.0
 11
45.52859999999999
 21
60.7288
 31
0.0
  0
LINE
  5
32
  8
0
 62
     7
 10
45.52859999999999
 20
60.7288
 30
0.0
 11
47.740400000000001
 21
60.136200000000002
 31
0.0
  0
LINE
  5
33
  8
0
 62
     7
 10
47.740400000000001
 20
60.136200000000002
 30
0.0
 11
47.740400000000001
 21
61.32139999999999
 31
0.0
  0
LINE
  5
34
  8
0
 62
     7
 10
53.942300000000003
 20
60.150700000000001
 30
0.0
 11
56.154000000000003
 21
60.743299999999991
 31
0.0
  0
LINE
  5
35
  8
0
 62
     7
 10
56.154000000000003
 20
60.743299999999991
 30
0.0
 11
53.942300000000003
 21
61.335799999999999
 31
0.0
  0
LINE
  5
36
  8
0
 62
     7
 10
53.942300000000003
 20
61.335799999999999
 30
0.0
 11
53.942300000000003
 21
60.150700000000001
 31
0.0
  0
LINE
  5
37
  8
0
 62
     7
 10
45.528799999999997
 20
60.7288
 30
0.0
 11
56.1539
 21
60.7288
 31
0.0
  0
LINE
  5
38
  8
0
 62
     7
 10
161.6629999999999
 20
79.638400000000004
 30
0.0
 11
141.1629999999999
 21
79.638400000000004
 31
0.0
  0
LINE
  5
39
  8
0
 62
     7
 10
141.1629999999999
 20
79.638400000000004
 30
0.0
 11
141.1629999999999
 21
82.138800000000003
 31
0.0
  0
LINE
  5
3A
  8
0
 62
     7
 10
141.1629999999999
 20
82.138800000000003
 30
0.0
 11
161.6629999999999
 21
82.138800000000003
 31
0.0
  0
LINE
  5
3B
  8
0
 62
     7
 10
161.6629999999999
 20
82.138800000000003
 30
0.0
 11
161.6629999999999
 21
79.638400000000004
 31
0.0
  0
LINE
  5
3C
  8
0
 62
     7
 10
161.6629999999999
 20
84.638599999999997
 30
0.0
 11
141.1629999999999
 21
84.638599999999997
 31
0.0
  0
LINE
  5
3D
  8
0
 62
     7
 10
141.1629999999999
 20
84.638599999999997
 30
0.0
 11
141.1629999999999
 21
85.388999999999996
 31
0.0
  0
LINE
  5
3E
  8
0
 62
     7
 10
141.1629999999999
 20
85.388999999999996
 30
0.0
 11
161.6629999999999
 21
85.388999999999996
 31
0.0
  0
LINE
  5
3F
  8
0
 62
     7
 10
161.6629999999999
 20
85.388999999999996
 30
0.0
 11
161.6629999999999
 21
84.638599999999997
 31
0.0
  0
LINE
  5
40
  8
0
 62
     7
 10
141.9129999999999
 20
95.888999999999996
 30
0.0
 11
160.9129999999999
 21
95.888999999999996
 31
0.0
  0
LINE
  5
41
  8
0
 62
     7
 10
160.9129999999999
 20
95.385699999999986
 30
0.0
 11
157.91800000000001
 21
95.385699999999986
 31
0.0
  0
LINE
  5
42
  8
0
 62
     7
 10
157.91800000000001
 20
95.385699999999986
 30
0.0
 11
141.9129999999999
 21
95.385699999999986
 31
0.0
  0
LINE
  5
43
  8
0
 62
     7
 10
141.9129999999999
 20
95.385699999999986
 30
0.0
 11
141.9129999999999
 21
95.888999999999996
 31
0.0
  0
LINE
  5
44
  8
0
 62
     7
 10
141.9129999999999
 20
95.888999999999996
 30
0.0
 11
160.9129999999999
 21
95.888999999999996
 31
0.0
  0
LINE
  5
45
  8
0
 62
     7
 10
160.9129999999999
 20
95.888999999999996
 30
0.0
 11
160.9129999999999
 21
95.385699999999986
 31
0.0
  0
LINE
  5
46
  8
0
 62
     7
 10
156.226
 20
68.3887
 30
0.0
 11
156.726
 21
68.888900000000007
 31
0.0
  0
LINE
  5
47
  8
0
 62
     7
 10
146.60099999999991
 20
68.3887
 30
0.0
 11
146.10099999999991
 21
68.888900000000007
 31
0.0
  0
LINE
  5
48
  8
0
 62
     7
 10
156.226
 20
68.3887
 30
0.0
 11
146.60099999999991
 21
68.3887
 31
0.0
  0
LINE
  5
49
  8
0
 62
     7
 10
156.726
 20
68.888900000000007
 30
0.0
 11
146.10099999999991
 21
68.888900000000007
 31
0.0
  0
LINE
  5
4A
  8
0
 62
     7
 10
156.226
 20
68.3887
 30
0.0
 11
156.226
 21
79.638400000000004
 31
0.0
  0
LINE
  5
4B
  8
0
 62
     7
 10
156.726
 20
68.888900000000007
 30
0.0
 11
156.726
 21
79.638400000000004
 31
0.0
  0
LINE
  5
4C
  8
0
 62
     7
 10
146.60099999999991
 20
68.3887
 30
0.0
 11
146.60099999999991
 21
79.638400000000004
 31
0.0
  0
LINE
  5
4D
  8
0
 62
     7
 10
146.10099999999991
 20
68.888900000000007
 30
0.0
 11
146.10099999999991
 21
79.638400000000004
 31
0.0
  0
LINE
  5
4E
  8
0
 62
     7
 10
156.226
 20
82.138800000000003
 30
0.0
 11
156.226
 21
84.638599999999997
 31
0.0
  0
LINE
  5
4F
  8
0
 62
     7
 10
156.726
 20
82.138800000000003
 30
0.0
 11
156.726
 21
84.638599999999997
 31
0.0
  0
LINE
  5
50
  8
0
 62
     7
 10
146.60099999999991
 20
82.138800000000003
 30
0.0
 11
146.60099999999991
 21
84.638599999999997
 31
0.0
  0
LINE
  5
51
  8
0
 62
     7
 10
146.10099999999991
 20
82.138800000000003
 30
0.0
 11
146.10099999999991
 21
84.638599999999997
 31
0.0
  0
LINE
  5
52
  8
0
 62
     7
 10
156.226
 20
85.388999999999996
 30
0.0
 11
156.226
 21
95.389099999999985
 31
0.0
  0
LINE
  5
53
  8
0
 62
     7
 10
156.726
 20
85.388999999999996
 30
0.0
 11
156.726
 21
95.389099999999985
 31
0.0
  0
LINE
  5
54
  8
0
 62
     7
 10
146.60099999999991
 20
85.388999999999996
 30
0.0
 11
146.60099999999991
 21
95.389099999999985
 31
0.0
  0
LINE
  5
55
  8
0
 62
     7
 10
146.10099999999991
 20
85.388999999999996
 30
0.0
 11
146.10099999999991
 21
95.389099999999985
 31
0.0
  0
LINE
  5
56
  8
0
 62
     7
 10
152.6629999999999
 20
79.639099999999999
 30
0.0
 11
152.6629999999999
 21
77.138599999999997
 31
0.0
  0
LINE
  5
57
  8
0
 62
     7
 10
152.6629999999999
 20
84.638599999999997
 30
0.0
 11
152.6629999999999
 21
82.138800000000003
 31
0.0
  0
LINE
  5
58
  8
0
 62
     7
 10
150.1629999999999
 20
84.638599999999997
 30
0.0
 11
150.1629999999999
 21
82.138800000000003
 31
0.0
  0
LINE
  5
59
  8
0
 62
     7
 10
150.1629999999999
 20
79.639099999999999
 30
0.0
 11
150.1629999999999
 21
77.138599999999997
 31
0.0
  0
LINE
  5
5A
  8
0
 62
     7
 10
153.51300000000001
 20
74.638800000000003
 30
0.0
 11
149.3129999999999
 21
74.638800000000003
 31
0.0
  0
LINE
  5
5B
  8
0
 62
     7
 10
149.3129999999999
 20
74.638800000000003
 30
0.0
 11
149.3129999999999
 21
77.138599999999997
 31
0.0
  0
LINE
  5
5C
  8
0
 62
     7
 10
149.3129999999999
 20
77.138599999999997
 30
0.0
 11
153.51300000000001
 21
77.138599999999997
 31
0.0
  0
LINE
  5
5D
  8
0
 62
     7
 10
153.51300000000001
 20
77.138599999999997
 30
0.0
 11
153.51300000000001
 21
74.638800000000003
 31
0.0
  0
LINE
  5
5E
  8
0
 62
     7
 10
61.0914
 20
79.638400000000004
 30
0.0
 11
40.591200000000001
 21
79.638400000000004
 31
0.0
  0
LINE
  5
5F
  8
0
 62
     7
 10
40.591200000000001
 20
79.638400000000004
 30
0.0
 11
40.591200000000001
 21
82.138800000000003
 31
0.0
  0
LINE
  5
60
  8
0
 62
     7
 10
40.591200000000001
 20
82.138800000000003
 30
0.0
 11
61.0914
 21
82.138800000000003
 31
0.0
  0
LINE
  5
61
  8
0
 62
     7
 10
61.0914
 20
82.138800000000003
 30
0.0
 11
61.0914
 21
79.638400000000004
 31
0.0
  0
LINE
  5
62
  8
0
 62
     7
 10
61.0914
 20
84.638599999999997
 30
0.0
 11
40.591200000000001
 21
84.638599999999997
 31
0.0
  0
LINE
  5
63
  8
0
 62
     7
 10
40.591200000000001
 20
84.638599999999997
 30
0.0
 11
40.591200000000001
 21
85.388999999999996
 31
0.0
  0
LINE
  5
64
  8
0
 62
     7
 10
40.591200000000001
 20
85.388999999999996
 30
0.0
 11
61.0914
 21
85.388999999999996
 31
0.0
  0
LINE
  5
65
  8
0
 62
     7
 10
61.0914
 20
85.388999999999996
 30
0.0
 11
61.0914
 21
84.638599999999997
 31
0.0
  0
LINE
  5
66
  8
0
 62
     7
 10
60.3414
 20
95.385699999999986
 30
0.0
 11
57.346200000000003
 21
95.385699999999986
 31
0.0
  0
LINE
  5
67
  8
0
 62
     7
 10
57.346200000000003
 20
95.385699999999986
 30
0.0
 11
41.341200000000001
 21
95.385699999999986
 31
0.0
  0
LINE
  5
68
  8
0
 62
     7
 10
41.341200000000001
 20
95.385699999999986
 30
0.0
 11
41.341200000000001
 21
95.888999999999996
 31
0.0
  0
LINE
  5
69
  8
0
 62
     7
 10
41.341200000000001
 20
95.888999999999996
 30
0.0
 11
60.3414
 21
95.888999999999996
 31
0.0
  0
LINE
  5
6A
  8
0
 62
     7
 10
60.3414
 20
95.888999999999996
 30
0.0
 11
60.3414
 21
95.385699999999986
 31
0.0
  0
LINE
  5
6B
  8
0
 62
     7
 10
55.653599999999997
 20
68.3887
 30
0.0
 11
56.1539
 21
68.888900000000007
 31
0.0
  0
LINE
  5
6C
  8
0
 62
     7
 10
46.028700000000001
 20
68.3887
 30
0.0
 11
45.528799999999997
 21
68.888900000000007
 31
0.0
  0
LINE
  5
6D
  8
0
 62
     7
 10
55.653599999999997
 20
68.3887
 30
0.0
 11
46.028700000000001
 21
68.3887
 31
0.0
  0
LINE
  5
6E
  8
0
 62
     7
 10
56.1539
 20
68.888900000000007
 30
0.0
 11
45.528799999999997
 21
68.888900000000007
 31
0.0
  0
LINE
  5
6F
  8
0
 62
     7
 10
45.528799999999997
 20
60.028799999999997
 30
0.0
 11
45.528799999999997
 21
67.838800000000006
 31
0.0
  0
LINE
  5
70
  8
0
 62
     7
 10
56.1539
 20
60.028799999999997
 30
0.0
 11
56.1539
 21
67.838800000000006
 31
0.0
  0
LINE
  5
71
  8
0
 62
     7
 10
55.653599999999997
 20
68.3887
 30
0.0
 11
55.653599999999997
 21
79.638400000000004
 31
0.0
  0
LINE
  5
72
  8
0
 62
     7
 10
56.1539
 20
68.888900000000007
 30
0.0
 11
56.1539
 21
79.638400000000004
 31
0.0
  0
LINE
  5
73
  8
0
 62
     7
 10
46.028700000000001
 20
68.3887
 30
0.0
 11
46.028700000000001
 21
79.638400000000004
 31
0.0
  0
LINE
  5
74
  8
0
 62
     7
 10
45.528799999999997
 20
68.888900000000007
 30
0.0
 11
45.528799999999997
 21
79.638400000000004
 31
0.0
  0
LINE
  5
75
  8
0
 62
     7
 10
55.653599999999997
 20
82.138800000000003
 30
0.0
 11
55.653599999999997
 21
84.638599999999997
 31
0.0
  0
LINE
  5
76
  8
0
 62
     7
 10
56.1539
 20
82.138800000000003
 30
0.0
 11
56.1539
 21
84.638599999999997
 31
0.0
  0
LINE
  5
77
  8
0
 62
     7
 10
46.028700000000001
 20
82.138800000000003
 30
0.0
 11
46.028700000000001
 21
84.638599999999997
 31
0.0
  0
LINE
  5
78
  8
0
 62
     7
 10
45.528799999999997
 20
82.138800000000003
 30
0.0
 11
45.528799999999997
 21
84.638599999999997
 31
0.0
  0
LINE
  5
79
  8
0
 62
     7
 10
55.653599999999997
 20
85.388999999999996
 30
0.0
 11
55.653599999999997
 21
95.389099999999985
 31
0.0
  0
LINE
  5
7A
  8
0
 62
     7
 10
56.1539
 20
85.388999999999996
 30
0.0
 11
56.1539
 21
95.389099999999985
 31
0.0
  0
LINE
  5
7B
  8
0
 62
     7
 10
46.028700000000001
 20
85.388999999999996
 30
0.0
 11
46.028700000000001
 21
95.389099999999985
 31
0.0
  0
LINE
  5
7C
  8
0
 62
     7
 10
45.528799999999997
 20
85.388999999999996
 30
0.0
 11
45.528799999999997
 21
95.389099999999985
 31
0.0
  0
LINE
  5
7D
  8
0
 62
     7
 10
57.591200000000001
 20
79.639099999999999
 30
0.0
 11
57.591200000000001
 21
77.138599999999997
 31
0.0
  0
LINE
  5
7E
  8
0
 62
     7
 10
57.591200000000001
 20
84.638599999999997
 30
0.0
 11
57.591200000000001
 21
82.138800000000003
 31
0.0
  0
LINE
  5
7F
  8
0
 62
     7
 10
60.09129999999999
 20
84.638599999999997
 30
0.0
 11
60.09129999999999
 21
82.138800000000003
 31
0.0
  0
LINE
  5
80
  8
0
 62
     7
 10
60.09129999999999
 20
79.639099999999999
 30
0.0
 11
60.09129999999999
 21
77.138599999999997
 31
0.0
  0
LINE
  5
81
  8
0
 62
     7
 10
56.741300000000003
 20
74.638800000000003
 30
0.0
 11
60.941400000000002
 21
74.638800000000003
 31
0.0
  0
LINE
  5
82
  8
0
 62
     7
 10
60.941400000000002
 20
74.638800000000003
 30
0.0
 11
60.941400000000002
 21
77.138599999999997
 31
0.0
  0
LINE
  5
83
  8
0
 62
     7
 10
60.941400000000002
 20
77.138599999999997
 30
0.0
 11
56.741300000000003
 21
77.138599999999997
 31
0.0
  0
LINE
  5
84
  8
0
 62
     7
 10
56.741300000000003
 20
77.138599999999997
 30
0.0
 11
56.741300000000003
 21
74.638800000000003
 31
0.0
  0
LINE
  5
85
  8
0
 62
     7
 10
44.091099999999997
 20
79.639099999999999
 30
0.0
 11
44.091099999999997
 21
77.138599999999997
 31
0.0
  0
LINE
  5
86
  8
0
  6
AIGENLINE001
 62
     7
 10
58.8414
 20
86.893799999999985
 30
0.0
 11
58.8414
 21
73.344800000000006
 31
0.0
  0
LINE
  5
87
  8
0
  6
AIGENLINE001
 62
     7
 10
42.841200000000001
 20
86.893799999999985
 30
0.0
 11
42.841200000000001
 21
73.344800000000006
 31
0.0
  0
LINE
  5
88
  8
0
 62
     7
 10
44.091099999999997
 20
84.638599999999997
 30
0.0
 11
44.091099999999997
 21
82.138800000000003
 31
0.0
  0
LINE
  5
89
  8
0
 62
     7
 10
41.591399999999993
 20
84.638599999999997
 30
0.0
 11
41.591399999999993
 21
82.138800000000003
 31
0.0
  0
LINE
  5
8A
  8
0
 62
     7
 10
41.591399999999993
 20
79.639099999999999
 30
0.0
 11
41.591399999999993
 21
77.138599999999997
 31
0.0
  0
LINE
  5
8B
  8
0
 62
     7
 10
44.941400000000002
 20
74.638800000000003
 30
0.0
 11
40.741100000000003
 21
74.638800000000003
 31
0.0
  0
LINE
  5
8C
  8
0
 62
     7
 10
40.741100000000003
 20
74.638800000000003
 30
0.0
 11
40.741100000000003
 21
77.138599999999997
 31
0.0
  0
LINE
  5
8D
  8
0
 62
     7
 10
40.741100000000003
 20
77.138599999999997
 30
0.0
 11
44.941400000000002
 21
77.138599999999997
 31
0.0
  0
LINE
  5
8E
  8
0
 62
     7
 10
44.941400000000002
 20
77.138599999999997
 30
0.0
 11
44.941400000000002
 21
74.638800000000003
 31
0.0
  0
ARC
  5
8F
  8
0
 62
     7
 10
151.49041800000001
 20
226.66770199999991
 30
0.0
 40
7.0004789999999986
 50
270.00002000000001
 51
359.99998999999991
  0
ARC
  5
90
  8
0
 62
     7
 10
151.49076199999999
 20
226.6673549999999
 30
0.0
 40
7.0001329999999991
 50
179.99715
 51
269.99720000000002
  0
ARC
  5
91
  8
0
 62
     7
 10
151.49042
 20
226.6677
 30
0.0
 40
6.9997899999999991
 50
90.0
 51
179.99996999999991
  0
ARC
  5
92
  8
0
 62
     7
 10
151.49076199999999
 20
226.6673549999999
 30
0.0
 40
7.0001350000000002
 50
0.00283
 51
90.002800000000008
  0
LINE
  5
93
  8
0
 62
     7
 10
172.11199999999991
 20
217.315
 30
0.0
 11
160.8489999999999
 21
217.315
 31
0.0
  0
LINE
  5
94
  8
0
 62
     7
 10
158.44799999999989
 20
220.548
 30
0.0
 11
156.46700000000001
 21
221.69200000000001
 31
0.0
  0
LINE
  5
95
  8
0
 62
     7
 10
156.46700000000001
 20
221.69200000000001
 30
0.0
 11
157.61000000000001
 21
219.7109999999999
 31
0.0
  0
LINE
  5
96
  8
0
 62
     7
 10
157.61000000000001
 20
219.7109999999999
 30
0.0
 11
158.44799999999989
 21
220.548
 31
0.0
  0
LINE
  5
97
  8
0
 62
     7
 10
144.554
 20
232.78299999999999
 30
0.0
 11
146.53499999999991
 21
231.63800000000001
 31
0.0
  0
LINE
  5
98
  8
0
 62
     7
 10
146.53499999999991
 20
231.63800000000001
 30
0.0
 11
145.39099999999999
 21
233.6209999999999
 31
0.0
  0
LINE
  5
99
  8
0
 62
     7
 10
145.39099999999999
 20
233.6209999999999
 30
0.0
 11
144.554
 21
232.78299999999999
 31
0.0
  0
LINE
  5
9A
  8
0
 62
     7
 10
142.15299999999991
 20
236.01599999999999
 30
0.0
 11
160.8489999999999
 21
217.315
 31
0.0
  0
LINE
  5
9B
  8
0
  6
AIGENLINE001
 62
     7
 10
151.476
 20
216.92400000000001
 30
0.0
 11
151.476
 21
236.5029999999999
 31
0.0
  0
LINE
  5
9C
  8
0
  6
AIGENLINE001
 62
     7
 10
142.1109999999999
 20
226.68700000000001
 30
0.0
 11
161.16099999999989
 21
226.68700000000001
 31
0.0
  0
LINE
  5
9D
  8
0
 62
     7
 10
78.8904
 20
226.68700000000001
 30
0.0
 11
75.072599999999994
 21
226.68700000000001
 31
0.0
  0
ARC
  5
9E
  8
0
 62
     7
 10
52.569090000000003
 20
173.2694699999999
 30
0.0
 40
3.0848949999999991
 50
324.49707999999993
 51
359.85184700000002
  0
ARC
  5
9F
  8
0
 62
     7
 10
51.854162999999993
 20
173.71074299999989
 30
0.0
 40
3.9235730000000002
 50
304.86994900000002
 51
325.3142289999999
  0
ARC
  5
A0
  8
0
 62
     7
 10
51.217880000000001
 20
174.5232959999999
 30
0.0
 40
4.954339
 50
286.74377900000002
 51
305.53482500000001
  0
ARC
  5
A1
  8
0
 62
     7
 10
50.929951000000003
 20
175.31435999999999
 30
0.0
 40
5.7950119999999989
 50
269.74191300000001
 51
287.21660799999989
  0
ARC
  5
A2
  8
0
 62
     7
 10
50.906067
 20
175.423879
 30
0.0
 40
5.9044730000000003
 50
246.89651299999991
 51
269.97847000000002
  0
ARC
  5
A3
  8
0
 62
     7
 10
50.515582000000002
 20
174.37558000000001
 30
0.0
 40
4.787310999999999
 50
223.853228
 51
246.27201299999999
  0
ARC
  5
A4
  8
0
 62
     7
 10
49.692709000000001
 20
173.49502199999989
 30
0.0
 40
3.5844480000000001
 50
198.269597
 51
222.81596200000001
  0
ARC
  5
A5
  8
0
 62
     7
 10
49.173074
 20
173.264825
 30
0.0
 40
3.019356999999999
 50
180.06325099999989
 51
197.21268699999999
  0
ARC
  5
A6
  8
0
 62
     7
 10
52.567888000000004
 20
179.003692
 30
0.0
 40
3.0860970000000001
 50
324.50422500000002
 51
359.85195699999991
  0
ARC
  5
A7
  8
0
 62
     7
 10
51.854766999999988
 20
179.443838
 30
0.0
 40
3.9226539999999992
 50
304.86855299999991
 51
325.318127
  0
ARC
  5
A8
  8
0
 62
     7
 10
51.193283000000001
 20
180.293679
 30
0.0
 40
4.9984099999999989
 50
284.28912799999989
 51
305.52051
  0
ARC
  5
A9
  8
0
 62
     7
 10
50.922094000000001
 20
181.10969199999991
 30
0.0
 40
5.8564329999999991
 50
269.82148999999993
 51
284.88978899999989
  0
ARC
  5
AA
  8
0
 62
     7
 10
50.906069000000002
 20
181.158514
 30
0.0
 40
5.905227
 50
246.89960500000001
 51
269.97844700000002
  0
ARC
  5
AB
  8
0
 62
     7
 10
50.529996999999987
 20
180.14233999999999
 30
0.0
 40
4.8232710000000001
 50
225.78938299999999
 51
246.27272199999999
  0
ARC
  5
AC
  8
0
 62
     7
 10
49.769669
 20
179.28352599999991
 30
0.0
 40
3.6779069999999989
 50
200.905978
 51
224.95029099999999
  0
ARC
  5
AD
  8
0
 62
     7
 10
49.196170999999993
 20
179.0025729999999
 30
0.0
 40
3.0424599999999988
 50
180.129098
 51
199.81717299999991
  0
LINE
  5
AE
  8
0
 62
     7
 10
55.654000000000003
 20
173.261
 30
0.0
 11
55.654000000000003
 21
217.88499999999999
 31
0.0
  0
LINE
  5
AF
  8
0
 62
     7
 10
46.153700000000001
 20
173.261
 30
0.0
 11
46.153700000000001
 21
217.88499999999999
 31
0.0
  0
LINE
  5
B0
  8
0
 62
     7
 10
55.654000000000003
 20
113.3869999999999
 30
0.0
 11
55.654000000000003
 21
129.87899999999991
 31
0.0
  0
LINE
  5
B1
  8
0
 62
     7
 10
46.153700000000001
 20
113.3869999999999
 30
0.0
 11
46.153700000000001
 21
129.87899999999991
 31
0.0
  0
ARC
  5
B2
  8
0
 62
     7
 10
53.960675000000002
 20
121.525462
 30
0.0
 40
1.6933020000000001
 50
0.093802
 51
29.093097999999991
  0
ARC
  5
B3
  8
0
 62
     7
 10
53.442468999999988
 20
121.27356399999999
 30
0.0
 40
2.268829999999999
 50
28.288712
 51
43.783967999999987
  0
ARC
  5
B4
  8
0
 62
     7
 10
52.695341000000013
 20
120.59866
 30
0.0
 40
3.2753509999999988
 50
43.264083999999997
 51
58.234549999999999
  0
ARC
  5
B5
  8
0
 62
     7
 10
51.823402000000002
 20
119.3018829999999
 30
0.0
 40
4.8372659999999996
 50
57.539822999999998
 51
70.178477999999998
  0
ARC
  5
B6
  8
0
 62
     7
 10
51.131709999999998
 20
117.560458
 30
0.0
 40
6.7103339999999987
 50
69.664369999999991
 51
83.761707999999999
  0
ARC
  5
B7
  8
0
 62
     7
 10
50.911861999999999
 20
116.222048
 30
0.0
 40
8.0650399999999998
 50
83.242317
 51
90.056933999999984
  0
ARC
  5
B8
  8
0
 62
     7
 10
50.903698999999989
 20
116.3225809999999
 30
0.0
 40
7.9645029999999988
 50
89.998925999999997
 51
104.20825000000001
  0
ARC
  5
B9
  8
0
 62
     7
 10
50.503078999999993
 20
118.0971649999999
 30
0.0
 40
6.1460540000000004
 50
104.64828900000001
 51
116.142595
  0
ARC
  5
BA
  8
0
 62
     7
 10
49.746724
 20
119.717716
 30
0.0
 40
4.3581709999999987
 50
116.603324
 51
128.56239899999991
  0
ARC
  5
BB
  8
0
 62
     7
 10
48.890351000000003
 20
120.836462
 30
0.0
 40
2.9496859999999998
 50
129.101755
 51
143.97573299999999
  0
ARC
  5
BC
  8
0
 62
     7
 10
48.124896999999997
 20
121.427648
 30
0.0
 40
1.983115
 50
144.78321
 51
169.896795
  0
ARC
  5
BD
  8
0
 62
     7
 10
47.789068
 20
121.528184
 30
0.0
 40
1.635348
 50
171.30066099999999
 51
179.99822299999991
  0
ARC
  5
BE
  8
0
 62
     7
 10
53.960675000000002
 20
113.383961
 30
0.0
 40
1.6933020000000001
 50
0.093802
 51
29.093097999999991
  0
ARC
  5
BF
  8
0
 62
     7
 10
53.442468999999988
 20
113.1320629999999
 30
0.0
 40
2.268829999999999
 50
28.288712
 51
43.783967999999987
  0
ARC
  5
C0
  8
0
 62
     7
 10
52.695341000000013
 20
112.457159
 30
0.0
 40
3.2753509999999988
 50
43.264083999999997
 51
58.234549999999999
  0
ARC
  5
C1
  8
0
 62
     7
 10
51.823402000000002
 20
111.160382
 30
0.0
 40
4.8372659999999996
 50
57.539822999999998
 51
70.178477999999998
  0
ARC
  5
C2
  8
0
 62
     7
 10
51.131709999999998
 20
109.41895700000001
 30
0.0
 40
6.7103339999999987
 50
69.664369999999991
 51
83.761707999999999
  0
ARC
  5
C3
  8
0
 62
     7
 10
50.911861999999999
 20
108.080546
 30
0.0
 40
8.0650399999999998
 50
83.242317
 51
90.056933999999984
  0
ARC
  5
C4
  8
0
 62
     7
 10
50.903698999999989
 20
108.18107999999999
 30
0.0
 40
7.9645029999999988
 50
89.998925999999997
 51
104.20825000000001
  0
ARC
  5
C5
  8
0
 62
     7
 10
50.503078999999993
 20
109.9556639999999
 30
0.0
 40
6.1460540000000004
 50
104.64828900000001
 51
116.142595
  0
ARC
  5
C6
  8
0
 62
     7
 10
49.746724
 20
111.57621499999991
 30
0.0
 40
4.3581709999999987
 50
116.603324
 51
128.56239899999991
  0
ARC
  5
C7
  8
0
 62
     7
 10
48.890351000000003
 20
112.69496100000001
 30
0.0
 40
2.9496859999999998
 50
129.101755
 51
143.97573299999999
  0
ARC
  5
C8
  8
0
 62
     7
 10
48.124896999999997
 20
113.2861469999999
 30
0.0
 40
1.983115
 50
144.78321
 51
169.896795
  0
ARC
  5
C9
  8
0
 62
     7
 10
47.789068
 20
113.386683
 30
0.0
 40
1.635348
 50
171.30066099999999
 51
179.99822299999991
  0
ARC
  5
CA
  8
0
 62
     7
 10
47.84544799999999
 20
113.38951999999991
 30
0.0
 40
1.6917310000000001
 50
180.09441100000001
 51
209.0986739999999
  0
ARC
  5
CB
  8
0
 62
     7
 10
48.364297000000001
 20
113.641854
 30
0.0
 40
2.2680299999999991
 50
208.29434499999999
 51
223.786766
  0
ARC
  5
CC
  8
0
 62
     7
 10
49.110838999999999
 20
114.3163219999999
 30
0.0
 40
3.2738239999999998
 50
223.26736799999989
 51
238.23921999999999
  0
ARC
  5
CD
  8
0
 62
     7
 10
49.984268999999998
 20
115.616125
 30
0.0
 40
4.8390889999999986
 50
237.54708999999991
 51
250.17890299999991
  0
ARC
  5
CE
  8
0
 62
     7
 10
50.631791
 20
117.2336139999999
 30
0.0
 40
6.580597
 50
249.65044800000001
 51
261.008396
  0
ARC
  5
CF
  8
0
 62
     7
 10
50.884824999999999
 20
118.52834299999989
 30
0.0
 40
7.8991049999999996
 50
260.66333399999991
 51
270.13798500000001
  0
ARC
  5
D0
  8
0
 62
     7
 10
50.903978000000002
 20
118.589833
 30
0.0
 40
7.9605719999999991
 50
269.99906900000002
 51
284.211164
  0
ARC
  5
D1
  8
0
 62
     7
 10
51.338566999999991
 20
116.6933889999999
 30
0.0
 40
6.0156359999999989
 50
284.63291499999991
 51
298.638822
  0
ARC
  5
D2
  8
0
 62
     7
 10
52.268000000000001
 20
114.8764639999999
 30
0.0
 40
3.9759139999999991
 50
299.43291199999987
 51
312.14746600000001
  0
ARC
  5
D3
  8
0
 62
     7
 10
53.171432000000003
 20
113.83841099999999
 30
0.0
 40
2.6001780000000001
 50
312.73698999999999
 51
331.53890899999999
  0
ARC
  5
D4
  8
0
 62
     7
 10
53.873302000000002
 20
113.413061
 30
0.0
 40
1.7808669999999991
 50
332.80850499999991
 51
359.15292699999992
  0
ARC
  5
D5
  8
0
 62
     7
 10
50.721901000000003
 20
129.69725199999991
 30
0.0
 40
4.9354290000000001
 50
2.1127039999999999
 51
87.887286000000003
  0
ARC
  5
D6
  8
0
 62
     7
 10
50.903847999999989
 20
129.879197
 30
0.0
 40
4.7501290000000003
 50
90.0
 51
179.99996999999991
  0
ARC
  5
D7
  8
0
 62
     7
 10
98.07643800000001
 20
113.62585300000001
 30
0.0
 40
10.459546
 50
213.83107799999991
 51
269.44811900000002
  0
ARC
  5
D8
  8
0
 62
     7
 10
140.42319900000001
 20
126.178201
 30
0.0
 40
1.484448999999999
 50
315.0667279999999
 51
324.48552999999993
  0
ARC
  5
D9
  8
0
 62
     7
 10
139.641514
 20
126.755312
 30
0.0
 40
2.4560149999999998
 50
324.12012799999991
 51
332.770038
  0
ARC
  5
DA
  8
0
 62
     7
 10
138.20863399999999
 20
127.52577099999991
 30
0.0
 40
4.0827400000000003
 50
332.35685799999987
 51
338.76686799999999
  0
ARC
  5
DB
  8
0
 62
     7
 10
135.91932600000001
 20
128.44639699999999
 30
0.0
 40
6.5501180000000003
 50
338.51297900000009
 51
343.99851999999998
  0
ARC
  5
DC
  8
0
 62
     7
 10
132.434136
 20
129.482957
 30
0.0
 40
10.186075000000001
 50
343.79792300000003
 51
350.06606499999992
  0
ARC
  5
DD
  8
0
 62
     7
 10
129.69657000000001
 20
130.039163
 30
0.0
 40
12.978771
 50
349.73230899999999
 51
359.29684800000001
  0
ARC
  5
DE
  8
0
 62
     7
 10
140.42319900000001
 20
133.58088499999999
 30
0.0
 40
1.484448999999999
 50
35.514470000000003
 51
44.933271999999988
  0
ARC
  5
DF
  8
0
 62
     7
 10
139.64398899999989
 20
133.00529299999991
 30
0.0
 40
2.4531200000000002
 50
27.224847
 51
35.884985999999991
  0
ARC
  5
E0
  8
0
 62
     7
 10
138.207921
 20
132.23295200000001
 30
0.0
 40
4.083539
 50
21.234387999999999
 51
27.643004999999999
  0
ARC
  5
E1
  8
0
 62
     7
 10
135.917732
 20
131.31209299999989
 30
0.0
 40
6.551823999999999
 50
16.002915999999999
 51
21.48685
  0
ARC
  5
E2
  8
0
 62
     7
 10
132.43792300000001
 20
130.2768659999999
 30
0.0
 40
10.182242999999991
 50
9.9343020000000006
 51
16.204214999999991
  0
ARC
  5
E3
  8
0
 62
     7
 10
129.70012700000001
 20
129.72036399999999
 30
0.0
 40
12.975218
 50
0.70444
 51
10.269182999999989
  0
LINE
  5
E4
  8
0
 62
     7
 10
107.40000000000001
 20
118.42099999999991
 30
0.0
 11
102.133
 21
111.036
 31
0.0
  0
LINE
  5
E5
  8
0
 62
     7
 10
141.4739999999999
 20
125.13
 30
0.0
 11
120.425
 21
125.13
 31
0.0
  0
ARC
  5
E6
  8
0
 62
     7
 10
120.565783
 20
108.8587509999999
 30
0.0
 40
16.271612999999999
 50
90.494129000000001
 51
144.00967800000001
  0
LINE
  5
E7
  8
0
 62
     7
 10
94.826899999999995
 20
108.9739999999999
 30
0.0
 11
91.599800000000002
 21
104.4489999999999
 31
0.0
  0
LINE
  5
E8
  8
0
  6
AIGENLINE001
 62
     7
 10
103.5329999999999
 20
121.179
 30
0.0
 11
95.656400000000005
 21
110.13800000000001
 31
0.0
  0
LINE
  5
E9
  8
0
  6
AIGENLINE001
 62
     7
 10
151.476
 20
129.87999999999991
 30
0.0
 11
120.425
 21
129.87999999999991
 31
0.0
  0
ARC
  5
EA
  8
0
  6
AIGENLINE001
 62
     7
 10
120.6081979999999
 20
108.777449
 30
0.0
 40
21.10323
 50
90.496155999999985
 51
144.0091009999999
  0
LINE
  5
EB
  8
0
 62
     7
 10
99.665199999999999
 20
123.9379999999999
 30
0.0
 11
94.399699999999996
 21
116.5529999999999
 31
0.0
  0
LINE
  5
EC
  8
0
 62
     7
 10
141.4739999999999
 20
134.62899999999991
 30
0.0
 11
120.425
 21
134.62899999999991
 31
0.0
  0
ARC
  5
ED
  8
0
 62
     7
 10
120.65058500000001
 20
108.6918269999999
 30
0.0
 40
25.938476000000001
 50
90.497294000000025
 51
144.002771
  0
LINE
  5
EE
  8
0
 62
     7
 10
97.975700000000003
 20
113.38799999999991
 30
0.0
 11
94.516800000000003
 21
115.85599999999999
 31
0.0
  0
ARC
  5
EF
  8
0
 62
     7
 10
94.835690999999997
 20
116.26783999999989
 30
0.0
 40
0.521266
 50
146.77125100000001
 51
232.28177500000001
  0
LINE
  5
F0
  8
0
 62
     7
 10
101.43600000000001
 20
110.9199999999999
 30
0.0
 11
97.975700000000003
 21
113.38799999999991
 31
0.0
  0
ARC
  5
F1
  8
0
 62
     7
 10
101.722061
 20
111.3528169999999
 30
0.0
 40
0.5188030000000001
 50
236.533312
 51
322.42807299999993
  0
LINE
  5
F2
  8
0
 62
     7
 10
107.65000000000001
 20
118.771
 30
0.0
 11
99.915999999999997
 21
124.28700000000001
 31
0.0
  0
LINE
  5
F3
  8
0
  6
AIGENLINE002
 62
     7
 10
60.736600000000003
 20
224.8709999999999
 30
0.0
 11
73.193100000000001
 21
224.8709999999999
 31
0.0
  0
LINE
  5
F4
  8
0
  6
AIGENLINE002
 62
     7
 10
60.736600000000003
 20
228.5029999999999
 30
0.0
 11
73.193100000000001
 21
228.5029999999999
 31
0.0
  0
LINE
  5
F5
  8
0
  6
AIGENLINE002
 62
     7
 10
73.193100000000001
 20
224.8709999999999
 30
0.0
 11
73.193100000000001
 21
228.5029999999999
 31
0.0
  0
LINE
  5
F6
  8
0
  6
AIGENLINE001
 62
     7
 10
50.90379999999999
 20
240.13399999999999
 30
0.0
 11
50.90379999999999
 21
165.232
 31
0.0
  0
LINE
  5
F7
  8
0
 62
     7
 10
49.088299999999997
 20
216.85400000000001
 30
0.0
 11
49.088299999999997
 21
204.39799999999991
 31
0.0
  0
LINE
  5
F8
  8
0
 62
     7
 10
52.7194
 20
216.85400000000001
 30
0.0
 11
52.7194
 21
204.39799999999991
 31
0.0
  0
LINE
  5
F9
  8
0
 62
     7
 10
78.782899999999984
 20
224.47499999999991
 30
0.0
 11
78.190399999999997
 21
226.68700000000001
 31
0.0
  0
LINE
  5
FA
  8
0
 62
     7
 10
78.190399999999997
 20
226.68700000000001
 30
0.0
 11
77.597800000000007
 21
224.47499999999991
 31
0.0
  0
LINE
  5
FB
  8
0
 62
     7
 10
77.597800000000007
 20
224.47499999999991
 30
0.0
 11
78.782899999999984
 21
224.47499999999991
 31
0.0
  0
LINE
  5
FC
  8
0
 62
     7
 10
53.115400000000001
 20
199.99299999999991
 30
0.0
 11
50.90379999999999
 21
199.39999999999989
 31
0.0
  0
LINE
  5
FD
  8
0
 62
     7
 10
50.90379999999999
 20
199.39999999999989
 30
0.0
 11
53.115400000000001
 21
198.80799999999999
 31
0.0
  0
LINE
  5
FE
  8
0
 62
     7
 10
53.115400000000001
 20
198.80799999999999
 30
0.0
 11
53.115400000000001
 21
199.99299999999991
 31
0.0
  0
ARC
  5
FF
  8
0
 62
     7
 10
50.90384199999999
 20
226.68699799999999
 30
0.0
 40
27.286539000000001
 50
270.00002000000001
 51
359.99998999999991
  0
ARC
  5
100
  8
0
 62
     7
 10
50.903844999999997
 20
226.686995
 30
0.0
 40
10.000144000000001
 50
270.00002000000001
 51
359.99998999999991
  0
ARC
  5
101
  8
0
 62
     7
 10
50.903844999999997
 20
226.68699199999989
 30
0.0
 40
10.000139999999989
 50
179.99996999999991
 51
270.00002000000001
  0
ARC
  5
102
  8
0
 62
     7
 10
50.903849000000001
 20
226.68699199999989
 30
0.0
 40
10.000144000000001
 50
90.0
 51
179.99996999999991
  0
ARC
  5
103
  8
0
 62
     7
 10
50.903844999999997
 20
226.68699199999989
 30
0.0
 40
10.000144000000001
 50
0.00001
 51
89.999980000000008
  0
LINE
  5
104
  8
0
 62
     7
 10
143.715
 20
112.52500000000001
 30
0.0
 11
141.50499999999991
 21
111.93299999999989
 31
0.0
  0
LINE
  5
105
  8
0
 62
     7
 10
141.50499999999991
 20
111.93299999999989
 30
0.0
 11
143.715
 21
111.34099999999999
 31
0.0
  0
LINE
  5
106
  8
0
 62
     7
 10
143.715
 20
111.34099999999999
 30
0.0
 11
143.715
 21
112.52500000000001
 31
0.0
  0
LINE
  5
107
  8
0
 62
     7
 10
159.23400000000001
 20
111.355
 30
0.0
 11
161.4439999999999
 21
111.9469999999999
 31
0.0
  0
LINE
  5
108
  8
0
 62
     7
 10
161.4439999999999
 20
111.9469999999999
 30
0.0
 11
159.23400000000001
 21
112.54000000000001
 31
0.0
  0
LINE
  5
109
  8
0
 62
     7
 10
159.23400000000001
 20
112.54000000000001
 30
0.0
 11
159.23400000000001
 21
111.355
 31
0.0
  0
LINE
  5
10A
  8
0
 62
     7
 10
141.4739999999999
 20
111.9399999999999
 30
0.0
 11
160.47799999999989
 21
111.9399999999999
 31
0.0
  0
LINE
  5
10B
  8
0
 62
     7
 10
89.944800000000015
 20
105.9909999999999
 30
0.0
 11
92.035300000000007
 21
105.0599999999999
 31
0.0
  0
LINE
  5
10C
  8
0
 62
     7
 10
92.035300000000007
 20
105.0599999999999
 30
0.0
 11
90.6905
 21
106.91200000000001
 31
0.0
  0
LINE
  5
10D
  8
0
 62
     7
 10
90.6905
 20
106.91200000000001
 30
0.0
 11
89.944800000000015
 21
105.9909999999999
 31
0.0
  0
LINE
  5
10E
  8
0
 62
     7
 10
100.18600000000001
 20
103.759
 30
0.0
 11
97.975700000000003
 21
103.167
 31
0.0
  0
LINE
  5
10F
  8
0
 62
     7
 10
97.975700000000003
 20
103.167
 30
0.0
 11
100.18600000000001
 21
102.574
 31
0.0
  0
LINE
  5
110
  8
0
 62
     7
 10
100.18600000000001
 20
102.574
 30
0.0
 11
100.18600000000001
 21
103.759
 31
0.0
  0
LINE
  5
111
  8
0
 62
     7
 10
149.41999999999999
 20
102.5889999999999
 30
0.0
 11
151.631
 21
103.1809999999999
 31
0.0
  0
LINE
  5
112
  8
0
 62
     7
 10
151.631
 20
103.1809999999999
 30
0.0
 11
149.41999999999999
 21
103.773
 31
0.0
  0
LINE
  5
113
  8
0
 62
     7
 10
149.41999999999999
 20
103.773
 30
0.0
 11
149.41999999999999
 21
102.5889999999999
 31
0.0
  0
LINE
  5
114
  8
0
 62
     7
 10
151.553
 20
103.17399999999989
 30
0.0
 11
98.053200000000004
 21
103.17399999999989
 31
0.0
  0
LINE
  5
115
  8
0
 62
     7
 10
110.151
 20
98.129999999999995
 30
0.0
 11
110.7429999999999
 21
95.919300000000007
 31
0.0
  0
LINE
  5
116
  8
0
 62
     7
 10
110.7429999999999
 20
95.919300000000007
 30
0.0
 11
111.33499999999999
 21
98.129999999999995
 31
0.0
  0
LINE
  5
117
  8
0
 62
     7
 10
111.33499999999999
 20
98.129999999999995
 30
0.0
 11
110.151
 21
98.129999999999995
 31
0.0
  0
LINE
  5
118
  8
0
 62
     7
 10
110.736
 20
110.827
 30
0.0
 11
110.736
 21
95.946499999999986
 31
0.0
  0
LINE
  5
119
  8
0
 62
     7
 10
111.3279999999999
 20
108.617
 30
0.0
 11
110.736
 21
110.827
 31
0.0
  0
LINE
  5
11A
  8
0
 62
     7
 10
110.736
 20
110.827
 30
0.0
 11
110.1429999999999
 21
108.617
 31
0.0
  0
LINE
  5
11B
  8
0
 62
     7
 10
110.1429999999999
 20
108.617
 30
0.0
 11
111.3279999999999
 21
108.617
 31
0.0
  0
LINE
  5
11C
  8
0
 62
     7
 10
86.229200000000006
 20
98.129999999999995
 30
0.0
 11
86.821799999999996
 21
95.919300000000007
 31
0.0
  0
LINE
  5
11D
  8
0
 62
     7
 10
86.821799999999996
 20
95.919300000000007
 30
0.0
 11
87.414000000000001
 21
98.129999999999995
 31
0.0
  0
LINE
  5
11E
  8
0
 62
     7
 10
87.414000000000001
 20
98.129999999999995
 30
0.0
 11
86.229200000000006
 21
98.129999999999995
 31
0.0
  0
LINE
  5
11F
  8
0
 62
     7
 10
86.814200000000014
 20
113.38799999999991
 30
0.0
 11
86.814200000000014
 21
95.946499999999986
 31
0.0
  0
LINE
  5
120
  8
0
 62
     7
 10
87.399199999999993
 20
111.05799999999989
 30
0.0
 11
86.807299999999998
 21
113.2679999999999
 31
0.0
  0
LINE
  5
121
  8
0
 62
     7
 10
86.807299999999998
 20
113.2679999999999
 30
0.0
 11
86.214699999999993
 21
111.05799999999989
 31
0.0
  0
LINE
  5
122
  8
0
 62
     7
 10
86.214699999999993
 20
111.05799999999989
 30
0.0
 11
87.399199999999993
 21
111.05799999999989
 31
0.0
  0
LINE
  5
123
  8
0
 62
     7
 10
97.975700000000003
 20
115.786
 30
0.0
 11
97.975700000000003
 21
102.238
 31
0.0
  0
LINE
  5
124
  8
0
 62
     7
 10
140.25
 20
95.888999999999996
 30
0.0
 11
86.121700000000004
 21
95.888999999999996
 31
0.0
  0
LINE
  5
125
  8
0
 62
     7
 10
111.43600000000001
 20
110.827
 30
0.0
 11
102.761
 21
110.827
 31
0.0
  0
LINE
  5
126
  8
0
 62
     7
 10
97.088899999999995
 20
113.38799999999991
 30
0.0
 11
86.121700000000004
 21
113.38799999999991
 31
0.0
  0
LINE
  5
127
  8
0
 62
     7
 10
49.088299999999997
 20
204.39799999999991
 30
0.0
 11
52.7194
 21
204.39799999999991
 31
0.0
  0
LINE
  5
128
  8
0
  6
AIGENLINE001
 62
     7
 10
35.030000000000001
 20
226.68700000000001
 30
0.0
 11
74.065899999999999
 21
226.68700000000001
 31
0.0
  0
LINE
  5
129
  8
0
  6
AIGENLINE001
 62
     7
 10
151.476
 20
159.52999999999989
 30
0.0
 11
151.476
 21
117.90300000000001
 31
0.0
  0
LINE
  5
12A
  8
0
  6
AIGENLINE001
 62
     7
 10
151.476
 20
109.43599999999989
 30
0.0
 11
151.476
 21
65.691199999999995
 31
0.0
  0
LINE
  5
12B
  8
0
 62
     7
 10
143.98400000000001
 20
87.153499999999994
 30
0.0
 11
146.19499999999991
 21
87.745400000000004
 31
0.0
  0
LINE
  5
12C
  8
0
 62
     7
 10
146.19499999999991
 20
87.745400000000004
 30
0.0
 11
143.98400000000001
 21
88.337999999999994
 31
0.0
  0
LINE
  5
12D
  8
0
 62
     7
 10
143.98400000000001
 20
88.337999999999994
 30
0.0
 11
143.98400000000001
 21
87.153499999999994
 31
0.0
  0
LINE
  5
12E
  8
0
 62
     7
 10
158.9679999999999
 20
88.323499999999996
 30
0.0
 11
156.75700000000001
 21
87.731300000000005
 31
0.0
  0
LINE
  5
12F
  8
0
 62
     7
 10
156.75700000000001
 20
87.731300000000005
 30
0.0
 11
158.9679999999999
 21
87.1387
 31
0.0
  0
LINE
  5
130
  8
0
 62
     7
 10
158.9679999999999
 20
87.1387
 30
0.0
 11
158.9679999999999
 21
88.323499999999996
 31
0.0
  0
LINE
  5
131
  8
0
 62
     7
 10
141.863
 20
87.738500000000016
 30
0.0
 11
164.416
 21
87.738500000000016
 31
0.0
  0
LINE
  5
132
  8
0
 62
     7
 10
73.335499999999996
 20
93.722000000000008
 30
0.0
 11
72.743300000000005
 21
95.932399999999987
 31
0.0
  0
LINE
  5
133
  8
0
 62
     7
 10
72.743300000000005
 20
95.932399999999987
 30
0.0
 11
72.150899999999993
 21
93.722000000000008
 31
0.0
  0
LINE
  5
134
  8
0
 62
     7
 10
72.150899999999993
 20
93.722000000000008
 30
0.0
 11
73.335499999999996
 21
93.722000000000008
 31
0.0
  0
LINE
  5
135
  8
0
 62
     7
 10
32.56689999999999
 20
87.599299999999999
 30
0.0
 11
33.159100000000002
 21
85.388999999999996
 31
0.0
  0
LINE
  5
136
  8
0
 62
     7
 10
33.159100000000002
 20
85.388999999999996
 30
0.0
 11
33.7515
 21
87.599299999999999
 31
0.0
  0
LINE
  5
137
  8
0
 62
     7
 10
33.7515
 20
87.599299999999999
 30
0.0
 11
32.56689999999999
 21
87.599299999999999
 31
0.0
  0
LINE
  5
138
  8
0
 62
     7
 10
72.1511
 20
98.142799999999994
 30
0.0
 11
72.743300000000005
 21
95.932399999999987
 31
0.0
  0
LINE
  5
139
  8
0
 62
     7
 10
72.743300000000005
 20
95.932399999999987
 30
0.0
 11
73.335700000000003
 21
98.142799999999994
 31
0.0
  0
LINE
  5
13A
  8
0
 62
     7
 10
73.335700000000003
 20
98.142799999999994
 30
0.0
 11
72.1511
 21
98.142799999999994
 31
0.0
  0
LINE
  5
13B
  8
0
 62
     7
 10
72.745000000000005
 20
95.932399999999987
 30
0.0
 11
72.745000000000005
 21
155.773
 31
0.0
  0
LINE
  5
13C
  8
0
 62
     7
 10
33.745800000000003
 20
93.722000000000008
 30
0.0
 11
33.153599999999997
 21
95.932399999999987
 31
0.0
  0
LINE
  5
13D
  8
0
 62
     7
 10
33.153599999999997
 20
95.932399999999987
 30
0.0
 11
32.561199999999999
 21
93.722000000000008
 31
0.0
  0
LINE
  5
13E
  8
0
 62
     7
 10
32.561199999999999
 20
93.722000000000008
 30
0.0
 11
33.745800000000003
 21
93.722000000000008
 31
0.0
  0
LINE
  5
13F
  8
0
 62
     7
 10
73.329999999999998
 20
153.58999999999989
 30
0.0
 11
72.737799999999993
 21
155.80000000000001
 31
0.0
  0
LINE
  5
140
  8
0
 62
     7
 10
72.737799999999993
 20
155.80000000000001
 30
0.0
 11
72.145399999999995
 21
153.58999999999989
 31
0.0
  0
LINE
  5
141
  8
0
 62
     7
 10
72.145399999999995
 20
153.58999999999989
 30
0.0
 11
73.329999999999998
 21
153.58999999999989
 31
0.0
  0
LINE
  5
142
  8
0
 62
     7
 10
72.165599999999998
 20
70.600800000000007
 30
0.0
 11
72.757800000000003
 21
68.3904
 31
0.0
  0
LINE
  5
143
  8
0
 62
     7
 10
72.757800000000003
 20
68.3904
 30
0.0
 11
73.350200000000001
 21
70.600800000000007
 31
0.0
  0
LINE
  5
144
  8
0
 62
     7
 10
73.350200000000001
 20
70.600800000000007
 30
0.0
 11
72.165599999999998
 21
70.600800000000007
 31
0.0
  0
LINE
  5
145
  8
0
 62
     7
 10
33.153599999999997
 20
95.932399999999987
 30
0.0
 11
33.153599999999997
 21
85.388999999999996
 31
0.0
  0
LINE
  5
146
  8
0
 62
     7
 10
72.750500000000002
 20
95.905199999999994
 30
0.0
 11
72.750500000000002
 21
68.477199999999996
 31
0.0
  0
LINE
  5
147
  8
0
 62
     7
 10
73.735799999999998
 20
68.3887
 30
0.0
 11
56.888500000000001
 21
68.3887
 31
0.0
  0
LINE
  5
148
  8
0
 62
     7
 10
32.096800000000002
 20
85.388999999999996
 30
0.0
 11
39.750500000000002
 21
85.388999999999996
 31
0.0
  0
LINE
  5
149
  8
0
 62
     7
 10
32.371000000000002
 20
95.888999999999996
 30
0.0
 11
39.9041
 21
95.888999999999996
 31
0.0
  0
LINE
  5
14A
  8
0
 62
     7
 10
61.602800000000002
 20
95.888999999999996
 30
0.0
 11
74.149900000000002
 21
95.888999999999996
 31
0.0
  0
LINE
  5
14B
  8
0
 62
     7
 10
62.876100000000001
 20
155.88900000000001
 30
0.0
 11
74.149900000000002
 21
155.88900000000001
 31
0.0
  0
ARC
  5
14C
  8
0
 62
     7
 10
139.8282669999999
 20
152.83835500000001
 30
0.0
 40
2.4882459999999988
 50
41.787762000000001
 51
48.590417000000002
  0
ARC
  5
14D
  8
0
 62
     7
 10
139.83003899999991
 20
152.87764999999999
 30
0.0
 40
2.4609000000000001
 50
356.81272799999999
 51
41.133110999999992
  0
ARC
  5
14E
  8
0
 62
     7
 10
139.84405000000001
 20
152.899384
 30
0.0
 40
2.448223
 50
311.74400000000003
 51
356.28662099999991
  0
LINE
  5
14F
  8
0
 62
     7
 10
142.774
 20
140.09899999999999
 30
0.0
 11
142.774
 21
137.7299999999999
 31
0.0
  0
LINE
  5
150
  8
0
 62
     7
 10
160.17599999999999
 20
140.09899999999999
 30
0.0
 11
160.17599999999999
 21
137.7299999999999
 31
0.0
  0
LINE
  5
151
  8
0
 62
     7
 10
141.4739999999999
 20
125.13
 30
0.0
 11
141.4739999999999
 21
95.888999999999996
 31
0.0
  0
LINE
  5
152
  8
0
 62
     7
 10
141.4739999999999
 20
95.888999999999996
 30
0.0
 11
161.47499999999991
 21
95.888999999999996
 31
0.0
  0
LINE
  5
153
  8
0
 62
     7
 10
161.47499999999991
 20
95.888999999999996
 30
0.0
 11
161.47499999999991
 21
137.7299999999999
 31
0.0
  0
LINE
  5
154
  8
0
 62
     7
 10
161.47499999999991
 20
137.7299999999999
 30
0.0
 11
141.4739999999999
 21
137.7299999999999
 31
0.0
  0
LINE
  5
155
  8
0
 62
     7
 10
141.4739999999999
 20
137.7299999999999
 30
0.0
 11
141.4739999999999
 21
134.62899999999991
 31
0.0
  0
LINE
  5
156
  8
0
 62
     7
 10
141.4739999999999
 20
140.09899999999999
 30
0.0
 11
161.47499999999991
 21
140.09899999999999
 31
0.0
  0
LINE
  5
157
  8
0
 62
     7
 10
161.47499999999991
 20
140.09899999999999
 30
0.0
 11
161.47499999999991
 21
155.88900000000001
 31
0.0
  0
LINE
  5
158
  8
0
 62
     7
 10
161.47499999999991
 20
155.88900000000001
 30
0.0
 11
141.4739999999999
 21
155.88900000000001
 31
0.0
  0
LINE
  5
159
  8
0
 62
     7
 10
141.4739999999999
 20
155.88900000000001
 30
0.0
 11
141.4739999999999
 21
154.70500000000001
 31
0.0
  0
LINE
  5
15A
  8
0
 62
     7
 10
141.4739999999999
 20
154.70500000000001
 30
0.0
 11
129.18700000000001
 21
154.70500000000001
 31
0.0
  0
LINE
  5
15B
  8
0
 62
     7
 10
129.18700000000001
 20
154.70500000000001
 30
0.0
 11
129.18700000000001
 21
151.07299999999989
 31
0.0
  0
LINE
  5
15C
  8
0
 62
     7
 10
129.18700000000001
 20
151.07299999999989
 30
0.0
 11
141.4739999999999
 21
151.07299999999989
 31
0.0
  0
LINE
  5
15D
  8
0
 62
     7
 10
141.4739999999999
 20
151.07299999999989
 30
0.0
 11
141.4739999999999
 21
140.09899999999999
 31
0.0
  0
LINE
  5
15E
  8
0
  6
AIGENLINE001
 62
     7
 10
50.90379999999999
 20
159.52999999999989
 30
0.0
 11
50.90379999999999
 21
66.043899999999994
 31
0.0
  0
LINE
  5
15F
  8
0
 62
     7
 10
42.201300000000003
 20
140.09899999999999
 30
0.0
 11
42.201300000000003
 21
137.7299999999999
 31
0.0
  0
LINE
  5
160
  8
0
 62
     7
 10
59.60329999999999
 20
140.09899999999999
 30
0.0
 11
59.60329999999999
 21
137.7299999999999
 31
0.0
  0
LINE
  5
161
  8
0
 62
     7
 10
40.902500000000003
 20
95.888999999999996
 30
0.0
 11
60.902799999999992
 21
95.888999999999996
 31
0.0
  0
LINE
  5
162
  8
0
 62
     7
 10
60.902799999999992
 20
95.888999999999996
 30
0.0
 11
60.902799999999992
 21
137.7299999999999
 31
0.0
  0
LINE
  5
163
  8
0
 62
     7
 10
60.902799999999992
 20
137.7299999999999
 30
0.0
 11
40.902500000000003
 21
137.7299999999999
 31
0.0
  0
LINE
  5
164
  8
0
 62
     7
 10
40.902500000000003
 20
137.7299999999999
 30
0.0
 11
40.902500000000003
 21
95.888999999999996
 31
0.0
  0
LINE
  5
165
  8
0
 62
     7
 10
40.902500000000003
 20
140.09899999999999
 30
0.0
 11
60.902799999999992
 21
140.09899999999999
 31
0.0
  0
LINE
  5
166
  8
0
 62
     7
 10
60.902799999999992
 20
140.09899999999999
 30
0.0
 11
60.902799999999992
 21
155.88900000000001
 31
0.0
  0
LINE
  5
167
  8
0
 62
     7
 10
60.902799999999992
 20
155.88900000000001
 30
0.0
 11
40.902500000000003
 21
155.88900000000001
 31
0.0
  0
LINE
  5
168
  8
0
 62
     7
 10
40.902500000000003
 20
155.88900000000001
 30
0.0
 11
40.902500000000003
 21
140.09899999999999
 31
0.0
  0
ARC
  5
169
  8
0
 62
     7
 10
50.880259000000002
 20
152.87965600000001
 30
0.0
 40
1.8390129999999989
 50
0.268546
 51
44.674027000000002
  0
ARC
  5
16A
  8
0
 62
     7
 10
50.892451000000001
 20
152.86095399999991
 30
0.0
 40
1.8436209999999991
 50
45.35374199999999
 51
89.651180000000025
  0
ARC
  5
16B
  8
0
 62
     7
 10
50.912317999999999
 20
152.86718500000001
 30
0.0
 40
1.837375999999999
 50
90.269510999999994
 51
134.72552799999991
  0
ARC
  5
16C
  8
0
 62
     7
 10
50.936725000000003
 20
152.8756709999999
 30
0.0
 40
1.84867
 50
135.44806799999989
 51
179.609319
  0
ARC
  5
16D
  8
0
 62
     7
 10
50.929149000000002
 20
152.8977459999999
 30
0.0
 40
1.841075999999999
 50
180.294771
 51
224.647842
  0
ARC
  5
16E
  8
0
 62
     7
 10
50.915040999999988
 20
152.91833199999999
 30
0.0
 40
1.8456680000000001
 50
225.4102839999999
 51
269.64716299999998
  0
ARC
  5
16F
  8
0
 62
     7
 10
50.895065000000002
 20
152.91166599999991
 30
0.0
 40
1.8389880000000001
 50
270.26823899999999
 51
314.67435399999999
  0
ARC
  5
170
  8
0
 62
     7
 10
50.878040000000013
 20
152.8978129999999
 30
0.0
 40
1.8412369999999989
 50
315.35421700000001
 51
359.70321000000001
  0
LINE
  5
171
  8
_________2
 62
     7
 10
205.2999999999999
 20
127.411
 30
0.0
 11
183.55000000000001
 21
127.411
 31
0.0
  0
LINE
  5
172
  8
_________2
 62
     7
 10
100.2999999999999
 20
-4.0910799999999998
 30
0.0
 11
100.2999999999999
 21
-21.071400000000001
 31
0.0
  0
LINE
  5
173
  8
_________2
 62
     7
 10
100.2999999999999
 20
275.93099999999993
 30
0.0
 11
100.2999999999999
 21
258.911
 31
0.0
  0
LINE
  5
174
  8
_________2
 62
     7
 10
17.049499999999998
 20
127.411
 30
0.0
 11
-4.7008599999999987
 21
127.411
 31
0.0
  0
LINE
  5
175
  8
_________2
 62
     7
 10
76.741
 20
29.8047
 30
0.0
 11
74.554699999999997
 21
29.8047
 31
0.0
  0
LINE
  5
176
  8
_________2
 62
     7
 10
77.233699999999999
 20
29.8047
 30
0.0
 11
76.981499999999997
 21
29.8047
 31
0.0
  0
LINE
  5
177
  8
_________2
 62
     7
 10
77.726299999999995
 20
29.8047
 30
0.0
 11
80.651200000000003
 21
29.8047
 31
0.0
  0
LINE
  5
178
  8
_________2
 62
     7
 10
77.233699999999999
 20
29.8047
 30
0.0
 11
77.485200000000006
 21
29.8047
 31
0.0
  0
LINE
  5
179
  8
_________2
 62
     7
 10
70.836799999999997
 20
29.8047
 30
0.0
 11
68.650499999999994
 21
29.8047
 31
0.0
  0
LINE
  5
17A
  8
_________2
 62
     7
 10
71.329400000000007
 20
29.8047
 30
0.0
 11
71.077200000000005
 21
29.8047
 31
0.0
  0
LINE
  5
17B
  8
_________2
 62
     7
 10
71.329400000000007
 20
30.2974
 30
0.0
 11
71.329400000000007
 21
32.484400000000001
 31
0.0
  0
LINE
  5
17C
  8
_________2
 62
     7
 10
71.329400000000007
 20
29.8047
 30
0.0
 11
71.329400000000007
 21
30.056899999999992
 31
0.0
  0
LINE
  5
17D
  8
_________2
 62
     7
 10
71.822100000000006
 20
29.8047
 30
0.0
 11
74.009
 21
29.8047
 31
0.0
  0
LINE
  5
17E
  8
_________2
 62
     7
 10
71.329400000000007
 20
29.8047
 30
0.0
 11
71.581599999999995
 21
29.8047
 31
0.0
  0
LINE
  5
17F
  8
_________2
 62
     7
 10
71.329400000000007
 20
29.312799999999999
 30
0.0
 11
71.329400000000007
 21
27.125800000000002
 31
0.0
  0
LINE
  5
180
  8
_________2
 62
     7
 10
71.329400000000007
 20
29.8047
 30
0.0
 11
71.329400000000007
 21
29.5532
 31
0.0
  0
LINE
  5
181
  8
_________2
 62
     7
 10
75.040499999999994
 20
28.5852
 30
0.0
 11
80.218500000000006
 21
27.720400000000001
 31
0.0
  0
LINE
  5
182
  8
_________2
 62
     7
 10
75.040499999999994
 20
31.0243
 30
0.0
 11
80.218500000000006
 21
31.889700000000001
 31
0.0
  0
LINE
  5
183
  8
_________2
 62
     7
 10
80.218500000000006
 20
27.720400000000001
 30
0.0
 11
80.218500000000006
 21
31.889700000000001
 31
0.0
  0
LINE
  5
184
  8
_________2
 62
     7
 10
75.040499999999994
 20
28.5852
 30
0.0
 11
75.040499999999994
 21
31.0243
 31
0.0
  0
ARC
  5
185
  8
_________2
 62
     7
 10
71.282522999999983
 20
29.75783599999999
 30
0.0
 40
1.267347
 50
2.1211329999999999
 51
87.878856999999996
  0
ARC
  5
186
  8
_________2
 62
     7
 10
71.375959999999992
 20
29.758213000000001
 30
0.0
 40
1.2669559999999991
 50
92.104701000000006
 51
177.8952689999999
  0
ARC
  5
187
  8
_________2
 62
     7
 10
71.376357999999996
 20
29.851671
 30
0.0
 40
1.2673680000000001
 50
182.12203600000001
 51
267.877993
  0
ARC
  5
188
  8
_________2
 62
     7
 10
71.282522999999983
 20
29.851649999999999
 30
0.0
 40
1.267347
 50
272.12114300000002
 51
357.87886700000001
  0
ARC
  5
189
  8
_________2
 62
     7
 10
71.329430000000002
 20
29.804742999999998
 30
0.0
 40
2.0849849999999992
 50
0.00001
 51
89.999980000000008
  0
ARC
  5
18A
  8
_________2
 62
     7
 10
71.329431
 20
29.804742999999998
 30
0.0
 40
2.0849849999999992
 50
90.0
 51
179.99996999999991
  0
ARC
  5
18B
  8
_________2
 62
     7
 10
71.408771999999999
 20
29.884799999999998
 30
0.0
 40
2.165807
 50
182.1183979999999
 51
267.90056900000002
  0
ARC
  5
18C
  8
_________2
 62
     7
 10
71.249459000000002
 20
29.885429999999989
 30
0.0
 40
2.1664590000000001
 50
272.11546800000002
 51
357.86560400000002
  0
TEXT
  5
18D
  8
_________2
 62
     7
 10
104.604
 20
1.6794899999999999
 30
0.0
 40
3.0923400000000001
  1
図番
 41
0.5
  0
LINE
  5
18E
  8
_________2
 62
     7
 10
103.55
 20
5.9087199999999989
 30
0.0
 11
183.55099999999999
 21
5.9087199999999989
 31
0.0
  0
TEXT
  5
18F
  8
_________2
 62
     7
 10
104.604
 20
11.679299999999991
 30
0.0
 40
3.0923400000000001
  1
品番
 41
0.5
  0
TEXT
  5
190
  8
_________2
 62
     7
 10
104.604
 20
31.818100000000001
 30
0.0
 40
3.0923400000000001
  1
名称
 41
0.5
  0
TEXT
  5
191
  8
_________2
 62
     7
 10
91.845058333333341
 20
26.821999999999989
 30
0.0
 40
3.6545800000000002
  1
mm
 41
0.5
 72
     1
 11
93.367800000000003
 21
26.821999999999989
 31
0.0
  0
TEXT
  5
192
  8
_________2
 62
     7
 10
85.643199999999993
 20
31.818100000000001
 30
0.0
 40
3.0923400000000001
  1
単位
 41
0.5
  0
TEXT
  5
193
  8
_________2
 62
     7
 10
85.643199999999993
 20
19.410799999999991
 30
0.0
 40
3.0923400000000001
  1
尺度
 41
0.5
  0
TEXT
  5
194
  8
_________2
 62
     7
 10
90.548758666666686
 20
13.2179
 30
0.0
 40
3.6545800000000002
  1
1 ： 2
 41
0.5
 72
     1
 11
93.959699999999998
 21
13.2179
 31
0.0
  0
TEXT
  5
195
  8
_________2
 62
     7
 10
135.67760000000001
 20
9.1078600000000005
 30
0.0
 40
3.9357000000000002
  1
VL.RB1CDR
 41
0.5
 72
     1
 11
143.54900000000001
 21
9.1078600000000005
 31
0.0
  0
TEXT
  5
196
  8
_________2
 62
     7
 10
136.00557499999991
 20
-0.8926299999999999
 30
0.0
 40
3.9357000000000002
  1
VLRB1CDR
 41
0.5
 72
     1
 11
143.54900000000001
 21
-0.8926299999999999
 31
0.0
  0
TEXT
  5
197
  8
_________2
 62
     7
 10
24.5868
 20
0.707283
 30
0.0
 40
3.9357000000000002
  1
（社）日本水道協会認証品
 41
0.5
  0
TEXT
  5
198
  8
_________2
 62
     7
 10
109.1779999999999
 20
24.2257
 30
0.0
 40
3.9357000000000002
  1
ボラ　立水栓
 41
0.5
  0
TEXT
  5
199
  8
_________2
 62
     7
 10
39.425300333333333
 20
13.603
 30
0.0
 40
3.6545800000000002
  1
早川
 41
0.5
 72
     1
 11
41.313499999999998
 21
13.603
 31
0.0
  0
TEXT
  5
19A
  8
_________2
 62
     7
 10
20.789690666666662
 20
13.603
 30
0.0
 40
3.6545800000000002
  1
石原
 41
0.5
 72
     1
 11
22.738800000000001
 21
13.603
 31
0.0
  0
TEXT
  5
19B
  8
_________2
 62
     7
 10
67.7851
 20
13.2179
 30
0.0
 40
3.6545800000000002
  1
14.01.14
 41
0.5
  0
TEXT
  5
19C
  8
_________2
 62
     7
 10
66.593100000000007
 20
19.410799999999991
 30
0.0
 40
3.0923400000000001
  1
日付
 41
0.5
  0
TEXT
  5
19D
  8
_________2
 62
     7
 10
29.639399999999998
 20
19.410799999999991
 30
0.0
 40
3.0923400000000001
  1
検図
 41
0.5
  0
TEXT
  5
19E
  8
_________2
 62
     7
 10
18.021100000000001
 20
5.21143
 30
0.0
 40
3.0923400000000001
  1
備考
 41
0.5
  0
TEXT
  5
19F
  8
_________2
 62
     7
 10
18.021100000000001
 20
19.410799999999991
 30
0.0
 40
3.0923400000000001
  1
製図
 41
0.5
  0
TEXT
  5
1A0
  8
_________2
 62
     7
 10
23.788465333333338
 20
27.936800000000002
 30
0.0
 40
4.4979399999999989
  1
セラトレーディング株式会社
 41
0.5
 72
     1
 11
41.180500000000002
 21
27.936800000000002
 31
0.0
  0
LINE
  5
1A1
  8
_________2
 62
     7
 10
183.55099999999999
 20
-4.0910799999999998
 30
0.0
 11
17.049499999999998
 21
-4.0910799999999998
 31
0.0
  0
LINE
  5
1A2
  8
_________2
 62
     7
 10
17.049499999999998
 20
-4.0910799999999998
 30
0.0
 11
17.049499999999998
 21
258.911
 31
0.0
  0
LINE
  5
1A3
  8
_________2
 62
     7
 10
17.049499999999998
 20
258.911
 30
0.0
 11
183.55099999999999
 21
258.911
 31
0.0
  0
LINE
  5
1A4
  8
_________2
 62
     7
 10
183.55099999999999
 20
258.911
 30
0.0
 11
183.55099999999999
 21
-4.0910799999999998
 31
0.0
  0
LINE
  5
1A5
  8
_________2
 62
     7
 10
65.549199999999999
 20
9.4089600000000004
 30
0.0
 11
65.549199999999999
 21
35.908799999999999
 31
0.0
  0
LINE
  5
1A6
  8
_________2
 62
     7
 10
84.549700000000016
 20
9.4089600000000004
 30
0.0
 11
84.549700000000016
 21
35.908799999999999
 31
0.0
  0
LINE
  5
1A7
  8
_________2
 62
     7
 10
103.55
 20
-4.0910799999999998
 30
0.0
 11
103.55
 21
35.908799999999999
 31
0.0
  0
LINE
  5
1A8
  8
_________2
 62
     7
 10
28.549299999999992
 20
9.4089600000000004
 30
0.0
 11
28.549299999999992
 21
23.409199999999998
 31
0.0
  0
LINE
  5
1A9
  8
_________2
 62
     7
 10
17.049499999999998
 20
9.4089600000000004
 30
0.0
 11
103.55
 21
9.4089600000000004
 31
0.0
  0
LINE
  5
1AA
  8
_________2
 62
     7
 10
17.049499999999998
 20
23.409199999999998
 30
0.0
 11
103.55
 21
23.409199999999998
 31
0.0
  0
LINE
  5
1AB
  8
_________2
 62
     7
 10
103.55
 20
15.9085
 30
0.0
 11
183.55099999999999
 21
15.9085
 31
0.0
  0
LINE
  5
1AC
  8
_________2
 62
     7
 10
17.049499999999998
 20
35.908799999999999
 30
0.0
 11
183.55099999999999
 21
35.908799999999999
 31
0.0
  0
TEXT
  5
1AD
  8
_________2
 62
     7
 10
141.05480999999989
 20
39.068699999999993
 30
0.0
 40
3.9357000000000002
  1
注：色番号はカタログを参照ください
 41
0.5
 72
     2
 11
180.54300000000001
 21
39.068699999999993
 31
0.0
  0
ENDSEC
  0
EOF
