  0
SECTION
  2
HEADER
  9
$ACADVER
  1
AC1015
  9
$ACADMAINTVER
 70
     6
  9
$DWGCODEPAGE
  3
ANSI_932
  9
$INSBASE
 10
0.0
 20
0.0
 30
0.0
  9
$EXTMIN
 10
-104.8064164201962
 20
0.1723136102089029
 30
-0.0015258207003583
  9
$EXTMAX
 10
315.2197183759763
 20
297.1853697928802
 30
0.0000000349246037
  9
$LIMMIN
 10
0.0
 20
0.0
  9
$LIMMAX
 10
12.0
 20
9.0
  9
$ORTHOMODE
 70
     0
  9
$REGENMODE
 70
     1
  9
$FILLMODE
 70
     1
  9
$QTEXTMODE
 70
     0
  9
$MIRRTEXT
 70
     0
  9
$LTSCALE
 40
1.0
  9
$ATTMODE
 70
     1
  9
$TEXTSIZE
 40
0.2
  9
$TRACEWID
 40
0.05
  9
$TEXTSTYLE
  7
STANDARD
  9
$CLAYER
  8
0
  9
$CELTYPE
  6
Continuous
  9
$CECOLOR
 62
   256
  9
$CELTSCALE
 40
1.0
  9
$DISPSILH
 70
     0
  9
$DIMSCALE
 40
1.0
  9
$DIMASZ
 40
0.18
  9
$DIMEXO
 40
0.0625
  9
$DIMDLI
 40
0.38
  9
$DIMRND
 40
0.0
  9
$DIMDLE
 40
0.0
  9
$DIMEXE
 40
0.18
  9
$DIMTP
 40
0.0
  9
$DIMTM
 40
0.0
  9
$DIMTXT
 40
0.18
  9
$DIMCEN
 40
0.09
  9
$DIMTSZ
 40
0.0
  9
$DIMTOL
 70
     0
  9
$DIMLIM
 70
     0
  9
$DIMTIH
 70
     1
  9
$DIMTOH
 70
     1
  9
$DIMSE1
 70
     0
  9
$DIMSE2
 70
     0
  9
$DIMTAD
 70
     0
  9
$DIMZIN
 70
     0
  9
$DIMBLK
  1

  9
$DIMASO
 70
     1
  9
$DIMSHO
 70
     1
  9
$DIMPOST
  1

  9
$DIMAPOST
  1

  9
$DIMALT
 70
     0
  9
$DIMALTD
 70
     2
  9
$DIMALTF
 40
25.4
  9
$DIMLFAC
 40
1.0
  9
$DIMTOFL
 70
     0
  9
$DIMTVP
 40
0.0
  9
$DIMTIX
 70
     0
  9
$DIMSOXD
 70
     0
  9
$DIMSAH
 70
     0
  9
$DIMBLK1
  1

  9
$DIMBLK2
  1

  9
$DIMSTYLE
  2
Standard
  9
$DIMCLRD
 70
     0
  9
$DIMCLRE
 70
     0
  9
$DIMCLRT
 70
     0
  9
$DIMTFAC
 40
1.0
  9
$DIMGAP
 40
0.09
  9
$DIMJUST
 70
     0
  9
$DIMSD1
 70
     0
  9
$DIMSD2
 70
     0
  9
$DIMTOLJ
 70
     1
  9
$DIMTZIN
 70
     0
  9
$DIMALTZ
 70
     0
  9
$DIMALTTZ
 70
     0
  9
$DIMUPT
 70
     0
  9
$DIMDEC
 70
     4
  9
$DIMTDEC
 70
     4
  9
$DIMALTU
 70
     2
  9
$DIMALTTD
 70
     2
  9
$DIMTXSTY
  7
STANDARD
  9
$DIMAUNIT
 70
     0
  9
$DIMADEC
 70
     0
  9
$DIMALTRND
 40
0.0
  9
$DIMAZIN
 70
     0
  9
$DIMDSEP
 70
    46
  9
$DIMATFIT
 70
     3
  9
$DIMFRAC
 70
     0
  9
$DIMLDRBLK
  1

  9
$DIMLUNIT
 70
     2
  9
$DIMLWD
 70
    -2
  9
$DIMLWE
 70
    -2
  9
$DIMTMOVE
 70
     0
  9
$LUNITS
 70
     2
  9
$LUPREC
 70
     4
  9
$SKETCHINC
 40
0.1
  9
$FILLETRAD
 40
0.0
  9
$AUNITS
 70
     0
  9
$AUPREC
 70
     0
  9
$MENU
  1
.
  9
$ELEVATION
 40
0.0
  9
$PELEVATION
 40
0.0
  9
$THICKNESS
 40
0.0
  9
$LIMCHECK
 70
     0
  9
$CHAMFERA
 40
0.0
  9
$CHAMFERB
 40
0.0
  9
$CHAMFERC
 40
0.0
  9
$CHAMFERD
 40
0.0
  9
$SKPOLY
 70
     0
  9
$TDCREATE
 40
2460243.438333333
  9
$TDUCREATE
 40
2460243.063333333
  9
$TDUPDATE
 40
2460339.818256863
  9
$TDUUPDATE
 40
2460339.443256863
  9
$TDINDWG
 40
0.0002199074
  9
$TDUSRTIMER
 40
0.0002199074
  9
$USRTIMER
 70
     1
  9
$ANGBASE
 50
0.0
  9
$ANGDIR
 70
     0
  9
$PDMODE
 70
     0
  9
$PDSIZE
 40
0.0
  9
$PLINEWID
 40
0.0
  9
$SPLFRAME
 70
     0
  9
$SPLINETYPE
 70
     6
  9
$SPLINESEGS
 70
     8
  9
$HANDSEED
  5
47B
  9
$SURFTAB1
 70
     6
  9
$SURFTAB2
 70
     6
  9
$SURFTYPE
 70
     6
  9
$SURFU
 70
     6
  9
$SURFV
 70
     6
  9
$UCSBASE
  2

  9
$UCSNAME
  2

  9
$UCSORG
 10
0.0
 20
0.0
 30
0.0
  9
$UCSXDIR
 10
1.0
 20
0.0
 30
0.0
  9
$UCSYDIR
 10
0.0
 20
1.0
 30
0.0
  9
$UCSORTHOREF
  2

  9
$UCSORTHOVIEW
 70
     0
  9
$UCSORGTOP
 10
0.0
 20
0.0
 30
0.0
  9
$UCSORGBOTTOM
 10
0.0
 20
0.0
 30
0.0
  9
$UCSORGLEFT
 10
0.0
 20
0.0
 30
0.0
  9
$UCSORGRIGHT
 10
0.0
 20
0.0
 30
0.0
  9
$UCSORGFRONT
 10
0.0
 20
0.0
 30
0.0
  9
$UCSORGBACK
 10
0.0
 20
0.0
 30
0.0
  9
$PUCSBASE
  2

  9
$PUCSNAME
  2

  9
$PUCSORG
 10
0.0
 20
0.0
 30
0.0
  9
$PUCSXDIR
 10
1.0
 20
0.0
 30
0.0
  9
$PUCSYDIR
 10
0.0
 20
1.0
 30
0.0
  9
$PUCSORTHOREF
  2

  9
$PUCSORTHOVIEW
 70
     0
  9
$PUCSORGTOP
 10
0.0
 20
0.0
 30
0.0
  9
$PUCSORGBOTTOM
 10
0.0
 20
0.0
 30
0.0
  9
$PUCSORGLEFT
 10
0.0
 20
0.0
 30
0.0
  9
$PUCSORGRIGHT
 10
0.0
 20
0.0
 30
0.0
  9
$PUCSORGFRONT
 10
0.0
 20
0.0
 30
0.0
  9
$PUCSORGBACK
 10
0.0
 20
0.0
 30
0.0
  9
$USERI1
 70
     0
  9
$USERI2
 70
     0
  9
$USERI3
 70
     0
  9
$USERI4
 70
     0
  9
$USERI5
 70
     0
  9
$USERR1
 40
0.0
  9
$USERR2
 40
0.0
  9
$USERR3
 40
0.0
  9
$USERR4
 40
0.0
  9
$USERR5
 40
0.0
  9
$WORLDVIEW
 70
     1
  9
$SHADEDGE
 70
     3
  9
$SHADEDIF
 70
    70
  9
$TILEMODE
 70
     1
  9
$MAXACTVP
 70
    64
  9
$PINSBASE
 10
0.0
 20
0.0
 30
0.0
  9
$PLIMCHECK
 70
     0
  9
$PEXTMIN
 10
1.000000000000000E+20
 20
1.000000000000000E+20
 30
1.000000000000000E+20
  9
$PEXTMAX
 10
-1.000000000000000E+20
 20
-1.000000000000000E+20
 30
-1.000000000000000E+20
  9
$PLIMMIN
 10
0.0
 20
0.0
  9
$PLIMMAX
 10
12.0
 20
9.0
  9
$UNITMODE
 70
     0
  9
$VISRETAIN
 70
     1
  9
$PLINEGEN
 70
     0
  9
$PSLTSCALE
 70
     1
  9
$TREEDEPTH
 70
  3020
  9
$CMLSTYLE
  2
Standard
  9
$CMLJUST
 70
     0
  9
$CMLSCALE
 40
1.0
  9
$PROXYGRAPHICS
 70
     1
  9
$MEASUREMENT
 70
     0
  9
$CELWEIGHT
370
    -1
  9
$ENDCAPS
280
     0
  9
$JOINSTYLE
280
     0
  9
$LWDISPLAY
290
     0
  9
$INSUNITS
 70
     0
  9
$HYPERLINKBASE
  1

  9
$STYLESHEET
  1

  9
$XEDIT
290
     1
  9
$CEPSNTYPE
380
     0
  9
$PSTYLEMODE
290
     1
  9
$FINGERPRINTGUID
  2
{78451D7E-AC0C-D64C-A5FB-F4BB1F052E56}
  9
$VERSIONGUID
  2
{A1EAA461-89BE-2342-84BE-6B91B9EEE0F5}
  9
$EXTNAMES
290
     1
  9
$PSVPSCALE
 40
0.0
  9
$OLESTARTUP
290
     0
  0
ENDSEC
  0
SECTION
  2
CLASSES
  0
CLASS
  1
ACDBDICTIONARYWDFLT
  2
AcDbDictionaryWithDefault
  3
ObjectDBX Classes
 90
        0
280
     0
281
     0
  0
CLASS
  1
MATERIAL
  2
AcDbMaterial
  3
ObjectDBX Classes
 90
     1153
280
     0
281
     0
  0
CLASS
  1
VISUALSTYLE
  2
AcDbVisualStyle
  3
ObjectDBX Classes
 90
     4095
280
     0
281
     0
  0
CLASS
  1
SCALE
  2
AcDbScale
  3
ObjectDBX Classes
 90
     1153
280
     0
281
     0
  0
CLASS
  1
TABLESTYLE
  2
AcDbTableStyle
  3
ObjectDBX Classes
 90
     4095
280
     0
281
     0
  0
CLASS
  1
MLEADERSTYLE
  2
AcDbMLeaderStyle
  3
ACDB_MLEADERSTYLE_CLASS
 90
     4095
280
     0
281
     0
  0
CLASS
  1
ACDBSECTIONVIEWSTYLE
  2
AcDbSectionViewStyle
  3
ObjectDBX Classes
 90
     1025
280
     0
281
     0
  0
CLASS
  1
ACDBDETAILVIEWSTYLE
  2
AcDbDetailViewStyle
  3
ObjectDBX Classes
 90
     1025
280
     0
281
     0
  0
CLASS
  1
CELLSTYLEMAP
  2
AcDbCellStyleMap
  3
ObjectDBX Classes
 90
     1152
280
     0
281
     0
  0
CLASS
  1
DICTIONARYVAR
  2
AcDbDictionaryVar
  3
ObjectDBX Classes
 90
        0
280
     0
281
     0
  0
CLASS
  1
ACDBPLACEHOLDER
  2
AcDbPlaceHolder
  3
ObjectDBX Classes
 90
        0
280
     0
281
     0
  0
CLASS
  1
LAYOUT
  2
AcDbLayout
  3
ObjectDBX Classes
 90
        0
280
     0
281
     0
  0
ENDSEC
  0
SECTION
  2
TABLES
  0
TABLE
  2
VPORT
  5
8
102
{ACAD_XDICTIONARY
360
43E
102
}
330
0
100
AcDbSymbolTable
 70
     1
  0
VPORT
  5
90
330
8
100
AcDbSymbolTableRecord
100
AcDbViewportTableRecord
  2
*Active
 70
     0
 10
0.0
 20
0.0
 11
1.0
 21
1.0
 12
105.20665097789
 22
148.6788417015446
 13
0.0
 23
0.0
 14
1.0
 24
1.0
 15
0.0
 25
0.0
 16
0.0
 26
0.0
 36
1.0
 17
0.0
 27
0.0
 37
0.0
 40
298.9313321106541
 41
1.62823275862069
 42
50.0
 43
0.0
 44
0.0
 50
0.0
 51
0.0
 71
     0
 72
   100
 73
     1
 74
     0
 75
     1
 76
     0
 77
     0
 78
     0
281
     0
 65
     1
110
0.0
120
0.0
130
0.0
111
1.0
121
0.0
131
0.0
112
0.0
122
1.0
132
0.0
 79
     0
146
0.0
1001
ACAD_NAV_VCDISPLAY
1070
     3
  0
ENDTAB
  0
TABLE
  2
LTYPE
  5
5
330
0
100
AcDbSymbolTable
 70
    24
  0
LTYPE
  5
5A
330
5
100
AcDbSymbolTableRecord
100
AcDbLinetypeTableRecord
  2
ByBlock
 70
     0
  3

 72
    65
 73
     0
 40
0.0
  0
LTYPE
  5
5B
330
5
100
AcDbSymbolTableRecord
100
AcDbLinetypeTableRecord
  2
ByLayer
 70
     0
  3

 72
    65
 73
     0
 40
0.0
  0
LTYPE
  5
5C
330
5
100
AcDbSymbolTableRecord
100
AcDbLinetypeTableRecord
  2
Continuous
 70
     0
  3
Solid line
 72
    65
 73
     0
 40
0.0
  0
LTYPE
  5
73
330
5
100
AcDbSymbolTableRecord
100
AcDbLinetypeTableRecord
  2
AIGENLINE001
 70
     0
  3
generate AI->DXF Converter
 72
    65
 73
     2
 40
1.7677
 49
0.8839
 74
     0
 49
-0.8839
 74
     0
  0
LTYPE
  5
74
330
5
100
AcDbSymbolTableRecord
100
AcDbLinetypeTableRecord
  2
AIGENLINE002
 70
     0
  3
generate AI->DXF Converter
 72
    65
 73
     4
 40
6.6692
 49
4.0176
 74
     0
 49
-0.8839
 74
     0
 49
0.8839
 74
     0
 49
-0.8839
 74
     0
  0
LTYPE
  5
75
330
5
100
AcDbSymbolTableRecord
100
AcDbLinetypeTableRecord
  2
AIGENLINE003
 70
     0
  3
generate AI->DXF Converter
 72
    65
 73
     2
 40
1.4771
 49
0.7386
 74
     0
 49
-0.7386
 74
     0
  0
LTYPE
  5
76
330
5
100
AcDbSymbolTableRecord
100
AcDbLinetypeTableRecord
  2
AIGENLINE004
 70
     0
  3
generate AI->DXF Converter
 72
    65
 73
     4
 40
5.5727
 49
3.3571
 74
     0
 49
-0.7386
 74
     0
 49
0.7386
 74
     0
 49
-0.7386
 74
     0
  0
LTYPE
  5
77
330
5
100
AcDbSymbolTableRecord
100
AcDbLinetypeTableRecord
  2
AIGENLINE005
 70
     0
  3
generate AI->DXF Converter
 72
    65
 73
     2
 40
1.5315
 49
0.7658
 74
     0
 49
-0.7658
 74
     0
  0
LTYPE
  5
78
330
5
100
AcDbSymbolTableRecord
100
AcDbLinetypeTableRecord
  2
AIGENLINE006
 70
     0
  3
generate AI->DXF Converter
 72
    65
 73
     4
 40
5.7781
 49
3.4808
 74
     0
 49
-0.7658
 74
     0
 49
0.7658
 74
     0
 49
-0.7658
 74
     0
  0
LTYPE
  5
79
330
5
100
AcDbSymbolTableRecord
100
AcDbLinetypeTableRecord
  2
AIGENLINE007
 70
     0
  3
generate AI->DXF Converter
 72
    65
 73
     2
 40
1.1827
 49
0.5913
 74
     0
 49
-0.5913
 74
     0
  0
LTYPE
  5
7A
330
5
100
AcDbSymbolTableRecord
100
AcDbLinetypeTableRecord
  2
AIGENLINE008
 70
     0
  3
generate AI->DXF Converter
 72
    65
 73
     4
 40
4.462
 49
2.6879
 74
     0
 49
-0.5913
 74
     0
 49
0.5913
 74
     0
 49
-0.5913
 74
     0
  0
LTYPE
  5
7B
330
5
100
AcDbSymbolTableRecord
100
AcDbLinetypeTableRecord
  2
AIGENLINE009
 70
     0
  3
generate AI->DXF Converter
 72
    65
 73
     2
 40
1.5349
 49
0.7675
 74
     0
 49
-0.7675
 74
     0
  0
LTYPE
  5
7C
330
5
100
AcDbSymbolTableRecord
100
AcDbLinetypeTableRecord
  2
AIGENLINE010
 70
     0
  3
generate AI->DXF Converter
 72
    65
 73
     4
 40
5.7908
 49
3.4884
 74
     0
 49
-0.7675
 74
     0
 49
0.7675
 74
     0
 49
-0.7675
 74
     0
  0
LTYPE
  5
7D
330
5
100
AcDbSymbolTableRecord
100
AcDbLinetypeTableRecord
  2
AIGENLINE011
 70
     0
  3
generate AI->DXF Converter
 72
    65
 73
     2
 40
1.7492
 49
0.8746
 74
     0
 49
-0.8746
 74
     0
  0
LTYPE
  5
7E
330
5
100
AcDbSymbolTableRecord
100
AcDbLinetypeTableRecord
  2
AIGENLINE012
 70
     0
  3
generate AI->DXF Converter
 72
    65
 73
     4
 40
6.5993
 49
3.9755
 74
     0
 49
-0.8746
 74
     0
 49
0.8746
 74
     0
 49
-0.8746
 74
     0
  0
LTYPE
  5
7F
330
5
100
AcDbSymbolTableRecord
100
AcDbLinetypeTableRecord
  2
AIGENLINE013
 70
     0
  3
generate AI->DXF Converter
 72
    65
 73
     2
 40
1.3691
 49
0.6845
 74
     0
 49
-0.6845
 74
     0
  0
LTYPE
  5
80
330
5
100
AcDbSymbolTableRecord
100
AcDbLinetypeTableRecord
  2
AIGENLINE014
 70
     0
  3
generate AI->DXF Converter
 72
    65
 73
     4
 40
5.1652
 49
3.1116
 74
     0
 49
-0.6845
 74
     0
 49
0.6845
 74
     0
 49
-0.6845
 74
     0
  0
LTYPE
  5
81
330
5
100
AcDbSymbolTableRecord
100
AcDbLinetypeTableRecord
  2
AIGENLINE015
 70
     0
  3
generate AI->DXF Converter
 72
    65
 73
     2
 40
1.4425
 49
0.7213
 74
     0
 49
-0.7213
 74
     0
  0
LTYPE
  5
82
330
5
100
AcDbSymbolTableRecord
100
AcDbLinetypeTableRecord
  2
AIGENLINE016
 70
     0
  3
generate AI->DXF Converter
 72
    65
 73
     4
 40
5.4423
 49
3.2785
 74
     0
 49
-0.7213
 74
     0
 49
0.7213
 74
     0
 49
-0.7213
 74
     0
  0
LTYPE
  5
83
330
5
100
AcDbSymbolTableRecord
100
AcDbLinetypeTableRecord
  2
AIGENLINE017
 70
     0
  3
generate AI->DXF Converter
 72
    65
 73
     2
 40
1.4532
 49
0.7266
 74
     0
 49
-0.7266
 74
     0
  0
LTYPE
  5
84
330
5
100
AcDbSymbolTableRecord
100
AcDbLinetypeTableRecord
  2
AIGENLINE018
 70
     0
  3
generate AI->DXF Converter
 72
    65
 73
     2
 40
1.5867
 49
0.7934
 74
     0
 49
-0.7934
 74
     0
  0
LTYPE
  5
85
330
5
100
AcDbSymbolTableRecord
100
AcDbLinetypeTableRecord
  2
AIGENLINE019
 70
     0
  3
generate AI->DXF Converter
 72
    65
 73
     4
 40
5.9863
 49
3.6062
 74
     0
 49
-0.7934
 74
     0
 49
0.7934
 74
     0
 49
-0.7934
 74
     0
  0
LTYPE
  5
86
330
5
100
AcDbSymbolTableRecord
100
AcDbLinetypeTableRecord
  2
AIGENLINE020
 70
     0
  3
generate AI->DXF Converter
 72
    65
 73
     2
 40
1.1004
 49
0.5502
 74
     0
 49
-0.5502
 74
     0
  0
LTYPE
  5
87
330
5
100
AcDbSymbolTableRecord
100
AcDbLinetypeTableRecord
  2
AIGENLINE021
 70
     0
  3
generate AI->DXF Converter
 72
    65
 73
     4
 40
4.1516
 49
2.5009
 74
     0
 49
-0.5502
 74
     0
 49
0.5502
 74
     0
 49
-0.5502
 74
     0
  0
LTYPE
  5
88
330
5
100
AcDbSymbolTableRecord
100
AcDbLinetypeTableRecord
  2
AIGENLINE022
 70
     0
  3
generate AI->DXF Converter
 72
    65
 73
     6
 40
7.4083
 49
3.5278
 74
     0
 49
-0.7761
 74
     0
 49
0.7761
 74
     0
 49
-0.7761
 74
     0
 49
0.7761
 74
     0
 49
-0.7761
 74
     0
  0
LTYPE
  5
89
330
5
100
AcDbSymbolTableRecord
100
AcDbLinetypeTableRecord
  2
AIGENLINE023
 70
     0
  3
generate AI->DXF Converter
 72
    65
 73
     4
 40
5.8561
 49
3.5278
 74
     0
 49
-0.7761
 74
     0
 49
0.7761
 74
     0
 49
-0.7761
 74
     0
  0
ENDTAB
  0
TABLE
  2
LAYER
  5
2
330
0
100
AcDbSymbolTable
 70
     6
  0
LAYER
  5
54
102
{ACAD_XDICTIONARY
360
3DE
102
}
330
2
100
AcDbSymbolTableRecord
100
AcDbLayerTableRecord
  2
0
 70
     0
 62
     7
  6
Continuous
370
    -3
390
F
  0
LAYER
  5
8A
102
{ACAD_XDICTIONARY
360
3E0
102
}
330
2
100
AcDbSymbolTableRecord
100
AcDbLayerTableRecord
  2
LAYER_1
 70
     0
 62
     7
  6
Continuous
370
    -3
390
F
  0
LAYER
  5
8B
102
{ACAD_XDICTIONARY
360
3E2
102
}
330
2
100
AcDbSymbolTableRecord
100
AcDbLayerTableRecord
  2
LAYER_2
 70
     0
 62
     7
  6
Continuous
370
    -3
390
F
  0
LAYER
  5
8C
102
{ACAD_XDICTIONARY
360
3E4
102
}
330
2
100
AcDbSymbolTableRecord
100
AcDbLayerTableRecord
  2
LAYER_3
 70
     0
 62
     7
  6
Continuous
370
    -3
390
F
  0
LAYER
  5
8D
102
{ACAD_XDICTIONARY
360
3E6
102
}
330
2
100
AcDbSymbolTableRecord
100
AcDbLayerTableRecord
  2
LAYER_4
 70
     0
 62
     7
  6
Continuous
370
    -3
390
F
  0
LAYER
  5
3DD
102
{ACAD_XDICTIONARY
360
3E8
102
}
330
2
100
AcDbSymbolTableRecord
100
AcDbLayerTableRecord
  2
11
 70
     0
 62
     8
  6
Continuous
370
    -3
390
F
  0
ENDTAB
  0
TABLE
  2
STYLE
  5
3
330
0
100
AcDbSymbolTable
 70
     2
  0
STYLE
  5
55
330
3
100
AcDbSymbolTableRecord
100
AcDbTextStyleTableRecord
  2
STANDARD
 70
     0
 40
0.0
 41
1.0
 50
0.0
 71
     0
 42
0.0
  3
TXT
  4
BIGFONT
  0
STYLE
  5
59
330
3
100
AcDbSymbolTableRecord
100
AcDbTextStyleTableRecord
  2
Annotative
 70
     0
 40
0.0
 41
1.0
 50
0.0
 71
     0
 42
0.2
  3
txt
  4

1001
AcadAnnotative
1000
AnnotativeData
1002
{
1070
     1
1070
     1
1002
}
  0
ENDTAB
  0
TABLE
  2
VIEW
  5
6
330
0
100
AcDbSymbolTable
 70
     0
  0
ENDTAB
  0
TABLE
  2
UCS
  5
7
330
0
100
AcDbSymbolTable
 70
     0
  0
ENDTAB
  0
TABLE
  2
APPID
  5
9
330
0
100
AcDbSymbolTable
 70
     4
  0
APPID
  5
56
330
9
100
AcDbSymbolTableRecord
100
AcDbRegAppTableRecord
  2
ACAD
 70
     0
  0
APPID
  5
5D
330
9
100
AcDbSymbolTableRecord
100
AcDbRegAppTableRecord
  2
AcadAnnotative
 70
     0
  0
APPID
  5
3EA
330
9
100
AcDbSymbolTableRecord
100
AcDbRegAppTableRecord
  2
ACAD_NAV_VCDISPLAY
 70
     0
  0
APPID
  5
425
330
9
100
AcDbSymbolTableRecord
100
AcDbRegAppTableRecord
  2
ACAD_MLEADERVER
 70
     0
  0
ENDTAB
  0
TABLE
  2
DIMSTYLE
  5
A
330
0
100
AcDbSymbolTable
 70
     2
100
AcDbDimStyleTable
  0
DIMSTYLE
105
57
330
A
100
AcDbSymbolTableRecord
100
AcDbDimStyleTableRecord
  2
Standard
 70
     0
178
     0
340
55
  0
DIMSTYLE
105
58
330
A
100
AcDbSymbolTableRecord
100
AcDbDimStyleTableRecord
  2
Annotative
 70
     0
178
     0
340
55
1001
AcadAnnotative
1000
AnnotativeData
1002
{
1070
     1
1070
     1
1002
}
  0
ENDTAB
  0
TABLE
  2
BLOCK_RECORD
  5
1
330
0
100
AcDbSymbolTable
 70
    55
  0
BLOCK_RECORD
  5
6F
330
1
100
AcDbSymbolTableRecord
100
AcDbBlockTableRecord
  2
*Model_Space
340
72
  0
BLOCK_RECORD
  5
6B
330
1
100
AcDbSymbolTableRecord
100
AcDbBlockTableRecord
  2
*Paper_Space
340
6E
  0
BLOCK_RECORD
  5
91
330
1
100
AcDbSymbolTableRecord
100
AcDbBlockTableRecord
  2
AIGNBL03020003
340
0
102
{BLKREFS
331
157
102
}
  0
BLOCK_RECORD
  5
98
330
1
100
AcDbSymbolTableRecord
100
AcDbBlockTableRecord
  2
AIGNBL03020005
340
0
102
{BLKREFS
331
15B
102
}
  0
BLOCK_RECORD
  5
A2
330
1
100
AcDbSymbolTableRecord
100
AcDbBlockTableRecord
  2
AIGNBL03020007
340
0
102
{BLKREFS
331
15F
102
}
  0
BLOCK_RECORD
  5
A9
330
1
100
AcDbSymbolTableRecord
100
AcDbBlockTableRecord
  2
AIGNBL03020009
340
0
102
{BLKREFS
331
163
102
}
  0
BLOCK_RECORD
  5
B0
330
1
100
AcDbSymbolTableRecord
100
AcDbBlockTableRecord
  2
AIGNBL0302000C
340
0
102
{BLKREFS
331
16B
102
}
  0
BLOCK_RECORD
  5
B7
330
1
100
AcDbSymbolTableRecord
100
AcDbBlockTableRecord
  2
AIGNBL0302000E
340
0
102
{BLKREFS
331
16F
102
}
  0
BLOCK_RECORD
  5
BE
330
1
100
AcDbSymbolTableRecord
100
AcDbBlockTableRecord
  2
AIGNBL03020010
340
0
102
{BLKREFS
331
173
102
}
  0
BLOCK_RECORD
  5
C5
330
1
100
AcDbSymbolTableRecord
100
AcDbBlockTableRecord
  2
AIGNBL03020014
340
0
102
{BLKREFS
331
17F
102
}
  0
BLOCK_RECORD
  5
CF
330
1
100
AcDbSymbolTableRecord
100
AcDbBlockTableRecord
  2
AIGNBL03020017
340
0
102
{BLKREFS
331
192
102
}
  0
BLOCK_RECORD
  5
DF
330
1
100
AcDbSymbolTableRecord
100
AcDbBlockTableRecord
  2
AIGNBL0302001A
340
0
102
{BLKREFS
331
1A0
102
}
  0
BLOCK_RECORD
  5
E6
330
1
100
AcDbSymbolTableRecord
100
AcDbBlockTableRecord
  2
AIGNBL0302001C
340
0
102
{BLKREFS
331
1A4
102
}
  0
BLOCK_RECORD
  5
ED
330
1
100
AcDbSymbolTableRecord
100
AcDbBlockTableRecord
  2
AIGNBL0302001E
340
0
102
{BLKREFS
331
1A8
102
}
  0
BLOCK_RECORD
  5
F7
330
1
100
AcDbSymbolTableRecord
100
AcDbBlockTableRecord
  2
AIGNBL03020020
340
0
102
{BLKREFS
331
1AC
102
}
  0
BLOCK_RECORD
  5
101
330
1
100
AcDbSymbolTableRecord
100
AcDbBlockTableRecord
  2
AIGNBL03020023
340
0
102
{BLKREFS
331
1B9
102
}
  0
BLOCK_RECORD
  5
10A
330
1
100
AcDbSymbolTableRecord
100
AcDbBlockTableRecord
  2
AIGNBL03020028
340
0
102
{BLKREFS
331
21D
102
}
  0
BLOCK_RECORD
  5
110
330
1
100
AcDbSymbolTableRecord
100
AcDbBlockTableRecord
  2
AIGNBL0302002A
340
0
102
{BLKREFS
331
221
102
}
  0
BLOCK_RECORD
  5
117
330
1
100
AcDbSymbolTableRecord
100
AcDbBlockTableRecord
  2
AIGNBL0302002C
340
0
102
{BLKREFS
331
225
102
}
  0
BLOCK_RECORD
  5
11E
330
1
100
AcDbSymbolTableRecord
100
AcDbBlockTableRecord
  2
AIGNBL0302002E
340
0
102
{BLKREFS
331
229
102
}
  0
BLOCK_RECORD
  5
129
330
1
100
AcDbSymbolTableRecord
100
AcDbBlockTableRecord
  2
AIGNBL0302002F
340
0
102
{BLKREFS
331
22A
102
}
  0
BLOCK_RECORD
  5
12D
330
1
100
AcDbSymbolTableRecord
100
AcDbBlockTableRecord
  2
AIGNBL03020030
340
0
102
{BLKREFS
331
22B
102
}
  0
BLOCK_RECORD
  5
132
330
1
100
AcDbSymbolTableRecord
100
AcDbBlockTableRecord
  2
AIGNBL03020031
340
0
102
{BLKREFS
331
22C
102
}
  0
BLOCK_RECORD
  5
137
330
1
100
AcDbSymbolTableRecord
100
AcDbBlockTableRecord
  2
AIGNBL03020032
340
0
102
{BLKREFS
331
22D
102
}
  0
BLOCK_RECORD
  5
13C
330
1
100
AcDbSymbolTableRecord
100
AcDbBlockTableRecord
  2
AIGNBL03020033
340
0
102
{BLKREFS
331
22E
102
}
  0
BLOCK_RECORD
  5
141
330
1
100
AcDbSymbolTableRecord
100
AcDbBlockTableRecord
  2
AIGNBL03020034
340
0
102
{BLKREFS
331
22F
102
}
  0
BLOCK_RECORD
  5
146
330
1
100
AcDbSymbolTableRecord
100
AcDbBlockTableRecord
  2
AIGNBL03020035
340
0
102
{BLKREFS
331
230
102
}
  0
BLOCK_RECORD
  5
14B
330
1
100
AcDbSymbolTableRecord
100
AcDbBlockTableRecord
  2
AIGNBL03020036
340
0
102
{BLKREFS
331
231
102
}
  0
BLOCK_RECORD
  5
150
330
1
100
AcDbSymbolTableRecord
100
AcDbBlockTableRecord
  2
AIGNBL03020037
340
0
102
{BLKREFS
331
232
102
}
  0
BLOCK_RECORD
  5
155
330
1
100
AcDbSymbolTableRecord
100
AcDbBlockTableRecord
  2
AIGNBL03010002
340
0
102
{BLKREFS
331
268
102
}
  0
BLOCK_RECORD
  5
159
330
1
100
AcDbSymbolTableRecord
100
AcDbBlockTableRecord
  2
AIGNBL03010004
340
0
102
{BLKREFS
331
26A
102
}
  0
BLOCK_RECORD
  5
15D
330
1
100
AcDbSymbolTableRecord
100
AcDbBlockTableRecord
  2
AIGNBL03010006
340
0
102
{BLKREFS
331
26B
102
}
  0
BLOCK_RECORD
  5
161
330
1
100
AcDbSymbolTableRecord
100
AcDbBlockTableRecord
  2
AIGNBL03010008
340
0
102
{BLKREFS
331
270
102
}
  0
BLOCK_RECORD
  5
165
330
1
100
AcDbSymbolTableRecord
100
AcDbBlockTableRecord
  2
AIGNBL0301000A
340
0
102
{BLKREFS
331
273
102
}
  0
BLOCK_RECORD
  5
169
330
1
100
AcDbSymbolTableRecord
100
AcDbBlockTableRecord
  2
AIGNBL0301000B
340
0
102
{BLKREFS
331
274
102
}
  0
BLOCK_RECORD
  5
16D
330
1
100
AcDbSymbolTableRecord
100
AcDbBlockTableRecord
  2
AIGNBL0301000D
340
0
102
{BLKREFS
331
275
102
}
  0
BLOCK_RECORD
  5
171
330
1
100
AcDbSymbolTableRecord
100
AcDbBlockTableRecord
  2
AIGNBL0301000F
340
0
102
{BLKREFS
331
276
102
}
  0
BLOCK_RECORD
  5
175
330
1
100
AcDbSymbolTableRecord
100
AcDbBlockTableRecord
  2
AIGNBL03010011
340
0
102
{BLKREFS
331
277
102
}
  0
BLOCK_RECORD
  5
179
330
1
100
AcDbSymbolTableRecord
100
AcDbBlockTableRecord
  2
AIGNBL03010012
340
0
102
{BLKREFS
331
278
102
}
  0
BLOCK_RECORD
  5
17D
330
1
100
AcDbSymbolTableRecord
100
AcDbBlockTableRecord
  2
AIGNBL03010013
340
0
102
{BLKREFS
331
27A
102
}
  0
BLOCK_RECORD
  5
181
330
1
100
AcDbSymbolTableRecord
100
AcDbBlockTableRecord
  2
AIGNBL03010015
340
0
102
{BLKREFS
331
27C
102
}
  0
BLOCK_RECORD
  5
190
330
1
100
AcDbSymbolTableRecord
100
AcDbBlockTableRecord
  2
AIGNBL03010016
340
0
102
{BLKREFS
331
27D
102
}
  0
BLOCK_RECORD
  5
194
330
1
100
AcDbSymbolTableRecord
100
AcDbBlockTableRecord
  2
AIGNBL03010018
340
0
102
{BLKREFS
331
2AE
102
}
  0
BLOCK_RECORD
  5
19E
330
1
100
AcDbSymbolTableRecord
100
AcDbBlockTableRecord
  2
AIGNBL03010019
340
0
102
{BLKREFS
331
30B
102
}
  0
BLOCK_RECORD
  5
1A2
330
1
100
AcDbSymbolTableRecord
100
AcDbBlockTableRecord
  2
AIGNBL0301001B
340
0
102
{BLKREFS
331
30C
102
}
  0
BLOCK_RECORD
  5
1A6
330
1
100
AcDbSymbolTableRecord
100
AcDbBlockTableRecord
  2
AIGNBL0301001D
340
0
102
{BLKREFS
331
30F
102
}
  0
BLOCK_RECORD
  5
1AA
330
1
100
AcDbSymbolTableRecord
100
AcDbBlockTableRecord
  2
AIGNBL0301001F
340
0
102
{BLKREFS
331
311
102
}
  0
BLOCK_RECORD
  5
1AE
330
1
100
AcDbSymbolTableRecord
100
AcDbBlockTableRecord
  2
AIGNBL03010021
340
0
102
{BLKREFS
331
313
102
}
  0
BLOCK_RECORD
  5
1B7
330
1
100
AcDbSymbolTableRecord
100
AcDbBlockTableRecord
  2
AIGNBL03010022
340
0
102
{BLKREFS
331
320
102
}
  0
BLOCK_RECORD
  5
1BB
330
1
100
AcDbSymbolTableRecord
100
AcDbBlockTableRecord
  2
AIGNBL03010024
340
0
102
{BLKREFS
331
321
102
}
  0
BLOCK_RECORD
  5
1BF
330
1
100
AcDbSymbolTableRecord
100
AcDbBlockTableRecord
  2
AIGNBL03010025
340
0
102
{BLKREFS
331
324
102
}
  0
BLOCK_RECORD
  5
1FE
330
1
100
AcDbSymbolTableRecord
100
AcDbBlockTableRecord
  2
AIGNBL03010026
340
0
102
{BLKREFS
331
325
102
}
  0
BLOCK_RECORD
  5
21B
330
1
100
AcDbSymbolTableRecord
100
AcDbBlockTableRecord
  2
AIGNBL03010027
340
0
102
{BLKREFS
331
35E
102
}
  0
BLOCK_RECORD
  5
21F
330
1
100
AcDbSymbolTableRecord
100
AcDbBlockTableRecord
  2
AIGNBL03010029
340
0
102
{BLKREFS
331
363
102
}
  0
BLOCK_RECORD
  5
223
330
1
100
AcDbSymbolTableRecord
100
AcDbBlockTableRecord
  2
AIGNBL0301002B
340
0
102
{BLKREFS
331
36B
102
}
  0
BLOCK_RECORD
  5
227
330
1
100
AcDbSymbolTableRecord
100
AcDbBlockTableRecord
  2
AIGNBL0301002D
340
0
102
{BLKREFS
331
39B
102
}
  0
BLOCK_RECORD
  5
234
330
1
100
AcDbSymbolTableRecord
100
AcDbBlockTableRecord
  2
AIGNBL04010002
340
0
102
{BLKREFS
331
3C9
102
}
  0
ENDTAB
  0
ENDSEC
  0
SECTION
  2
BLOCKS
  0
BLOCK
  5
70
330
6F
100
AcDbEntity
  8
0
100
AcDbBlockBegin
  2
*Model_Space
 70
     0
 10
0.0
 20
0.0
 30
0.0
  3
*Model_Space
  1

  0
ENDBLK
  5
71
330
6F
100
AcDbEntity
  8
0
100
AcDbBlockEnd
  0
BLOCK
  5
6C
330
6B
100
AcDbEntity
 67
     1
  8
0
100
AcDbBlockBegin
  2
*Paper_Space
 70
     0
 10
0.0
 20
0.0
 30
0.0
  3
*Paper_Space
  1

  0
ENDBLK
  5
6D
330
6B
100
AcDbEntity
 67
     1
  8
0
100
AcDbBlockEnd
  0
BLOCK
  5
92
330
91
100
AcDbEntity
  8
LAYER_3
100
AcDbBlockBegin
  2
AIGNBL03020003
 70
     0
 10
0.0
 20
0.0
 30
0.0
  3
AIGNBL03020003
  1

  0
LINE
  5
93
330
91
100
AcDbEntity
  8
LAYER_3
100
AcDbLine
 10
-31.4382
 20
250.8521
 30
0.0
 11
-29.6743
 21
250.8521
 31
0.0
  0
LINE
  5
94
330
91
100
AcDbEntity
  8
LAYER_3
  6
AIGENLINE001
100
AcDbLine
 10
-28.7904
 20
250.8521
 30
0.0
 11
-27.4646
 21
250.8521
 31
0.0
  0
LINE
  5
95
330
91
100
AcDbEntity
  8
LAYER_3
  6
AIGENLINE002
100
AcDbLine
 10
-27.0227
 20
250.8521
 30
0.0
 11
-14.1262
 21
250.8521
 31
0.0
  0
LINE
  5
96
330
91
100
AcDbEntity
  8
LAYER_3
100
AcDbLine
 10
-13.6842
 20
250.8521
 30
0.0
 11
-11.9203
 21
250.8521
 31
0.0
  0
ENDBLK
  5
97
330
91
100
AcDbEntity
  8
0
100
AcDbBlockEnd
  0
BLOCK
  5
99
330
98
100
AcDbEntity
  8
LAYER_3
100
AcDbBlockBegin
  2
AIGNBL03020005
 70
     0
 10
0.0
 20
0.0
 30
0.0
  3
AIGNBL03020005
  1

  0
ARC
  5
9A
330
98
100
AcDbEntity
  8
LAYER_3
100
AcDbCircle
 10
-23.5014
 20
250.8521
 30
0.0
 40
13.6433
100
AcDbArc
 50
270.0000278
 51
359.9999722
  0
LINE
  5
9B
330
98
100
AcDbEntity
  8
LAYER_3
100
AcDbLine
 10
-21.3327
 20
237.9437
 30
0.0
 11
-23.5014
 21
237.2088
 31
0.0
  0
LINE
  5
9C
330
98
100
AcDbEntity
  8
LAYER_3
100
AcDbLine
 10
-23.5014
 20
237.2088
 30
0.0
 11
-21.2559
 21
236.761
 31
0.0
  0
LINE
  5
9D
330
98
100
AcDbEntity
  8
LAYER_3
100
AcDbLine
 10
-21.2559
 20
236.761
 30
0.0
 11
-21.3327
 21
237.9437
 31
0.0
  0
LINE
  5
9E
330
98
100
AcDbEntity
  8
LAYER_3
100
AcDbLine
 10
-9.3786
 20
248.6132
 30
0.0
 11
-9.8581
 21
250.8521
 31
0.0
  0
LINE
  5
9F
330
98
100
AcDbEntity
  8
LAYER_3
100
AcDbLine
 10
-9.8581
 20
250.8521
 30
0.0
 11
-10.5623
 21
248.6735
 31
0.0
  0
LINE
  5
A0
330
98
100
AcDbEntity
  8
LAYER_3
100
AcDbLine
 10
-10.5623
 20
248.6735
 30
0.0
 11
-9.3786
 21
248.6132
 31
0.0
  0
ENDBLK
  5
A1
330
98
100
AcDbEntity
  8
0
100
AcDbBlockEnd
  0
BLOCK
  5
A3
330
A2
100
AcDbEntity
  8
LAYER_3
100
AcDbBlockBegin
  2
AIGNBL03020007
 70
     0
 10
0.0
 20
0.0
 30
0.0
  3
AIGNBL03020007
  1

  0
LINE
  5
A4
330
A2
100
AcDbEntity
  8
LAYER_3
100
AcDbLine
 10
-23.5014
 20
257.5756
 30
0.0
 11
-23.5014
 21
255.8117
 31
0.0
  0
LINE
  5
A5
330
A2
100
AcDbEntity
  8
LAYER_3
  6
AIGENLINE003
100
AcDbLine
 10
-23.5014
 20
255.0731
 30
0.0
 11
-23.5014
 21
253.9653
 31
0.0
  0
LINE
  5
A6
330
A2
100
AcDbEntity
  8
LAYER_3
  6
AIGENLINE004
100
AcDbLine
 10
-23.5014
 20
253.596
 30
0.0
 11
-23.5014
 21
220.5288
 31
0.0
  0
LINE
  5
A7
330
A2
100
AcDbEntity
  8
LAYER_3
100
AcDbLine
 10
-23.5014
 20
220.1595
 30
0.0
 11
-23.5014
 21
218.3956
 31
0.0
  0
ENDBLK
  5
A8
330
A2
100
AcDbEntity
  8
0
100
AcDbBlockEnd
  0
BLOCK
  5
AA
330
A9
100
AcDbEntity
  8
LAYER_3
100
AcDbBlockBegin
  2
AIGNBL03020009
 70
     0
 10
0.0
 20
0.0
 30
0.0
  3
AIGNBL03020009
  1

  0
LINE
  5
AB
330
A9
100
AcDbEntity
  8
LAYER_3
100
AcDbLine
 10
-23.5014
 20
190.4136
 30
0.0
 11
-23.5014
 21
188.6497
 31
0.0
  0
LINE
  5
AC
330
A9
100
AcDbEntity
  8
LAYER_3
  6
AIGENLINE005
100
AcDbLine
 10
-23.5014
 20
187.884
 30
0.0
 11
-23.5014
 21
186.7353
 31
0.0
  0
LINE
  5
AD
330
A9
100
AcDbEntity
  8
LAYER_3
  6
AIGENLINE006
100
AcDbLine
 10
-23.5014
 20
186.3524
 30
0.0
 11
-23.5014
 21
42.2835
 31
0.0
  0
LINE
  5
AE
330
A9
100
AcDbEntity
  8
LAYER_3
100
AcDbLine
 10
-23.5014
 20
41.9007
 30
0.0
 11
-23.5014
 21
40.1368
 31
0.0
  0
ENDBLK
  5
AF
330
A9
100
AcDbEntity
  8
0
100
AcDbBlockEnd
  0
BLOCK
  5
B1
330
B0
100
AcDbEntity
  8
LAYER_3
100
AcDbBlockBegin
  2
AIGNBL0302000C
 70
     0
 10
0.0
 20
0.0
 30
0.0
  3
AIGNBL0302000C
  1

  0
LINE
  5
B2
330
B0
100
AcDbEntity
  8
LAYER_3
100
AcDbLine
 10
67.1129
 20
164.5157
 30
0.0
 11
67.1129
 21
162.7518
 31
0.0
  0
LINE
  5
B3
330
B0
100
AcDbEntity
  8
LAYER_3
  6
AIGENLINE007
100
AcDbLine
 10
67.1129
 20
162.1605
 30
0.0
 11
67.1129
 21
161.2735
 31
0.0
  0
LINE
  5
B4
330
B0
100
AcDbEntity
  8
LAYER_3
  6
AIGENLINE008
100
AcDbLine
 10
67.1129
 20
160.9778
 30
0.0
 11
67.1129
 21
156.8115
 31
0.0
  0
LINE
  5
B5
330
B0
100
AcDbEntity
  8
LAYER_3
100
AcDbLine
 10
67.1129
 20
156.5158
 30
0.0
 11
67.1129
 21
154.752
 31
0.0
  0
ENDBLK
  5
B6
330
B0
100
AcDbEntity
  8
0
100
AcDbBlockEnd
  0
BLOCK
  5
B8
330
B7
100
AcDbEntity
  8
LAYER_3
100
AcDbBlockBegin
  2
AIGNBL0302000E
 70
     0
 10
0.0
 20
0.0
 30
0.0
  3
AIGNBL0302000E
  1

  0
LINE
  5
B9
330
B7
100
AcDbEntity
  8
LAYER_3
100
AcDbLine
 10
67.1129
 20
150.0112
 30
0.0
 11
67.1129
 21
148.2474
 31
0.0
  0
LINE
  5
BA
330
B7
100
AcDbEntity
  8
LAYER_3
  6
AIGENLINE009
100
AcDbLine
 10
67.1129
 20
147.4799
 30
0.0
 11
67.1129
 21
146.3287
 31
0.0
  0
LINE
  5
BB
330
B7
100
AcDbEntity
  8
LAYER_3
  6
AIGENLINE010
100
AcDbLine
 10
67.1129
 20
145.945
 30
0.0
 11
67.1129
 21
42.0949
 31
0.0
  0
LINE
  5
BC
330
B7
100
AcDbEntity
  8
LAYER_3
100
AcDbLine
 10
67.1129
 20
41.7112
 30
0.0
 11
67.1129
 21
39.9473
 31
0.0
  0
ENDBLK
  5
BD
330
B7
100
AcDbEntity
  8
0
100
AcDbBlockEnd
  0
BLOCK
  5
BF
330
BE
100
AcDbEntity
  8
LAYER_3
100
AcDbBlockBegin
  2
AIGNBL03020010
 70
     0
 10
0.0
 20
0.0
 30
0.0
  3
AIGNBL03020010
  1

  0
LINE
  5
C0
330
BE
100
AcDbEntity
  8
LAYER_3
100
AcDbLine
 10
67.1129
 20
189.1492
 30
0.0
 11
67.1129
 21
187.3853
 31
0.0
  0
LINE
  5
C1
330
BE
100
AcDbEntity
  8
LAYER_3
  6
AIGENLINE011
100
AcDbLine
 10
67.1129
 20
186.5107
 30
0.0
 11
67.1129
 21
185.1988
 31
0.0
  0
LINE
  5
C2
330
BE
100
AcDbEntity
  8
LAYER_3
  6
AIGENLINE012
100
AcDbLine
 10
67.1129
 20
184.7615
 30
0.0
 11
67.1129
 21
172.0003
 31
0.0
  0
LINE
  5
C3
330
BE
100
AcDbEntity
  8
LAYER_3
100
AcDbLine
 10
67.1129
 20
171.563
 30
0.0
 11
67.1129
 21
169.7991
 31
0.0
  0
ENDBLK
  5
C4
330
BE
100
AcDbEntity
  8
0
100
AcDbBlockEnd
  0
BLOCK
  5
C6
330
C5
100
AcDbEntity
  8
LAYER_3
100
AcDbBlockBegin
  2
AIGNBL03020014
 70
     0
 10
0.0
 20
0.0
 30
0.0
  3
AIGNBL03020014
  1

  0
LINE
  5
C7
330
C5
100
AcDbEntity
  8
LAYER_3
100
AcDbLine
 10
61.8254
 20
256.1403
 30
0.0
 11
64.2755
 21
253.6899
 31
0.0
  0
LINE
  5
C8
330
C5
100
AcDbEntity
  8
LAYER_3
100
AcDbLine
 10
62.0465
 20
255.0813
 30
0.0
 11
64.0281
 21
253.9372
 31
0.0
  0
LINE
  5
C9
330
C5
100
AcDbEntity
  8
LAYER_3
100
AcDbLine
 10
64.0281
 20
253.9372
 30
0.0
 11
62.8837
 21
255.9192
 31
0.0
  0
LINE
  5
CA
330
C5
100
AcDbEntity
  8
LAYER_3
100
AcDbLine
 10
62.8837
 20
255.9192
 30
0.0
 11
62.0465
 21
255.0813
 31
0.0
  0
LINE
  5
CB
330
C5
100
AcDbEntity
  8
LAYER_3
100
AcDbLine
 10
72.1968
 20
246.606
 30
0.0
 11
70.2152
 21
247.7505
 31
0.0
  0
LINE
  5
CC
330
C5
100
AcDbEntity
  8
LAYER_3
100
AcDbLine
 10
70.2152
 20
247.7505
 30
0.0
 11
71.359
 21
245.7682
 31
0.0
  0
LINE
  5
CD
330
C5
100
AcDbEntity
  8
LAYER_3
100
AcDbLine
 10
71.359
 20
245.7682
 30
0.0
 11
72.1968
 21
246.606
 31
0.0
  0
ENDBLK
  5
CE
330
C5
100
AcDbEntity
  8
0
100
AcDbBlockEnd
  0
BLOCK
  5
D0
330
CF
100
AcDbEntity
  8
LAYER_3
100
AcDbBlockBegin
  2
AIGNBL03020017
 70
     0
 10
0.0
 20
0.0
 30
0.0
  3
AIGNBL03020017
  1

  0
LINE
  5
D1
330
CF
100
AcDbEntity
  8
LAYER_3
100
AcDbLine
 10
63.4073
 20
150.5756
 30
0.0
 11
70.8804
 21
150.5756
 31
0.0
  0
LINE
  5
D2
330
CF
100
AcDbEntity
  8
LAYER_3
100
AcDbLine
 10
68.6687
 20
149.9982
 30
0.0
 11
70.8797
 21
150.59
 31
0.0
  0
LINE
  5
D3
330
CF
100
AcDbEntity
  8
LAYER_3
100
AcDbLine
 10
70.8797
 20
150.59
 30
0.0
 11
68.6687
 21
151.1826
 31
0.0
  0
LINE
  5
D4
330
CF
100
AcDbEntity
  8
LAYER_3
100
AcDbLine
 10
68.6687
 20
151.1826
 30
0.0
 11
68.6687
 21
149.9982
 31
0.0
  0
LINE
  5
D5
330
CF
100
AcDbEntity
  8
LAYER_3
100
AcDbLine
 10
65.6184
 20
151.1681
 30
0.0
 11
63.408
 21
150.5756
 31
0.0
  0
LINE
  5
D6
330
CF
100
AcDbEntity
  8
LAYER_3
100
AcDbLine
 10
63.408
 20
150.5756
 30
0.0
 11
65.6184
 21
149.9837
 31
0.0
  0
LINE
  5
D7
330
CF
100
AcDbEntity
  8
LAYER_3
100
AcDbLine
 10
65.6184
 20
149.9837
 30
0.0
 11
65.6184
 21
151.1681
 31
0.0
  0
LINE
  5
D8
330
CF
100
AcDbEntity
  8
LAYER_3
100
AcDbLine
 10
69.9014
 20
165.1765
 30
0.0
 11
72.1124
 21
165.7684
 31
0.0
  0
LINE
  5
D9
330
CF
100
AcDbEntity
  8
LAYER_3
100
AcDbLine
 10
72.1124
 20
165.7684
 30
0.0
 11
69.9014
 21
166.3609
 31
0.0
  0
LINE
  5
DA
330
CF
100
AcDbEntity
  8
LAYER_3
100
AcDbLine
 10
69.9014
 20
166.3609
 30
0.0
 11
69.9014
 21
165.1765
 31
0.0
  0
LINE
  5
DB
330
CF
100
AcDbEntity
  8
LAYER_3
100
AcDbLine
 10
64.3223
 20
166.3609
 30
0.0
 11
62.11199999999999
 21
165.7684
 31
0.0
  0
LINE
  5
DC
330
CF
100
AcDbEntity
  8
LAYER_3
100
AcDbLine
 10
62.11199999999999
 20
165.7684
 30
0.0
 11
64.3223
 21
165.1765
 31
0.0
  0
LINE
  5
DD
330
CF
100
AcDbEntity
  8
LAYER_3
100
AcDbLine
 10
64.3223
 20
165.1765
 30
0.0
 11
64.3223
 21
166.3609
 31
0.0
  0
ENDBLK
  5
DE
330
CF
100
AcDbEntity
  8
0
100
AcDbBlockEnd
  0
BLOCK
  5
E0
330
DF
100
AcDbEntity
  8
LAYER_3
100
AcDbBlockBegin
  2
AIGNBL0302001A
 70
     0
 10
0.0
 20
0.0
 30
0.0
  3
AIGNBL0302001A
  1

  0
LINE
  5
E1
330
DF
100
AcDbEntity
  8
LAYER_3
100
AcDbLine
 10
61.8143
 20
250.8521
 30
0.0
 11
63.5782
 21
250.8521
 31
0.0
  0
LINE
  5
E2
330
DF
100
AcDbEntity
  8
LAYER_3
  6
AIGENLINE013
100
AcDbLine
 10
64.2627
 20
250.8521
 30
0.0
 11
65.2896
 21
250.8521
 31
0.0
  0
LINE
  5
E3
330
DF
100
AcDbEntity
  8
LAYER_3
  6
AIGENLINE014
100
AcDbLine
 10
65.6318
 20
250.8521
 30
0.0
 11
70.4548
 21
250.8521
 31
0.0
  0
LINE
  5
E4
330
DF
100
AcDbEntity
  8
LAYER_3
100
AcDbLine
 10
70.7971
 20
250.8521
 30
0.0
 11
72.5609
 21
250.8521
 31
0.0
  0
ENDBLK
  5
E5
330
DF
100
AcDbEntity
  8
0
100
AcDbBlockEnd
  0
BLOCK
  5
E7
330
E6
100
AcDbEntity
  8
LAYER_3
100
AcDbBlockBegin
  2
AIGNBL0302001C
 70
     0
 10
0.0
 20
0.0
 30
0.0
  3
AIGNBL0302001C
  1

  0
LINE
  5
E8
330
E6
100
AcDbEntity
  8
LAYER_3
100
AcDbLine
 10
67.1129
 20
245.3338
 30
0.0
 11
67.1129
 21
247.0977
 31
0.0
  0
LINE
  5
E9
330
E6
100
AcDbEntity
  8
LAYER_3
  6
AIGENLINE015
100
AcDbLine
 10
67.1129
 20
247.8189
 30
0.0
 11
67.1129
 21
248.9008
 31
0.0
  0
LINE
  5
EA
330
E6
100
AcDbEntity
  8
LAYER_3
  6
AIGENLINE016
100
AcDbLine
 10
67.1129
 20
249.2615
 30
0.0
 11
67.1129
 21
254.3431
 31
0.0
  0
LINE
  5
EB
330
E6
100
AcDbEntity
  8
LAYER_3
100
AcDbLine
 10
67.1129
 20
254.7037
 30
0.0
 11
67.1129
 21
256.4676
 31
0.0
  0
ENDBLK
  5
EC
330
E6
100
AcDbEntity
  8
0
100
AcDbBlockEnd
  0
BLOCK
  5
EE
330
ED
100
AcDbEntity
  8
LAYER_3
100
AcDbBlockBegin
  2
AIGNBL0302001E
 70
     0
 10
0.0
 20
0.0
 30
0.0
  3
AIGNBL0302001E
  1

  0
LINE
  5
EF
330
ED
100
AcDbEntity
  8
LAYER_3
100
AcDbLine
 10
50.3614
 20
163.6905
 30
0.0
 11
50.3614
 21
157.2533
 31
0.0
  0
LINE
  5
F0
330
ED
100
AcDbEntity
  8
LAYER_3
100
AcDbLine
 10
49.7841
 20
159.4647
 30
0.0
 11
50.3759
 21
157.254
 31
0.0
  0
LINE
  5
F1
330
ED
100
AcDbEntity
  8
LAYER_3
100
AcDbLine
 10
50.3759
 20
157.254
 30
0.0
 11
50.9685
 21
159.4647
 31
0.0
  0
LINE
  5
F2
330
ED
100
AcDbEntity
  8
LAYER_3
100
AcDbLine
 10
50.9685
 20
159.4647
 30
0.0
 11
49.7841
 21
159.4647
 31
0.0
  0
LINE
  5
F3
330
ED
100
AcDbEntity
  8
LAYER_3
100
AcDbLine
 10
50.95399999999999
 20
161.4791
 30
0.0
 11
50.3614
 21
163.6895
 31
0.0
  0
LINE
  5
F4
330
ED
100
AcDbEntity
  8
LAYER_3
100
AcDbLine
 10
50.3614
 20
163.6895
 30
0.0
 11
49.7696
 21
161.4791
 31
0.0
  0
LINE
  5
F5
330
ED
100
AcDbEntity
  8
LAYER_3
100
AcDbLine
 10
49.7696
 20
161.4791
 30
0.0
 11
50.95399999999999
 21
161.4791
 31
0.0
  0
ENDBLK
  5
F6
330
ED
100
AcDbEntity
  8
0
100
AcDbBlockEnd
  0
BLOCK
  5
F8
330
F7
100
AcDbEntity
  8
LAYER_3
100
AcDbBlockBegin
  2
AIGNBL03020020
 70
     0
 10
0.0
 20
0.0
 30
0.0
  3
AIGNBL03020020
  1

  0
LINE
  5
F9
330
F7
100
AcDbEntity
  8
LAYER_3
100
AcDbLine
 10
29.6344
 20
164.9794
 30
0.0
 11
29.6344
 21
157.2557
 31
0.0
  0
LINE
  5
FA
330
F7
100
AcDbEntity
  8
LAYER_3
100
AcDbLine
 10
29.057
 20
159.4671
 30
0.0
 11
29.6488
 21
157.2567
 31
0.0
  0
LINE
  5
FB
330
F7
100
AcDbEntity
  8
LAYER_3
100
AcDbLine
 10
29.6488
 20
157.2567
 30
0.0
 11
30.2414
 21
159.4671
 31
0.0
  0
LINE
  5
FC
330
F7
100
AcDbEntity
  8
LAYER_3
100
AcDbLine
 10
30.2414
 20
159.4671
 30
0.0
 11
29.057
 21
159.4671
 31
0.0
  0
LINE
  5
FD
330
F7
100
AcDbEntity
  8
LAYER_3
100
AcDbLine
 10
30.2269
 20
162.7681
 30
0.0
 11
29.6344
 21
164.9785
 31
0.0
  0
LINE
  5
FE
330
F7
100
AcDbEntity
  8
LAYER_3
100
AcDbLine
 10
29.6344
 20
164.9785
 30
0.0
 11
29.0425
 21
162.7681
 31
0.0
  0
LINE
  5
FF
330
F7
100
AcDbEntity
  8
LAYER_3
100
AcDbLine
 10
29.0425
 20
162.7681
 30
0.0
 11
30.2269
 21
162.7681
 31
0.0
  0
ENDBLK
  5
100
330
F7
100
AcDbEntity
  8
0
100
AcDbBlockEnd
  0
BLOCK
  5
102
330
101
100
AcDbEntity
  8
LAYER_3
100
AcDbBlockBegin
  2
AIGNBL03020023
 70
     0
 10
0.0
 20
0.0
 30
0.0
  3
AIGNBL03020023
  1

  0
LINE
  5
103
330
101
100
AcDbEntity
  8
LAYER_3
100
AcDbLine
 10
-27.587
 20
32.7756
 30
0.0
 11
-25.3762
 21
33.3678
 31
0.0
  0
LINE
  5
104
330
101
100
AcDbEntity
  8
LAYER_3
100
AcDbLine
 10
-25.3762
 20
33.3678
 30
0.0
 11
-27.587
 21
33.96
 31
0.0
  0
LINE
  5
105
330
101
100
AcDbEntity
  8
LAYER_3
100
AcDbLine
 10
-27.587
 20
33.96
 30
0.0
 11
-27.587
 21
32.7756
 31
0.0
  0
LINE
  5
106
330
101
100
AcDbEntity
  8
LAYER_3
100
AcDbLine
 10
-19.4159
 20
33.96
 30
0.0
 11
-21.6266
 21
33.3678
 31
0.0
  0
LINE
  5
107
330
101
100
AcDbEntity
  8
LAYER_3
100
AcDbLine
 10
-21.6266
 20
33.3678
 30
0.0
 11
-19.4159
 21
32.7756
 31
0.0
  0
LINE
  5
108
330
101
100
AcDbEntity
  8
LAYER_3
100
AcDbLine
 10
-19.4159
 20
32.7756
 30
0.0
 11
-19.4159
 21
33.96
 31
0.0
  0
ENDBLK
  5
109
330
101
100
AcDbEntity
  8
0
100
AcDbBlockEnd
  0
BLOCK
  5
10B
330
10A
100
AcDbEntity
  8
LAYER_3
100
AcDbBlockBegin
  2
AIGNBL03020028
 70
     0
 10
0.0
 20
0.0
 30
0.0
  3
AIGNBL03020028
  1

  0
LINE
  5
10C
330
10A
100
AcDbEntity
  8
LAYER_3
100
AcDbLine
 10
41.2657
 20
168.7815
 30
0.0
 11
40.254
 21
167.3366
 31
0.0
  0
LINE
  5
10D
330
10A
100
AcDbEntity
  8
LAYER_3
  6
AIGENLINE017
100
AcDbLine
 10
39.8372
 20
166.7414
 30
0.0
 11
39.2121
 21
165.8485
 31
0.0
  0
LINE
  5
10E
330
10A
100
AcDbEntity
  8
LAYER_3
100
AcDbLine
 10
39.0037
 20
165.5509
 30
0.0
 11
37.9919
 21
164.106
 31
0.0
  0
ENDBLK
  5
10F
330
10A
100
AcDbEntity
  8
0
100
AcDbBlockEnd
  0
BLOCK
  5
111
330
110
100
AcDbEntity
  8
LAYER_3
100
AcDbBlockBegin
  2
AIGNBL0302002A
 70
     0
 10
0.0
 20
0.0
 30
0.0
  3
AIGNBL0302002A
  1

  0
LINE
  5
112
330
110
100
AcDbEntity
  8
LAYER_3
100
AcDbLine
 10
67.113
 20
172.9288
 30
0.0
 11
65.3491
 21
172.9288
 31
0.0
  0
LINE
  5
113
330
110
100
AcDbEntity
  8
LAYER_3
  6
AIGENLINE018
100
AcDbLine
 10
64.5557
 20
172.9288
 30
0.0
 11
63.3656
 21
172.9288
 31
0.0
  0
LINE
  5
114
330
110
100
AcDbEntity
  8
LAYER_3
  6
AIGENLINE019
100
AcDbLine
 10
62.96899999999999
 20
172.9288
 30
0.0
 11
51.393
 21
172.9288
 31
0.0
  0
LINE
  5
115
330
110
100
AcDbEntity
  8
LAYER_3
100
AcDbLine
 10
50.9963
 20
172.9288
 30
0.0
 11
49.2324
 21
172.9288
 31
0.0
  0
ENDBLK
  5
116
330
110
100
AcDbEntity
  8
0
100
AcDbBlockEnd
  0
BLOCK
  5
118
330
117
100
AcDbEntity
  8
LAYER_3
100
AcDbBlockBegin
  2
AIGNBL0302002C
 70
     0
 10
0.0
 20
0.0
 30
0.0
  3
AIGNBL0302002C
  1

  0
ARC
  5
119
330
117
100
AcDbEntity
  8
LAYER_3
100
AcDbCircle
 10
49.2213
 20
163.2104
 30
0.0
 40
9.7123
100
AcDbArc
 50
134.5872697
 51
144.9972921999999
  0
LINE
  5
11A
330
117
100
AcDbEntity
  8
LAYER_3
  6
AIGENLINE020
100
AcDbLine
 10
42.8071
 20
170.5034
 30
0.0
 11
43.4485
 21
171.021
 31
0.0
  0
ARC
  5
11B
330
117
100
AcDbEntity
  8
LAYER_3
  6
AIGENLINE021
100
AcDbCircle
 10
49.2546
 20
163.1559
 30
0.0
 40
9.7762
100
AcDbArc
 50
102.1031931
 51
124.8248966
  0
ARC
  5
11C
330
117
100
AcDbEntity
  8
LAYER_3
100
AcDbCircle
 10
49.2328
 20
163.2161
 30
0.0
 40
9.7127
100
AcDbArc
 50
90.00148538
 51
100.4109221
  0
ENDBLK
  5
11D
330
117
100
AcDbEntity
  8
0
100
AcDbBlockEnd
  0
BLOCK
  5
11F
330
11E
100
AcDbEntity
  8
LAYER_3
100
AcDbBlockBegin
  2
AIGNBL0302002E
 70
     0
 10
0.0
 20
0.0
 30
0.0
  3
AIGNBL0302002E
  1

  0
LINE
  5
120
330
11E
100
AcDbEntity
  8
LAYER_3
100
AcDbLine
 10
69.3345
 20
41.7429
 30
0.0
 11
64.8913
 21
41.7429
 31
0.0
  0
ARC
  5
121
330
11E
100
AcDbEntity
  8
LAYER_3
100
AcDbCircle
 10
64.8912
 20
41.903
 30
0.0
 40
0.1601
100
AcDbArc
 50
180.004664
 51
270.0311124
  0
LINE
  5
122
330
11E
100
AcDbEntity
  8
LAYER_3
100
AcDbLine
 10
64.7311
 20
41.903
 30
0.0
 11
64.7311
 21
44.5831
 31
0.0
  0
ARC
  5
123
330
11E
100
AcDbEntity
  8
LAYER_3
100
AcDbCircle
 10
64.8912
 20
44.5831
 30
0.0
 40
0.1601
100
AcDbArc
 50
89.97977678
 51
179.9844469
  0
LINE
  5
124
330
11E
100
AcDbEntity
  8
LAYER_3
100
AcDbLine
 10
64.8913
 20
44.7432
 30
0.0
 11
69.3345
 21
44.7432
 31
0.0
  0
ARC
  5
125
330
11E
100
AcDbEntity
  8
LAYER_3
100
AcDbCircle
 10
69.3345
 20
44.5831
 30
0.0
 40
0.1601
100
AcDbArc
 50
0.001585814529
 51
89.99841417
  0
LINE
  5
126
330
11E
100
AcDbEntity
  8
LAYER_3
100
AcDbLine
 10
69.4946
 20
44.5831
 30
0.0
 11
69.4946
 21
41.903
 31
0.0
  0
ARC
  5
127
330
11E
100
AcDbEntity
  8
LAYER_3
100
AcDbCircle
 10
69.3345
 20
41.903
 30
0.0
 40
0.1601
100
AcDbArc
 50
269.9906928999999
 51
0.009307115503
  0
ENDBLK
  5
128
330
11E
100
AcDbEntity
  8
0
100
AcDbBlockEnd
  0
BLOCK
  5
12A
330
129
100
AcDbEntity
  8
LAYER_3
100
AcDbBlockBegin
  2
AIGNBL0302002F
 70
     0
 10
0.0
 20
0.0
 30
0.0
  3
AIGNBL0302002F
  1

  0
LINE
  5
12B
330
129
100
AcDbEntity
  8
LAYER_3
100
AcDbLine
 10
67.1129
 20
44.1102
 30
0.0
 11
67.1129
 21
42.3758
 31
0.0
  0
ENDBLK
  5
12C
330
129
100
AcDbEntity
  8
0
100
AcDbBlockEnd
  0
BLOCK
  5
12E
330
12D
100
AcDbEntity
  8
LAYER_3
100
AcDbBlockBegin
  2
AIGNBL03020030
 70
     0
 10
0.0
 20
0.0
 30
0.0
  3
AIGNBL03020030
  1

  0
ARC
  5
12F
330
12D
100
AcDbEntity
  8
LAYER_3
100
AcDbCircle
 10
65.9639
 20
43.2313
 30
0.0
 40
1.514
100
AcDbArc
 50
94.04561334
 51
144.514895
  0
ARC
  5
130
330
12D
100
AcDbEntity
  8
LAYER_3
100
AcDbCircle
 10
65.9231
 20
43.4176
 30
0.0
 40
1.3256
100
AcDbArc
 50
90.0461331
 51
92.85357739999999
  0
ENDBLK
  5
131
330
12D
100
AcDbEntity
  8
0
100
AcDbBlockEnd
  0
BLOCK
  5
133
330
132
100
AcDbEntity
  8
LAYER_3
100
AcDbBlockBegin
  2
AIGNBL03020031
 70
     0
 10
0.0
 20
0.0
 30
0.0
  3
AIGNBL03020031
  1

  0
ARC
  5
134
330
132
100
AcDbEntity
  8
LAYER_3
100
AcDbCircle
 10
65.8801
 20
43.2313
 30
0.0
 40
1.514
100
AcDbArc
 50
35.485105
 51
85.95438663
  0
ARC
  5
135
330
132
100
AcDbEntity
  8
LAYER_3
100
AcDbCircle
 10
65.9209
 20
43.4176
 30
0.0
 40
1.3256
100
AcDbArc
 50
87.14642258
 51
89.95386687
  0
ENDBLK
  5
136
330
132
100
AcDbEntity
  8
0
100
AcDbBlockEnd
  0
BLOCK
  5
138
330
137
100
AcDbEntity
  8
LAYER_3
100
AcDbBlockBegin
  2
AIGNBL03020032
 70
     0
 10
0.0
 20
0.0
 30
0.0
  3
AIGNBL03020032
  1

  0
ARC
  5
139
330
137
100
AcDbEntity
  8
LAYER_3
100
AcDbCircle
 10
68.3457
 20
43.2313
 30
0.0
 40
1.514
100
AcDbArc
 50
94.04561334
 51
144.514895
  0
ARC
  5
13A
330
137
100
AcDbEntity
  8
LAYER_3
100
AcDbCircle
 10
68.3049
 20
43.4176
 30
0.0
 40
1.3256
100
AcDbArc
 50
90.0461331
 51
92.85357739999999
  0
ENDBLK
  5
13B
330
137
100
AcDbEntity
  8
0
100
AcDbBlockEnd
  0
BLOCK
  5
13D
330
13C
100
AcDbEntity
  8
LAYER_3
100
AcDbBlockBegin
  2
AIGNBL03020033
 70
     0
 10
0.0
 20
0.0
 30
0.0
  3
AIGNBL03020033
  1

  0
ARC
  5
13E
330
13C
100
AcDbEntity
  8
LAYER_3
100
AcDbCircle
 10
68.2619
 20
43.2315
 30
0.0
 40
1.5138
100
AcDbArc
 50
35.48223287
 51
85.95293632
  0
ARC
  5
13F
330
13C
100
AcDbEntity
  8
LAYER_3
100
AcDbCircle
 10
68.3027
 20
43.4177
 30
0.0
 40
1.3255
100
AcDbArc
 50
87.14629996
 51
89.95396959
  0
ENDBLK
  5
140
330
13C
100
AcDbEntity
  8
0
100
AcDbBlockEnd
  0
BLOCK
  5
142
330
141
100
AcDbEntity
  8
LAYER_3
100
AcDbBlockBegin
  2
AIGNBL03020034
 70
     0
 10
0.0
 20
0.0
 30
0.0
  3
AIGNBL03020034
  1

  0
ARC
  5
143
330
141
100
AcDbEntity
  8
LAYER_3
100
AcDbCircle
 10
65.9637
 20
43.2546
 30
0.0
 40
1.5138
100
AcDbArc
 50
215.487053
 51
265.9601472
  0
ARC
  5
144
330
141
100
AcDbEntity
  8
LAYER_3
100
AcDbCircle
 10
65.9231
 20
43.0688
 30
0.0
 40
1.3259
100
AcDbArc
 50
267.1471521
 51
269.9539237
  0
ENDBLK
  5
145
330
141
100
AcDbEntity
  8
0
100
AcDbBlockEnd
  0
BLOCK
  5
147
330
146
100
AcDbEntity
  8
LAYER_3
100
AcDbBlockBegin
  2
AIGNBL03020035
 70
     0
 10
0.0
 20
0.0
 30
0.0
  3
AIGNBL03020035
  1

  0
ARC
  5
148
330
146
100
AcDbEntity
  8
LAYER_3
100
AcDbCircle
 10
65.8803
 20
43.2546
 30
0.0
 40
1.5138
100
AcDbArc
 50
274.0398528
 51
324.5129471
  0
ARC
  5
149
330
146
100
AcDbEntity
  8
LAYER_3
100
AcDbCircle
 10
65.9209
 20
43.0688
 30
0.0
 40
1.3259
100
AcDbArc
 50
270.0460763
 51
272.8528479
  0
ENDBLK
  5
14A
330
146
100
AcDbEntity
  8
0
100
AcDbBlockEnd
  0
BLOCK
  5
14C
330
14B
100
AcDbEntity
  8
LAYER_3
100
AcDbBlockBegin
  2
AIGNBL03020036
 70
     0
 10
0.0
 20
0.0
 30
0.0
  3
AIGNBL03020036
  1

  0
ARC
  5
14D
330
14B
100
AcDbEntity
  8
LAYER_3
100
AcDbCircle
 10
68.3455
 20
43.2546
 30
0.0
 40
1.5138
100
AcDbArc
 50
215.487053
 51
265.9601472
  0
ARC
  5
14E
330
14B
100
AcDbEntity
  8
LAYER_3
100
AcDbCircle
 10
68.3049
 20
43.0688
 30
0.0
 40
1.3259
100
AcDbArc
 50
267.1471521
 51
269.9539237
  0
ENDBLK
  5
14F
330
14B
100
AcDbEntity
  8
0
100
AcDbBlockEnd
  0
BLOCK
  5
151
330
150
100
AcDbEntity
  8
LAYER_3
100
AcDbBlockBegin
  2
AIGNBL03020037
 70
     0
 10
0.0
 20
0.0
 30
0.0
  3
AIGNBL03020037
  1

  0
ARC
  5
152
330
150
100
AcDbEntity
  8
LAYER_3
100
AcDbCircle
 10
68.262
 20
43.2545
 30
0.0
 40
1.5137
100
AcDbArc
 50
274.0413027
 51
324.5158193
  0
ARC
  5
153
330
150
100
AcDbEntity
  8
LAYER_3
100
AcDbCircle
 10
68.3027
 20
43.0687
 30
0.0
 40
1.3258
100
AcDbArc
 50
270.0459736
 51
272.8529705
  0
ENDBLK
  5
154
330
150
100
AcDbEntity
  8
0
100
AcDbBlockEnd
  0
BLOCK
  5
156
330
155
100
AcDbEntity
  8
LAYER_3
100
AcDbBlockBegin
  2
AIGNBL03010002
 70
     0
 10
0.0
 20
0.0
 30
0.0
  3
AIGNBL03010002
  1

  0
INSERT
  5
157
330
155
100
AcDbEntity
  8
LAYER_3
100
AcDbBlockReference
  2
AIGNBL03020003
 10
0.0
 20
0.0
 30
0.0
  0
ENDBLK
  5
158
330
155
100
AcDbEntity
  8
0
100
AcDbBlockEnd
  0
BLOCK
  5
15A
330
159
100
AcDbEntity
  8
LAYER_3
100
AcDbBlockBegin
  2
AIGNBL03010004
 70
     0
 10
0.0
 20
0.0
 30
0.0
  3
AIGNBL03010004
  1

  0
INSERT
  5
15B
330
159
100
AcDbEntity
  8
LAYER_3
100
AcDbBlockReference
  2
AIGNBL03020005
 10
0.0
 20
0.0
 30
0.0
  0
ENDBLK
  5
15C
330
159
100
AcDbEntity
  8
0
100
AcDbBlockEnd
  0
BLOCK
  5
15E
330
15D
100
AcDbEntity
  8
LAYER_3
100
AcDbBlockBegin
  2
AIGNBL03010006
 70
     0
 10
0.0
 20
0.0
 30
0.0
  3
AIGNBL03010006
  1

  0
INSERT
  5
15F
330
15D
100
AcDbEntity
  8
LAYER_3
100
AcDbBlockReference
  2
AIGNBL03020007
 10
0.0
 20
0.0
 30
0.0
  0
ENDBLK
  5
160
330
15D
100
AcDbEntity
  8
0
100
AcDbBlockEnd
  0
BLOCK
  5
162
330
161
100
AcDbEntity
  8
LAYER_3
100
AcDbBlockBegin
  2
AIGNBL03010008
 70
     0
 10
0.0
 20
0.0
 30
0.0
  3
AIGNBL03010008
  1

  0
INSERT
  5
163
330
161
100
AcDbEntity
  8
LAYER_3
100
AcDbBlockReference
  2
AIGNBL03020009
 10
0.0
 20
0.0
 30
0.0
  0
ENDBLK
  5
164
330
161
100
AcDbEntity
  8
0
100
AcDbBlockEnd
  0
BLOCK
  5
166
330
165
100
AcDbEntity
  8
LAYER_3
100
AcDbBlockBegin
  2
AIGNBL0301000A
 70
     0
 10
0.0
 20
0.0
 30
0.0
  3
AIGNBL0301000A
  1

  0
LINE
  5
167
330
165
100
AcDbEntity
  8
LAYER_3
100
AcDbLine
 10
-9.0223
 20
157.264
 30
0.0
 11
-9.0223
 21
187.1031
 31
0.0
  0
ENDBLK
  5
168
330
165
100
AcDbEntity
  8
0
100
AcDbBlockEnd
  0
BLOCK
  5
16A
330
169
100
AcDbEntity
  8
LAYER_3
100
AcDbBlockBegin
  2
AIGNBL0301000B
 70
     0
 10
0.0
 20
0.0
 30
0.0
  3
AIGNBL0301000B
  1

  0
INSERT
  5
16B
330
169
100
AcDbEntity
  8
LAYER_3
100
AcDbBlockReference
  2
AIGNBL0302000C
 10
0.0
 20
0.0
 30
0.0
  0
ENDBLK
  5
16C
330
169
100
AcDbEntity
  8
0
100
AcDbBlockEnd
  0
BLOCK
  5
16E
330
16D
100
AcDbEntity
  8
LAYER_3
100
AcDbBlockBegin
  2
AIGNBL0301000D
 70
     0
 10
0.0
 20
0.0
 30
0.0
  3
AIGNBL0301000D
  1

  0
INSERT
  5
16F
330
16D
100
AcDbEntity
  8
LAYER_3
100
AcDbBlockReference
  2
AIGNBL0302000E
 10
0.0
 20
0.0
 30
0.0
  0
ENDBLK
  5
170
330
16D
100
AcDbEntity
  8
0
100
AcDbBlockEnd
  0
BLOCK
  5
172
330
171
100
AcDbEntity
  8
LAYER_3
100
AcDbBlockBegin
  2
AIGNBL0301000F
 70
     0
 10
0.0
 20
0.0
 30
0.0
  3
AIGNBL0301000F
  1

  0
INSERT
  5
173
330
171
100
AcDbEntity
  8
LAYER_3
100
AcDbBlockReference
  2
AIGNBL03020010
 10
0.0
 20
0.0
 30
0.0
  0
ENDBLK
  5
174
330
171
100
AcDbEntity
  8
0
100
AcDbBlockEnd
  0
BLOCK
  5
176
330
175
100
AcDbEntity
  8
LAYER_3
100
AcDbBlockBegin
  2
AIGNBL03010011
 70
     0
 10
0.0
 20
0.0
 30
0.0
  3
AIGNBL03010011
  1

  0
LINE
  5
177
330
175
100
AcDbEntity
  8
LAYER_3
100
AcDbLine
 10
62.11199999999999
 20
165.7684
 30
0.0
 11
72.1124
 21
165.7684
 31
0.0
  0
ENDBLK
  5
178
330
175
100
AcDbEntity
  8
0
100
AcDbBlockEnd
  0
BLOCK
  5
17A
330
179
100
AcDbEntity
  8
LAYER_3
100
AcDbBlockBegin
  2
AIGNBL03010012
 70
     0
 10
0.0
 20
0.0
 30
0.0
  3
AIGNBL03010012
  1

  0
LINE
  5
17B
330
179
100
AcDbEntity
  8
LAYER_3
100
AcDbLine
 10
69.942
 20
248.0237
 30
0.0
 11
74.0258
 21
243.9399
 31
0.0
  0
ENDBLK
  5
17C
330
179
100
AcDbEntity
  8
0
100
AcDbBlockEnd
  0
BLOCK
  5
17E
330
17D
100
AcDbEntity
  8
LAYER_3
100
AcDbBlockBegin
  2
AIGNBL03010013
 70
     0
 10
0.0
 20
0.0
 30
0.0
  3
AIGNBL03010013
  1

  0
INSERT
  5
17F
330
17D
100
AcDbEntity
  8
LAYER_3
100
AcDbBlockReference
  2
AIGNBL03020014
 10
0.0
 20
0.0
 30
0.0
  0
ENDBLK
  5
180
330
17D
100
AcDbEntity
  8
0
100
AcDbBlockEnd
  0
BLOCK
  5
182
330
181
100
AcDbEntity
  8
LAYER_3
100
AcDbBlockBegin
  2
AIGNBL03010015
 70
     0
 10
0.0
 20
0.0
 30
0.0
  3
AIGNBL03010015
  1

  0
LINE
  5
183
330
181
100
AcDbEntity
  8
LAYER_3
100
AcDbLine
 10
65.6132
 20
49.8339
 30
0.0
 11
65.6132
 21
142.2416
 31
0.0
  0
LINE
  5
184
330
181
100
AcDbEntity
  8
LAYER_3
100
AcDbLine
 10
68.6132
 20
49.8339
 30
0.0
 11
68.6132
 21
142.2416
 31
0.0
  0
LINE
  5
185
330
181
100
AcDbEntity
  8
LAYER_3
100
AcDbLine
 10
68.6132
 20
140.3199
 30
0.0
 11
67.4357
 21
139.1417
 31
0.0
  0
LINE
  5
186
330
181
100
AcDbEntity
  8
LAYER_3
100
AcDbLine
 10
66.7914
 20
139.1417
 30
0.0
 11
65.6132
 21
140.3199
 31
0.0
  0
LINE
  5
187
330
181
100
AcDbEntity
  8
LAYER_3
100
AcDbLine
 10
68.6132
 20
141.4209
 30
0.0
 11
66.3346
 21
139.1417
 31
0.0
  0
LINE
  5
188
330
181
100
AcDbEntity
  8
LAYER_3
100
AcDbLine
 10
67.8925
 20
139.1417
 30
0.0
 11
65.6132
 21
141.4209
 31
0.0
  0
LINE
  5
189
330
181
100
AcDbEntity
  8
LAYER_3
100
AcDbLine
 10
68.3328
 20
142.2416
 30
0.0
 11
65.6132
 21
139.522
 31
0.0
  0
LINE
  5
18A
330
181
100
AcDbEntity
  8
LAYER_3
100
AcDbLine
 10
68.6132
 20
139.522
 30
0.0
 11
65.8937
 21
142.2416
 31
0.0
  0
LINE
  5
18B
330
181
100
AcDbEntity
  8
LAYER_3
100
AcDbLine
 10
67.2317
 20
142.2416
 30
0.0
 11
65.6132
 21
140.6231
 31
0.0
  0
LINE
  5
18C
330
181
100
AcDbEntity
  8
LAYER_3
100
AcDbLine
 10
68.6132
 20
140.6231
 30
0.0
 11
66.9947
 21
142.2416
 31
0.0
  0
LINE
  5
18D
330
181
100
AcDbEntity
  8
LAYER_3
100
AcDbLine
 10
66.1307
 20
142.2416
 30
0.0
 11
65.6132
 21
141.7241
 31
0.0
  0
LINE
  5
18E
330
181
100
AcDbEntity
  8
LAYER_3
100
AcDbLine
 10
68.6132
 20
141.7241
 30
0.0
 11
68.0958
 21
142.2416
 31
0.0
  0
ENDBLK
  5
18F
330
181
100
AcDbEntity
  8
0
100
AcDbBlockEnd
  0
BLOCK
  5
191
330
190
100
AcDbEntity
  8
LAYER_3
100
AcDbBlockBegin
  2
AIGNBL03010016
 70
     0
 10
0.0
 20
0.0
 30
0.0
  3
AIGNBL03010016
  1

  0
INSERT
  5
192
330
190
100
AcDbEntity
  8
LAYER_3
100
AcDbBlockReference
  2
AIGNBL03020017
 10
0.0
 20
0.0
 30
0.0
  0
ENDBLK
  5
193
330
190
100
AcDbEntity
  8
0
100
AcDbBlockEnd
  0
BLOCK
  5
195
330
194
100
AcDbEntity
  8
LAYER_3
100
AcDbBlockBegin
  2
AIGNBL03010018
 70
     0
 10
0.0
 20
0.0
 30
0.0
  3
AIGNBL03010018
  1

  0
LINE
  5
196
330
194
100
AcDbEntity
  8
LAYER_3
100
AcDbLine
 10
-35.6901
 20
157.2288
 30
0.0
 11
-35.6901
 21
148.4906
 31
0.0
  0
LINE
  5
197
330
194
100
AcDbEntity
  8
LAYER_3
100
AcDbLine
 10
-36.2676
 20
150.7024
 30
0.0
 11
-35.6757
 21
148.4913
 31
0.0
  0
LINE
  5
198
330
194
100
AcDbEntity
  8
LAYER_3
100
AcDbLine
 10
-35.6757
 20
148.4913
 30
0.0
 11
-35.0831
 21
150.7024
 31
0.0
  0
LINE
  5
199
330
194
100
AcDbEntity
  8
LAYER_3
100
AcDbLine
 10
-35.0831
 20
150.7024
 30
0.0
 11
-36.2676
 21
150.7024
 31
0.0
  0
LINE
  5
19A
330
194
100
AcDbEntity
  8
LAYER_3
100
AcDbLine
 10
-35.0976
 20
155.0178
 30
0.0
 11
-35.6901
 21
157.2282
 31
0.0
  0
LINE
  5
19B
330
194
100
AcDbEntity
  8
LAYER_3
100
AcDbLine
 10
-35.6901
 20
157.2282
 30
0.0
 11
-36.2827
 21
155.0178
 31
0.0
  0
LINE
  5
19C
330
194
100
AcDbEntity
  8
LAYER_3
100
AcDbLine
 10
-36.2827
 20
155.0178
 30
0.0
 11
-35.0976
 21
155.0178
 31
0.0
  0
ENDBLK
  5
19D
330
194
100
AcDbEntity
  8
0
100
AcDbBlockEnd
  0
BLOCK
  5
19F
330
19E
100
AcDbEntity
  8
LAYER_3
100
AcDbBlockBegin
  2
AIGNBL03010019
 70
     0
 10
0.0
 20
0.0
 30
0.0
  3
AIGNBL03010019
  1

  0
INSERT
  5
1A0
330
19E
100
AcDbEntity
  8
LAYER_3
100
AcDbBlockReference
  2
AIGNBL0302001A
 10
0.0
 20
0.0
 30
0.0
  0
ENDBLK
  5
1A1
330
19E
100
AcDbEntity
  8
0
100
AcDbBlockEnd
  0
BLOCK
  5
1A3
330
1A2
100
AcDbEntity
  8
LAYER_3
100
AcDbBlockBegin
  2
AIGNBL0301001B
 70
     0
 10
0.0
 20
0.0
 30
0.0
  3
AIGNBL0301001B
  1

  0
INSERT
  5
1A4
330
1A2
100
AcDbEntity
  8
LAYER_3
100
AcDbBlockReference
  2
AIGNBL0302001C
 10
0.0
 20
0.0
 30
0.0
  0
ENDBLK
  5
1A5
330
1A2
100
AcDbEntity
  8
0
100
AcDbBlockEnd
  0
BLOCK
  5
1A7
330
1A6
100
AcDbEntity
  8
LAYER_3
100
AcDbBlockBegin
  2
AIGNBL0301001D
 70
     0
 10
0.0
 20
0.0
 30
0.0
  3
AIGNBL0301001D
  1

  0
INSERT
  5
1A8
330
1A6
100
AcDbEntity
  8
LAYER_3
100
AcDbBlockReference
  2
AIGNBL0302001E
 10
0.0
 20
0.0
 30
0.0
  0
ENDBLK
  5
1A9
330
1A6
100
AcDbEntity
  8
0
100
AcDbBlockEnd
  0
BLOCK
  5
1AB
330
1AA
100
AcDbEntity
  8
LAYER_3
100
AcDbBlockBegin
  2
AIGNBL0301001F
 70
     0
 10
0.0
 20
0.0
 30
0.0
  3
AIGNBL0301001F
  1

  0
INSERT
  5
1AC
330
1AA
100
AcDbEntity
  8
LAYER_3
100
AcDbBlockReference
  2
AIGNBL03020020
 10
0.0
 20
0.0
 30
0.0
  0
ENDBLK
  5
1AD
330
1AA
100
AcDbEntity
  8
0
100
AcDbBlockEnd
  0
BLOCK
  5
1AF
330
1AE
100
AcDbEntity
  8
LAYER_3
100
AcDbBlockBegin
  2
AIGNBL03010021
 70
     0
 10
0.0
 20
0.0
 30
0.0
  3
AIGNBL03010021
  1

  0
LINE
  5
1B0
330
1AE
100
AcDbEntity
  8
LAYER_3
100
AcDbLine
 10
28.2425
 20
154.3792
 30
0.0
 11
30.2475
 21
153.2761
 31
0.0
  0
LINE
  5
1B1
330
1AE
100
AcDbEntity
  8
LAYER_3
100
AcDbLine
 10
30.2475
 20
153.2761
 30
0.0
 11
29.0624
 21
155.2343
 31
0.0
  0
LINE
  5
1B2
330
1AE
100
AcDbEntity
  8
LAYER_3
100
AcDbLine
 10
29.0624
 20
155.2343
 30
0.0
 11
28.2425
 21
154.3792
 31
0.0
  0
LINE
  5
1B3
330
1AE
100
AcDbEntity
  8
LAYER_3
100
AcDbLine
 10
40.8267
 20
150.5287
 30
0.0
 11
38.6129
 21
149.9475
 31
0.0
  0
LINE
  5
1B4
330
1AE
100
AcDbEntity
  8
LAYER_3
100
AcDbLine
 10
38.6129
 20
149.9475
 30
0.0
 11
40.8198
 21
149.3439
 31
0.0
  0
LINE
  5
1B5
330
1AE
100
AcDbEntity
  8
LAYER_3
100
AcDbLine
 10
40.8198
 20
149.3439
 30
0.0
 11
40.8267
 21
150.5287
 31
0.0
  0
ENDBLK
  5
1B6
330
1AE
100
AcDbEntity
  8
0
100
AcDbBlockEnd
  0
BLOCK
  5
1B8
330
1B7
100
AcDbEntity
  8
LAYER_3
100
AcDbBlockBegin
  2
AIGNBL03010022
 70
     0
 10
0.0
 20
0.0
 30
0.0
  3
AIGNBL03010022
  1

  0
INSERT
  5
1B9
330
1B7
100
AcDbEntity
  8
LAYER_3
100
AcDbBlockReference
  2
AIGNBL03020023
 10
0.0
 20
0.0
 30
0.0
  0
ENDBLK
  5
1BA
330
1B7
100
AcDbEntity
  8
0
100
AcDbBlockEnd
  0
BLOCK
  5
1BC
330
1BB
100
AcDbEntity
  8
LAYER_3
100
AcDbBlockBegin
  2
AIGNBL03010024
 70
     0
 10
0.0
 20
0.0
 30
0.0
  3
AIGNBL03010024
  1

  0
LINE
  5
1BD
330
1BB
100
AcDbEntity
  8
LAYER_3
100
AcDbLine
 10
-35.2026
 20
33.3678
 30
0.0
 11
-17.2386
 21
33.3678
 31
0.0
  0
ENDBLK
  5
1BE
330
1BB
100
AcDbEntity
  8
0
100
AcDbBlockEnd
  0
BLOCK
  5
1C0
330
1BF
100
AcDbEntity
  8
LAYER_3
100
AcDbBlockBegin
  2
AIGNBL03010025
 70
     0
 10
0.0
 20
0.0
 30
0.0
  3
AIGNBL03010025
  1

  0
LINE
  5
1C1
330
1BF
100
AcDbEntity
  8
LAYER_3
100
AcDbLine
 10
-23.5014
 20
44.7432
 30
0.0
 11
-21.9294
 21
44.7432
 31
0.0
  0
LINE
  5
1C2
330
1BF
100
AcDbEntity
  8
LAYER_3
100
AcDbLine
 10
-23.5014
 20
45.6449
 30
0.0
 11
-23.0095
 21
45.6449
 31
0.0
  0
LINE
  5
1C3
330
1BF
100
AcDbEntity
  8
LAYER_3
100
AcDbLine
 10
-22.6198
 20
45.6449
 30
0.0
 11
-21.9294
 21
45.6449
 31
0.0
  0
ARC
  5
1C4
330
1BF
100
AcDbEntity
  8
LAYER_3
100
AcDbCircle
 10
-21.9464
 20
45.1773
 30
0.0
 40
0.4679
100
AcDbArc
 50
2.022047086
 51
87.91441095
  0
ARC
  5
1C5
330
1BF
100
AcDbEntity
  8
LAYER_3
100
AcDbCircle
 10
-21.9294
 20
45.1938
 30
0.0
 40
0.4506
100
AcDbArc
 50
270.0016939
 51
359.9983061
  0
LINE
  5
1C6
330
1BF
100
AcDbEntity
  8
LAYER_3
100
AcDbLine
 10
-23.5014
 20
47.8717
 30
0.0
 11
-23.0095
 21
47.8717
 31
0.0
  0
LINE
  5
1C7
330
1BF
100
AcDbEntity
  8
LAYER_3
100
AcDbLine
 10
-22.6198
 20
47.8717
 30
0.0
 11
-21.9294
 21
47.8717
 31
0.0
  0
LINE
  5
1C8
330
1BF
100
AcDbEntity
  8
LAYER_3
100
AcDbLine
 10
-22.6198
 20
47.8717
 30
0.0
 11
-22.6198
 21
45.6449
 31
0.0
  0
LINE
  5
1C9
330
1BF
100
AcDbEntity
  8
LAYER_3
100
AcDbLine
 10
-23.0095
 20
47.8717
 30
0.0
 11
-23.0095
 21
45.6449
 31
0.0
  0
LINE
  5
1CA
330
1BF
100
AcDbEntity
  8
LAYER_3
100
AcDbLine
 10
-21.9294
 20
47.8717
 30
0.0
 11
-21.6566
 21
48.1446
 31
0.0
  0
LINE
  5
1CB
330
1BF
100
AcDbEntity
  8
LAYER_3
100
AcDbLine
 10
-21.9294
 20
47.8717
 30
0.0
 11
-21.9294
 21
45.6449
 31
0.0
  0
LINE
  5
1CC
330
1BF
100
AcDbEntity
  8
LAYER_3
100
AcDbLine
 10
-21.6566
 20
49.8339
 30
0.0
 11
-23.5014
 21
49.8339
 31
0.0
  0
LINE
  5
1CD
330
1BF
100
AcDbEntity
  8
LAYER_3
100
AcDbLine
 10
-21.6566
 20
49.8339
 30
0.0
 11
-21.6566
 21
48.1446
 31
0.0
  0
LINE
  5
1CE
330
1BF
100
AcDbEntity
  8
LAYER_3
100
AcDbLine
 10
-23.5014
 20
44.7432
 30
0.0
 11
-25.0734
 21
44.7432
 31
0.0
  0
LINE
  5
1CF
330
1BF
100
AcDbEntity
  8
LAYER_3
100
AcDbLine
 10
-23.5014
 20
45.6449
 30
0.0
 11
-23.9924
 21
45.6449
 31
0.0
  0
LINE
  5
1D0
330
1BF
100
AcDbEntity
  8
LAYER_3
100
AcDbLine
 10
-24.383
 20
45.6449
 30
0.0
 11
-25.0734
 21
45.6449
 31
0.0
  0
ARC
  5
1D1
330
1BF
100
AcDbEntity
  8
LAYER_3
100
AcDbCircle
 10
-25.0734
 20
45.1938
 30
0.0
 40
0.4506
100
AcDbArc
 50
180.0010723
 51
269.9989277
  0
ARC
  5
1D2
330
1BF
100
AcDbEntity
  8
LAYER_3
100
AcDbCircle
 10
-25.0561
 20
45.177
 30
0.0
 40
0.4682
100
AcDbArc
 50
92.11738379
 51
177.9461581
  0
LINE
  5
1D3
330
1BF
100
AcDbEntity
  8
LAYER_3
100
AcDbLine
 10
-23.5014
 20
47.8717
 30
0.0
 11
-23.9924
 21
47.8717
 31
0.0
  0
LINE
  5
1D4
330
1BF
100
AcDbEntity
  8
LAYER_3
100
AcDbLine
 10
-24.383
 20
47.8717
 30
0.0
 11
-25.0734
 21
47.8717
 31
0.0
  0
LINE
  5
1D5
330
1BF
100
AcDbEntity
  8
LAYER_3
100
AcDbLine
 10
-24.383
 20
47.8717
 30
0.0
 11
-24.383
 21
45.6449
 31
0.0
  0
LINE
  5
1D6
330
1BF
100
AcDbEntity
  8
LAYER_3
100
AcDbLine
 10
-23.9924
 20
47.8717
 30
0.0
 11
-23.9924
 21
45.6449
 31
0.0
  0
LINE
  5
1D7
330
1BF
100
AcDbEntity
  8
LAYER_3
100
AcDbLine
 10
-25.0734
 20
47.8717
 30
0.0
 11
-25.3463
 21
48.1446
 31
0.0
  0
LINE
  5
1D8
330
1BF
100
AcDbEntity
  8
LAYER_3
100
AcDbLine
 10
-25.0734
 20
47.8717
 30
0.0
 11
-25.0734
 21
45.6449
 31
0.0
  0
LINE
  5
1D9
330
1BF
100
AcDbEntity
  8
LAYER_3
100
AcDbLine
 10
-25.3463
 20
49.8339
 30
0.0
 11
-23.5014
 21
49.8339
 31
0.0
  0
LINE
  5
1DA
330
1BF
100
AcDbEntity
  8
LAYER_3
100
AcDbLine
 10
-25.3463
 20
49.8339
 30
0.0
 11
-25.3463
 21
48.1446
 31
0.0
  0
LINE
  5
1DB
330
1BF
100
AcDbEntity
  8
LAYER_3
100
AcDbLine
 10
-25.5638
 20
44.7432
 30
0.0
 11
-21.4385
 21
44.7432
 31
0.0
  0
LINE
  5
1DC
330
1BF
100
AcDbEntity
  8
LAYER_3
100
AcDbLine
 10
-26.2516
 20
42.3759
 30
0.0
 11
-26.2516
 21
44.1102
 31
0.0
  0
LINE
  5
1DD
330
1BF
100
AcDbEntity
  8
LAYER_3
100
AcDbLine
 10
-20.7512
 20
42.3759
 30
0.0
 11
-20.7512
 21
44.1102
 31
0.0
  0
LINE
  5
1DE
330
1BF
100
AcDbEntity
  8
LAYER_3
100
AcDbLine
 10
-22.1258
 20
42.3759
 30
0.0
 11
-22.1258
 21
44.1102
 31
0.0
  0
LINE
  5
1DF
330
1BF
100
AcDbEntity
  8
LAYER_3
100
AcDbLine
 10
-24.876
 20
42.3759
 30
0.0
 11
-24.876
 21
44.1102
 31
0.0
  0
ARC
  5
1E0
330
1BF
100
AcDbEntity
  8
LAYER_3
100
AcDbCircle
 10
-23.9935
 20
43.6817
 30
0.0
 40
0.981
100
AcDbArc
 50
122.1348539
 51
154.1003166
  0
ARC
  5
1E1
330
1BF
100
AcDbEntity
  8
LAYER_3
100
AcDbCircle
 10
-23.7198
 20
43.1683
 30
0.0
 40
1.5618
100
AcDbArc
 50
94.68923186
 51
120.6186974
  0
ARC
  5
1E2
330
1BF
100
AcDbEntity
  8
LAYER_3
100
AcDbCircle
 10
-23.5487
 20
42.3475
 30
0.0
 40
2.3962
100
AcDbArc
 50
88.86960338000002
 51
97.1645764
  0
ARC
  5
1E3
330
1BF
100
AcDbEntity
  8
LAYER_3
100
AcDbCircle
 10
-23.0081
 20
43.6818
 30
0.0
 40
0.9808
100
AcDbArc
 50
25.89892806
 51
57.87231550000001
  0
ARC
  5
1E4
330
1BF
100
AcDbEntity
  8
LAYER_3
100
AcDbCircle
 10
-23.2822
 20
43.1674
 30
0.0
 40
1.5627
100
AcDbArc
 50
59.39199518
 51
85.32240984
  0
ARC
  5
1E5
330
1BF
100
AcDbEntity
  8
LAYER_3
100
AcDbCircle
 10
-23.4539
 20
42.3433
 30
0.0
 40
2.4004
100
AcDbArc
 50
82.84099093
 51
91.13366853
  0
ARC
  5
1E6
330
1BF
100
AcDbEntity
  8
LAYER_3
100
AcDbCircle
 10
-25.3302
 20
43.933
 30
0.0
 40
0.9383
100
AcDbArc
 50
136.2383199
 51
169.1172095
  0
ARC
  5
1E7
330
1BF
100
AcDbEntity
  8
LAYER_3
100
AcDbCircle
 10
-25.5903
 20
44.1239
 30
0.0
 40
0.6198
100
AcDbArc
 50
87.6014126
 51
132.3456238
  0
ARC
  5
1E8
330
1BF
100
AcDbEntity
  8
LAYER_3
100
AcDbCircle
 10
-25.797
 20
43.9332
 30
0.0
 40
0.9378
100
AcDbArc
 50
10.88121954
 51
43.77907338
  0
ARC
  5
1E9
330
1BF
100
AcDbEntity
  8
LAYER_3
100
AcDbCircle
 10
-25.5377
 20
44.1231
 30
0.0
 40
0.6206
100
AcDbArc
 50
47.68298940999999
 51
92.41285922
  0
ARC
  5
1EA
330
1BF
100
AcDbEntity
  8
LAYER_3
100
AcDbCircle
 10
-21.2035
 20
43.9331
 30
0.0
 40
0.9392
100
AcDbArc
 50
136.2883688
 51
169.12749
  0
ARC
  5
1EB
330
1BF
100
AcDbEntity
  8
LAYER_3
100
AcDbCircle
 10
-21.465
 20
44.1243
 30
0.0
 40
0.6195
100
AcDbArc
 50
87.55174814
 51
132.3609185
  0
ARC
  5
1EC
330
1BF
100
AcDbEntity
  8
LAYER_3
100
AcDbCircle
 10
-21.6725
 20
43.9331
 30
0.0
 40
0.9382
100
AcDbArc
 50
10.88335065
 51
43.76891669
  0
ARC
  5
1ED
330
1BF
100
AcDbEntity
  8
LAYER_3
100
AcDbCircle
 10
-21.4126
 20
44.1238
 30
0.0
 40
0.62
100
AcDbArc
 50
47.66079293
 51
92.39709187
  0
LINE
  5
1EE
330
1BF
100
AcDbEntity
  8
LAYER_3
100
AcDbLine
 10
-25.5638
 20
41.7429
 30
0.0
 11
-21.4385
 21
41.7429
 31
0.0
  0
ARC
  5
1EF
330
1BF
100
AcDbEntity
  8
LAYER_3
100
AcDbCircle
 10
-23.9935
 20
42.8043
 30
0.0
 40
0.9809
100
AcDbArc
 50
205.8940895
 51
237.8644514
  0
ARC
  5
1F0
330
1BF
100
AcDbEntity
  8
LAYER_3
100
AcDbCircle
 10
-23.72
 20
43.3176
 30
0.0
 40
1.5616
100
AcDbArc
 50
239.3824015
 51
265.3149483
  0
ARC
  5
1F1
330
1BF
100
AcDbEntity
  8
LAYER_3
100
AcDbCircle
 10
-23.5487
 20
44.1391
 30
0.0
 40
2.3966
100
AcDbArc
 50
262.8378862
 51
271.1314113999999
  0
ARC
  5
1F2
330
1BF
100
AcDbEntity
  8
LAYER_3
100
AcDbCircle
 10
-23.0081
 20
42.8042
 30
0.0
 40
0.9808
100
AcDbArc
 50
302.1283792
 51
334.1066659
  0
ARC
  5
1F3
330
1BF
100
AcDbEntity
  8
LAYER_3
100
AcDbCircle
 10
-23.2821
 20
43.3185
 30
0.0
 40
1.5625
100
AcDbArc
 50
274.6734136000001
 51
300.6069054
  0
ARC
  5
1F4
330
1BF
100
AcDbEntity
  8
LAYER_3
100
AcDbCircle
 10
-23.4539
 20
44.1432
 30
0.0
 40
2.4008
100
AcDbArc
 50
268.8653195
 51
277.1565487
  0
ARC
  5
1F5
330
1BF
100
AcDbEntity
  8
LAYER_3
100
AcDbCircle
 10
-25.3302
 20
42.553
 30
0.0
 40
0.9382
100
AcDbArc
 50
190.8783926999999
 51
223.7619653
  0
ARC
  5
1F6
330
1BF
100
AcDbEntity
  8
LAYER_3
100
AcDbCircle
 10
-25.5904
 20
42.3621
 30
0.0
 40
0.6198
100
AcDbArc
 50
227.6591637
 51
272.4032797
  0
ARC
  5
1F7
330
1BF
100
AcDbEntity
  8
LAYER_3
100
AcDbCircle
 10
-25.7969
 20
42.5529
 30
0.0
 40
0.9378
100
AcDbArc
 50
316.2206415
 51
349.1231789
  0
ARC
  5
1F8
330
1BF
100
AcDbEntity
  8
LAYER_3
100
AcDbCircle
 10
-25.5376
 20
42.363
 30
0.0
 40
0.6206
100
AcDbArc
 50
267.5824569
 51
312.3122232
  0
ARC
  5
1F9
330
1BF
100
AcDbEntity
  8
LAYER_3
100
AcDbCircle
 10
-21.2036
 20
42.553
 30
0.0
 40
0.9391
100
AcDbArc
 50
190.8681156
 51
223.7119162
  0
ARC
  5
1FA
330
1BF
100
AcDbEntity
  8
LAYER_3
100
AcDbCircle
 10
-21.465
 20
42.3618
 30
0.0
 40
0.6194
100
AcDbArc
 50
227.6438744
 51
272.4529318999999
  0
ARC
  5
1FB
330
1BF
100
AcDbEntity
  8
LAYER_3
100
AcDbCircle
 10
-21.6724
 20
42.5529
 30
0.0
 40
0.9381
100
AcDbArc
 50
316.2307981
 51
349.1210476000001
  0
ARC
  5
1FC
330
1BF
100
AcDbEntity
  8
LAYER_3
100
AcDbCircle
 10
-21.4125
 20
42.3623
 30
0.0
 40
0.62
100
AcDbArc
 50
267.5982164
 51
312.3344201
  0
ENDBLK
  5
1FD
330
1BF
100
AcDbEntity
  8
0
100
AcDbBlockEnd
  0
BLOCK
  5
1FF
330
1FE
100
AcDbEntity
  8
LAYER_3
100
AcDbBlockBegin
  2
AIGNBL03010026
 70
     0
 10
0.0
 20
0.0
 30
0.0
  3
AIGNBL03010026
  1

  0
LINE
  5
200
330
1FE
100
AcDbEntity
  8
LAYER_3
100
AcDbLine
 10
67.1129
 20
44.7432
 30
0.0
 11
68.6849
 21
44.7432
 31
0.0
  0
LINE
  5
201
330
1FE
100
AcDbEntity
  8
LAYER_3
100
AcDbLine
 10
67.1129
 20
45.6449
 30
0.0
 11
67.6048
 21
45.6449
 31
0.0
  0
LINE
  5
202
330
1FE
100
AcDbEntity
  8
LAYER_3
100
AcDbLine
 10
67.9945
 20
45.6449
 30
0.0
 11
68.6849
 21
45.6449
 31
0.0
  0
ARC
  5
203
330
1FE
100
AcDbEntity
  8
LAYER_3
100
AcDbCircle
 10
68.6679
 20
45.1773
 30
0.0
 40
0.4679
100
AcDbArc
 50
2.022047086
 51
87.91441095
  0
ARC
  5
204
330
1FE
100
AcDbEntity
  8
LAYER_3
100
AcDbCircle
 10
68.6849
 20
45.1938
 30
0.0
 40
0.4506
100
AcDbArc
 50
270.0020791999999
 51
359.9979208000001
  0
LINE
  5
205
330
1FE
100
AcDbEntity
  8
LAYER_3
100
AcDbLine
 10
67.1129
 20
47.8717
 30
0.0
 11
67.6048
 21
47.8717
 31
0.0
  0
LINE
  5
206
330
1FE
100
AcDbEntity
  8
LAYER_3
100
AcDbLine
 10
67.9945
 20
47.8717
 30
0.0
 11
68.6849
 21
47.8717
 31
0.0
  0
LINE
  5
207
330
1FE
100
AcDbEntity
  8
LAYER_3
100
AcDbLine
 10
67.9945
 20
47.8717
 30
0.0
 11
67.9945
 21
45.6449
 31
0.0
  0
LINE
  5
208
330
1FE
100
AcDbEntity
  8
LAYER_3
100
AcDbLine
 10
67.6048
 20
47.8717
 30
0.0
 11
67.6048
 21
45.6449
 31
0.0
  0
LINE
  5
209
330
1FE
100
AcDbEntity
  8
LAYER_3
100
AcDbLine
 10
68.6849
 20
47.8717
 30
0.0
 11
68.9577
 21
48.1446
 31
0.0
  0
LINE
  5
20A
330
1FE
100
AcDbEntity
  8
LAYER_3
100
AcDbLine
 10
68.6849
 20
47.8717
 30
0.0
 11
68.6849
 21
45.6449
 31
0.0
  0
LINE
  5
20B
330
1FE
100
AcDbEntity
  8
LAYER_3
100
AcDbLine
 10
68.9577
 20
49.8339
 30
0.0
 11
67.1129
 21
49.8339
 31
0.0
  0
LINE
  5
20C
330
1FE
100
AcDbEntity
  8
LAYER_3
100
AcDbLine
 10
68.9577
 20
49.8339
 30
0.0
 11
68.9577
 21
48.1446
 31
0.0
  0
LINE
  5
20D
330
1FE
100
AcDbEntity
  8
LAYER_3
100
AcDbLine
 10
67.1129
 20
44.7432
 30
0.0
 11
65.5409
 21
44.7432
 31
0.0
  0
LINE
  5
20E
330
1FE
100
AcDbEntity
  8
LAYER_3
100
AcDbLine
 10
67.1129
 20
45.6449
 30
0.0
 11
66.6219
 21
45.6449
 31
0.0
  0
LINE
  5
20F
330
1FE
100
AcDbEntity
  8
LAYER_3
100
AcDbLine
 10
66.2312
 20
45.6449
 30
0.0
 11
65.5409
 21
45.6449
 31
0.0
  0
ARC
  5
210
330
1FE
100
AcDbEntity
  8
LAYER_3
100
AcDbCircle
 10
65.5409
 20
45.1938
 30
0.0
 40
0.4506
100
AcDbArc
 50
180.000687
 51
269.9993131
  0
ARC
  5
211
330
1FE
100
AcDbEntity
  8
LAYER_3
100
AcDbCircle
 10
65.5582
 20
45.177
 30
0.0
 40
0.4682
100
AcDbArc
 50
92.11738379
 51
177.9461581
  0
LINE
  5
212
330
1FE
100
AcDbEntity
  8
LAYER_3
100
AcDbLine
 10
67.1129
 20
47.8717
 30
0.0
 11
66.6219
 21
47.8717
 31
0.0
  0
LINE
  5
213
330
1FE
100
AcDbEntity
  8
LAYER_3
100
AcDbLine
 10
66.2312
 20
47.8717
 30
0.0
 11
65.5409
 21
47.8717
 31
0.0
  0
LINE
  5
214
330
1FE
100
AcDbEntity
  8
LAYER_3
100
AcDbLine
 10
66.2312
 20
47.8717
 30
0.0
 11
66.2312
 21
45.6449
 31
0.0
  0
LINE
  5
215
330
1FE
100
AcDbEntity
  8
LAYER_3
100
AcDbLine
 10
66.6219
 20
47.8717
 30
0.0
 11
66.6219
 21
45.6449
 31
0.0
  0
LINE
  5
216
330
1FE
100
AcDbEntity
  8
LAYER_3
100
AcDbLine
 10
65.5409
 20
47.8717
 30
0.0
 11
65.268
 21
48.1446
 31
0.0
  0
LINE
  5
217
330
1FE
100
AcDbEntity
  8
LAYER_3
100
AcDbLine
 10
65.5409
 20
47.8717
 30
0.0
 11
65.5409
 21
45.6449
 31
0.0
  0
LINE
  5
218
330
1FE
100
AcDbEntity
  8
LAYER_3
100
AcDbLine
 10
65.268
 20
49.8339
 30
0.0
 11
67.1129
 21
49.8339
 31
0.0
  0
LINE
  5
219
330
1FE
100
AcDbEntity
  8
LAYER_3
100
AcDbLine
 10
65.268
 20
49.8339
 30
0.0
 11
65.268
 21
48.1446
 31
0.0
  0
ENDBLK
  5
21A
330
1FE
100
AcDbEntity
  8
0
100
AcDbBlockEnd
  0
BLOCK
  5
21C
330
21B
100
AcDbEntity
  8
LAYER_3
100
AcDbBlockBegin
  2
AIGNBL03010027
 70
     0
 10
0.0
 20
0.0
 30
0.0
  3
AIGNBL03010027
  1

  0
INSERT
  5
21D
330
21B
100
AcDbEntity
  8
LAYER_3
100
AcDbBlockReference
  2
AIGNBL03020028
 10
0.0
 20
0.0
 30
0.0
  0
ENDBLK
  5
21E
330
21B
100
AcDbEntity
  8
0
100
AcDbBlockEnd
  0
BLOCK
  5
220
330
21F
100
AcDbEntity
  8
LAYER_3
100
AcDbBlockBegin
  2
AIGNBL03010029
 70
     0
 10
0.0
 20
0.0
 30
0.0
  3
AIGNBL03010029
  1

  0
INSERT
  5
221
330
21F
100
AcDbEntity
  8
LAYER_3
100
AcDbBlockReference
  2
AIGNBL0302002A
 10
0.0
 20
0.0
 30
0.0
  0
ENDBLK
  5
222
330
21F
100
AcDbEntity
  8
0
100
AcDbBlockEnd
  0
BLOCK
  5
224
330
223
100
AcDbEntity
  8
LAYER_3
100
AcDbBlockBegin
  2
AIGNBL0301002B
 70
     0
 10
0.0
 20
0.0
 30
0.0
  3
AIGNBL0301002B
  1

  0
INSERT
  5
225
330
223
100
AcDbEntity
  8
LAYER_3
100
AcDbBlockReference
  2
AIGNBL0302002C
 10
0.0
 20
0.0
 30
0.0
  0
ENDBLK
  5
226
330
223
100
AcDbEntity
  8
0
100
AcDbBlockEnd
  0
BLOCK
  5
228
330
227
100
AcDbEntity
  8
LAYER_3
100
AcDbBlockBegin
  2
AIGNBL0301002D
 70
     0
 10
0.0
 20
0.0
 30
0.0
  3
AIGNBL0301002D
  1

  0
INSERT
  5
229
330
227
100
AcDbEntity
  8
LAYER_3
100
AcDbBlockReference
  2
AIGNBL0302002E
 10
0.0
 20
0.0
 30
0.0
  0
INSERT
  5
22A
330
227
100
AcDbEntity
  8
LAYER_3
100
AcDbBlockReference
  2
AIGNBL0302002F
 10
0.0
 20
0.0
 30
0.0
  0
INSERT
  5
22B
330
227
100
AcDbEntity
  8
LAYER_3
100
AcDbBlockReference
  2
AIGNBL03020030
 10
0.0
 20
0.0
 30
0.0
  0
INSERT
  5
22C
330
227
100
AcDbEntity
  8
LAYER_3
100
AcDbBlockReference
  2
AIGNBL03020031
 10
0.0
 20
0.0
 30
0.0
  0
INSERT
  5
22D
330
227
100
AcDbEntity
  8
LAYER_3
100
AcDbBlockReference
  2
AIGNBL03020032
 10
0.0
 20
0.0
 30
0.0
  0
INSERT
  5
22E
330
227
100
AcDbEntity
  8
LAYER_3
100
AcDbBlockReference
  2
AIGNBL03020033
 10
0.0
 20
0.0
 30
0.0
  0
INSERT
  5
22F
330
227
100
AcDbEntity
  8
LAYER_3
100
AcDbBlockReference
  2
AIGNBL03020034
 10
0.0
 20
0.0
 30
0.0
  0
INSERT
  5
230
330
227
100
AcDbEntity
  8
LAYER_3
100
AcDbBlockReference
  2
AIGNBL03020035
 10
0.0
 20
0.0
 30
0.0
  0
INSERT
  5
231
330
227
100
AcDbEntity
  8
LAYER_3
100
AcDbBlockReference
  2
AIGNBL03020036
 10
0.0
 20
0.0
 30
0.0
  0
INSERT
  5
232
330
227
100
AcDbEntity
  8
LAYER_3
100
AcDbBlockReference
  2
AIGNBL03020037
 10
0.0
 20
0.0
 30
0.0
  0
ENDBLK
  5
233
330
227
100
AcDbEntity
  8
0
100
AcDbBlockEnd
  0
BLOCK
  5
235
330
234
100
AcDbEntity
  8
LAYER_4
100
AcDbBlockBegin
  2
AIGNBL04010002
 70
     0
 10
0.0
 20
0.0
 30
0.0
  3
AIGNBL04010002
  1

  0
ARC
  5
236
330
234
100
AcDbEntity
  8
LAYER_4
100
AcDbCircle
 10
181.2361
 20
51.0518
 30
0.0
 40
2.085
100
AcDbArc
 50
359.9990616000001
 51
90.00093841
  0
ARC
  5
237
330
234
100
AcDbEntity
  8
LAYER_4
100
AcDbCircle
 10
181.2364
 20
51.0522
 30
0.0
 40
2.0846
100
AcDbArc
 50
90.00927268
 51
180.0099666
  0
ARC
  5
238
330
234
100
AcDbEntity
  8
LAYER_4
100
AcDbCircle
 10
181.2361
 20
51.0519
 30
0.0
 40
2.0843
100
AcDbArc
 50
180.0023133
 51
270.0004358
  0
ARC
  5
239
330
234
100
AcDbEntity
  8
LAYER_4
100
AcDbCircle
 10
181.2365
 20
51.0522
 30
0.0
 40
2.0846
100
AcDbArc
 50
269.9893524999999
 51
359.9886593000001
  0
ARC
  5
23A
330
234
100
AcDbEntity
  8
LAYER_4
100
AcDbCircle
 10
181.2365
 20
51.0515
 30
0.0
 40
1.2199
100
AcDbArc
 50
0.01483428533
 51
90.01804168
  0
ARC
  5
23B
330
234
100
AcDbEntity
  8
LAYER_4
100
AcDbCircle
 10
181.2361
 20
51.0519
 30
0.0
 40
1.2195
100
AcDbArc
 50
90.00175626
 51
180.0029419
  0
ARC
  5
23C
330
234
100
AcDbEntity
  8
LAYER_4
100
AcDbCircle
 10
181.2361
 20
51.0518
 30
0.0
 40
1.2195
100
AcDbArc
 50
180.0016044
 51
269.9983956
  0
ARC
  5
23D
330
234
100
AcDbEntity
  8
LAYER_4
100
AcDbCircle
 10
181.2365
 20
51.0522
 30
0.0
 40
1.2199
100
AcDbArc
 50
269.9818051
 51
359.9806208999999
  0
LINE
  5
23E
330
234
100
AcDbEntity
  8
LAYER_4
100
AcDbLine
 10
184.9472
 20
49.8323
 30
0.0
 11
184.9472
 21
52.2714
 31
0.0
  0
LINE
  5
23F
330
234
100
AcDbEntity
  8
LAYER_4
100
AcDbLine
 10
190.1252
 20
48.9676
 30
0.0
 11
190.1252
 21
53.1368
 31
0.0
  0
LINE
  5
240
330
234
100
AcDbEntity
  8
LAYER_4
100
AcDbLine
 10
184.9472
 20
52.2714
 30
0.0
 11
190.1252
 21
53.1368
 31
0.0
  0
LINE
  5
241
330
234
100
AcDbEntity
  8
LAYER_4
100
AcDbLine
 10
184.9472
 20
49.8323
 30
0.0
 11
190.1252
 21
48.9676
 31
0.0
  0
LINE
  5
242
330
234
100
AcDbEntity
  8
LAYER_4
100
AcDbLine
 10
181.2361
 20
51.0518
 30
0.0
 11
181.2361
 21
50.8004
 31
0.0
  0
LINE
  5
243
330
234
100
AcDbEntity
  8
LAYER_4
100
AcDbLine
 10
181.2361
 20
50.5599
 30
0.0
 11
181.2361
 21
48.3729
 31
0.0
  0
LINE
  5
244
330
234
100
AcDbEntity
  8
LAYER_4
100
AcDbLine
 10
181.2361
 20
51.0518
 30
0.0
 11
181.4883
 21
51.0518
 31
0.0
  0
LINE
  5
245
330
234
100
AcDbEntity
  8
LAYER_4
100
AcDbLine
 10
181.7288
 20
51.0518
 30
0.0
 11
183.9157
 21
51.0518
 31
0.0
  0
LINE
  5
246
330
234
100
AcDbEntity
  8
LAYER_4
100
AcDbLine
 10
181.2361
 20
51.0518
 30
0.0
 11
181.2361
 21
51.30399999999999
 31
0.0
  0
LINE
  5
247
330
234
100
AcDbEntity
  8
LAYER_4
100
AcDbLine
 10
181.2361
 20
51.5445
 30
0.0
 11
181.2361
 21
53.7314
 31
0.0
  0
LINE
  5
248
330
234
100
AcDbEntity
  8
LAYER_4
100
AcDbLine
 10
181.2361
 20
51.0518
 30
0.0
 11
180.9846
 21
51.0518
 31
0.0
  0
LINE
  5
249
330
234
100
AcDbEntity
  8
LAYER_4
100
AcDbLine
 10
180.7442
 20
51.0518
 30
0.0
 11
178.5572
 21
51.0518
 31
0.0
  0
LINE
  5
24A
330
234
100
AcDbEntity
  8
LAYER_4
100
AcDbLine
 10
187.1404
 20
51.0518
 30
0.0
 11
187.3925
 21
51.0518
 31
0.0
  0
LINE
  5
24B
330
234
100
AcDbEntity
  8
LAYER_4
100
AcDbLine
 10
187.633
 20
51.0518
 30
0.0
 11
190.5579
 21
51.0518
 31
0.0
  0
LINE
  5
24C
330
234
100
AcDbEntity
  8
LAYER_4
100
AcDbLine
 10
187.1404
 20
51.0518
 30
0.0
 11
186.8882
 21
51.0518
 31
0.0
  0
LINE
  5
24D
330
234
100
AcDbEntity
  8
LAYER_4
100
AcDbLine
 10
186.6477
 20
51.0518
 30
0.0
 11
184.4614
 21
51.0518
 31
0.0
  0
ENDBLK
  5
24E
330
234
100
AcDbEntity
  8
0
100
AcDbBlockEnd
  0
ENDSEC
  0
SECTION
  2
ENTITIES
  0
TEXT
  5
24F
330
6F
100
AcDbEntity
  8
LAYER_1
100
AcDbText
 10
51.17275
 20
195.482
 30
0.0
 40
3.0923
  1
114
 41
0.5
 72
     1
 11
52.7189
 21
195.482
 31
0.0
100
AcDbText
  0
TEXT
  5
250
330
6F
100
AcDbEntity
  8
LAYER_1
100
AcDbText
 10
-28.56419666666667
 20
235.7212
 30
0.0
 40
3.0923
  1
閉
 41
0.5
 72
     2
 11
-27.2242
 21
235.7212
 31
0.0
100
AcDbText
  0
TEXT
  5
251
330
6F
100
AcDbEntity
  8
LAYER_1
100
AcDbText
 10
-7.9399
 20
249.473
 30
0.0
 40
3.0923
  1
開
 41
0.5
100
AcDbText
  0
TEXT
  5
252
330
6F
100
AcDbEntity
  8
LAYER_1
100
AcDbText
 10
-9.722700000292342
 20
170.4435041666667
 30
0.0
 40
3.0923
  1
120
 50
89.99999999
 41
0.5
 72
     1
 11
-9.7227
 21
172.1185
 31
0.0
100
AcDbText
  0
TEXT
  5
253
330
6F
100
AcDbEntity
  8
LAYER_1
100
AcDbText
 10
64.4143125
 20
166.5557
 30
0.0
 40
3.0923
  1
%%c40
 41
0.5
 72
     1
 11
66.347
 21
166.5557
 31
0.0
100
AcDbText
  0
TEXT
  5
254
330
6F
100
AcDbEntity
  8
LAYER_1
100
AcDbText
 10
62.68020333333333
 20
237.0799
 30
0.0
 40
3.0923
  1
水栓取付穴
 41
0.5
 72
     1
 11
67.1125
 21
237.0799
 31
0.0
100
AcDbText
  0
TEXT
  5
255
330
6F
100
AcDbEntity
  8
LAYER_1
100
AcDbText
 10
74.40285333333334
 20
244.6398
 30
0.0
 40
3.0923
  1
%%c32～35
 41
0.5
 72
     2
 11
83.4736
 21
244.6398
 31
0.0
100
AcDbText
  0
TEXT
  5
256
330
6F
100
AcDbEntity
  8
LAYER_1
100
AcDbText
 10
64.5751125
 20
151.2778
 30
0.0
 40
3.0923
  1
%%c30
 41
0.5
 72
     1
 11
66.5078
 21
151.2778
 31
0.0
100
AcDbText
  0
TEXT
  5
257
330
6F
100
AcDbEntity
  8
LAYER_1
100
AcDbText
 10
-36.47080000067463
 20
148.996325
 30
0.0
 40
3.0923
  1
max.46
 50
89.99999999
 41
0.5
 72
     1
 11
-36.4708
 21
152.8617
 31
0.0
100
AcDbText
  0
TEXT
  5
258
330
6F
100
AcDbEntity
  8
LAYER_1
100
AcDbText
 10
-42.16110000020239
 20
148.5445875
 30
0.0
 40
3.0923
  1
60
 50
89.99999999
 41
0.5
 72
     1
 11
-42.1611
 21
149.7042
 31
0.0
100
AcDbText
  0
TEXT
  5
259
330
6F
100
AcDbEntity
  8
LAYER_1
100
AcDbText
 10
-9.635900000359804
 20
97.43146666666667
 30
0.0
 40
3.0923
  1
462
 50
89.99999999
 41
0.5
 72
     1
 11
-9.6359
 21
99.493
 31
0.0
100
AcDbText
  0
TEXT
  5
25A
330
6F
100
AcDbEntity
  8
LAYER_1
100
AcDbText
 10
49.71889999977512
 20
159.2002416666667
 30
0.0
 40
3.0923
  1
27
 50
89.99999999
 41
0.5
 72
     1
 11
49.7189
 21
160.4887
 31
0.0
100
AcDbText
  0
TEXT
  5
25B
330
6F
100
AcDbEntity
  8
LAYER_1
100
AcDbText
 10
28.9918999998201
 20
160.3521333333333
 30
0.0
 40
3.0923
  1
31
 50
89.99999999
 41
0.5
 72
     1
 11
28.9919
 21
161.3829
 31
0.0
100
AcDbText
  0
TEXT
  5
25C
330
6F
100
AcDbEntity
  8
LAYER_1
100
AcDbText
 10
33.35735833333334
 20
152.4989
 30
0.0
 40
3.0923
  1
35%%d
 41
0.5
 72
     1
 11
35.1612
 21
152.4989
 31
0.0
100
AcDbText
  0
TEXT
  5
25D
330
6F
100
AcDbEntity
  8
LAYER_1
100
AcDbText
 10
-35.2026
 20
34.0677
 30
0.0
 40
3.0923
  1
G 3/8
 41
0.5
100
AcDbText
  0
LINE
  5
25E
330
6F
100
AcDbEntity
  8
LAYER_3
100
AcDbLine
 10
28.2344
 20
157.2426
 30
0.0
 11
61.1398
 21
157.2426
 31
0.0
  0
LINE
  5
25F
330
6F
100
AcDbEntity
  8
LAYER_3
100
AcDbLine
 10
38.6129
 20
149.2475
 30
0.0
 11
38.6129
 21
195.5202
 31
0.0
  0
LINE
  5
260
330
6F
100
AcDbEntity
  8
LAYER_3
100
AcDbLine
 10
67.0991
 20
194.8201
 30
0.0
 11
38.626
 21
194.8201
 31
0.0
  0
LINE
  5
261
330
6F
100
AcDbEntity
  8
LAYER_3
100
AcDbLine
 10
40.8377
 20
195.4124
 30
0.0
 11
38.6274
 21
194.8201
 31
0.0
  0
LINE
  5
262
330
6F
100
AcDbEntity
  8
LAYER_3
100
AcDbLine
 10
38.6274
 20
194.8201
 30
0.0
 11
40.8377
 21
194.2277
 31
0.0
  0
LINE
  5
263
330
6F
100
AcDbEntity
  8
LAYER_3
100
AcDbLine
 10
40.8377
 20
194.2277
 30
0.0
 11
40.8377
 21
195.4124
 31
0.0
  0
LINE
  5
264
330
6F
100
AcDbEntity
  8
LAYER_3
100
AcDbLine
 10
64.888
 20
194.2424
 30
0.0
 11
67.0984
 21
194.8346
 31
0.0
  0
LINE
  5
265
330
6F
100
AcDbEntity
  8
LAYER_3
100
AcDbLine
 10
67.0984
 20
194.8346
 30
0.0
 11
64.888
 21
195.427
 31
0.0
  0
LINE
  5
266
330
6F
100
AcDbEntity
  8
LAYER_3
100
AcDbLine
 10
64.888
 20
195.427
 30
0.0
 11
64.888
 21
194.2424
 31
0.0
  0
LINE
  5
267
330
6F
100
AcDbEntity
  8
LAYER_3
100
AcDbLine
 10
67.1129
 20
190.0493
 30
0.0
 11
67.1129
 21
195.5346
 31
0.0
  0
INSERT
  5
268
330
6F
100
AcDbEntity
  8
LAYER_3
100
AcDbBlockReference
  2
AIGNBL03010002
 10
0.0
 20
0.0
 30
0.0
  0
CIRCLE
  5
269
330
6F
100
AcDbEntity
  8
LAYER_3
100
AcDbCircle
 10
-23.5014
 20
250.8521
 30
0.0
 40
5.0002
  0
INSERT
  5
26A
330
6F
100
AcDbEntity
  8
LAYER_3
100
AcDbBlockReference
  2
AIGNBL03010004
 10
0.0
 20
0.0
 30
0.0
  0
INSERT
  5
26B
330
6F
100
AcDbEntity
  8
LAYER_3
100
AcDbBlockReference
  2
AIGNBL03010006
 10
0.0
 20
0.0
 30
0.0
  0
LINE
  5
26C
330
6F
100
AcDbEntity
  8
LAYER_3
  6
AIGENLINE022
100
AcDbLine
 10
-12.3568
 20
249.9447
 30
0.0
 11
-12.3568
 21
251.7603
 31
0.0
  0
LINE
  5
26D
330
6F
100
AcDbEntity
  8
LAYER_3
  6
AIGENLINE022
100
AcDbLine
 10
-18.5849
 20
251.7603
 30
0.0
 11
-12.3568
 21
251.7603
 31
0.0
  0
LINE
  5
26E
330
6F
100
AcDbEntity
  8
LAYER_3
  6
AIGENLINE022
100
AcDbLine
 10
-18.5849
 20
249.9447
 30
0.0
 11
-12.3568
 21
249.9447
 31
0.0
  0
LINE
  5
26F
330
6F
100
AcDbEntity
  8
LAYER_3
100
AcDbLine
 10
-9.1581
 20
250.8521
 30
0.0
 11
-11.417
 21
250.8521
 31
0.0
  0
INSERT
  5
270
330
6F
100
AcDbEntity
  8
LAYER_3
100
AcDbBlockReference
  2
AIGNBL03010008
 10
0.0
 20
0.0
 30
0.0
  0
LINE
  5
271
330
6F
100
AcDbEntity
  8
LAYER_3
100
AcDbLine
 10
-17.8018
 20
187.161
 30
0.0
 11
-8.323
 21
187.161
 31
0.0
  0
LINE
  5
272
330
6F
100
AcDbEntity
  8
LAYER_3
100
AcDbLine
 10
-17.1018
 20
157.2426
 30
0.0
 11
-8.323
 21
157.2426
 31
0.0
  0
INSERT
  5
273
330
6F
100
AcDbEntity
  8
LAYER_3
100
AcDbBlockReference
  2
AIGNBL0301000A
 10
0.0
 20
0.0
 30
0.0
  0
INSERT
  5
274
330
6F
100
AcDbEntity
  8
LAYER_3
100
AcDbBlockReference
  2
AIGNBL0301000B
 10
0.0
 20
0.0
 30
0.0
  0
INSERT
  5
275
330
6F
100
AcDbEntity
  8
LAYER_3
100
AcDbBlockReference
  2
AIGNBL0301000D
 10
0.0
 20
0.0
 30
0.0
  0
INSERT
  5
276
330
6F
100
AcDbEntity
  8
LAYER_3
100
AcDbBlockReference
  2
AIGNBL0301000F
 10
0.0
 20
0.0
 30
0.0
  0
INSERT
  5
277
330
6F
100
AcDbEntity
  8
LAYER_3
100
AcDbBlockReference
  2
AIGNBL03010011
 10
0.0
 20
0.0
 30
0.0
  0
INSERT
  5
278
330
6F
100
AcDbEntity
  8
LAYER_3
100
AcDbBlockReference
  2
AIGNBL03010012
 10
0.0
 20
0.0
 30
0.0
  0
LINE
  5
279
330
6F
100
AcDbEntity
  8
LAYER_3
100
AcDbLine
 10
64.2845
 20
253.6805
 30
0.0
 11
69.942
 21
248.0237
 31
0.0
  0
INSERT
  5
27A
330
6F
100
AcDbEntity
  8
LAYER_3
100
AcDbBlockReference
  2
AIGNBL03010013
 10
0.0
 20
0.0
 30
0.0
  0
LINE
  5
27B
330
6F
100
AcDbEntity
  8
LAYER_3
100
AcDbLine
 10
86.0774
 20
243.9399
 30
0.0
 11
74.0258
 21
243.9399
 31
0.0
  0
INSERT
  5
27C
330
6F
100
AcDbEntity
  8
LAYER_3
100
AcDbBlockReference
  2
AIGNBL03010015
 10
0.0
 20
0.0
 30
0.0
  0
INSERT
  5
27D
330
6F
100
AcDbEntity
  8
LAYER_3
100
AcDbBlockReference
  2
AIGNBL03010016
 10
0.0
 20
0.0
 30
0.0
  0
LINE
  5
27E
330
6F
100
AcDbEntity
  8
LAYER_3
100
AcDbLine
 10
63.01600000000001
 20
157.2426
 30
0.0
 11
63.01600000000001
 21
155.2259
 31
0.0
  0
LINE
  5
27F
330
6F
100
AcDbEntity
  8
LAYER_3
100
AcDbLine
 10
63.01600000000001
 20
155.2259
 30
0.0
 11
62.7011
 21
157.2426
 31
0.0
  0
LINE
  5
280
330
6F
100
AcDbEntity
  8
LAYER_3
100
AcDbLine
 10
63.01600000000001
 20
155.2259
 30
0.0
 11
71.1471
 21
155.2259
 31
0.0
  0
LINE
  5
281
330
6F
100
AcDbEntity
  8
LAYER_3
100
AcDbLine
 10
71.1471
 20
155.2259
 30
0.0
 11
71.462
 21
157.2426
 31
0.0
  0
LINE
  5
282
330
6F
100
AcDbEntity
  8
LAYER_3
100
AcDbLine
 10
71.1471
 20
155.2259
 30
0.0
 11
71.1471
 21
157.2426
 31
0.0
  0
LINE
  5
283
330
6F
100
AcDbEntity
  8
LAYER_3
100
AcDbLine
 10
67.3651
 20
157.2426
 30
0.0
 11
67.3651
 21
155.7929
 31
0.0
  0
ARC
  5
284
330
6F
100
AcDbEntity
  8
LAYER_3
100
AcDbCircle
 10
67.1089
 20
155.795
 30
0.0
 40
0.2562
100
AcDbArc
 50
315.2000025999999
 51
359.523785
  0
ARC
  5
285
330
6F
100
AcDbEntity
  8
LAYER_3
100
AcDbCircle
 10
67.1121
 20
155.7937
 30
0.0
 40
0.253
100
AcDbArc
 50
270.1785394
 51
314.905508
  0
ARC
  5
286
330
6F
100
AcDbEntity
  8
LAYER_3
100
AcDbCircle
 10
67.1137
 20
155.7954
 30
0.0
 40
0.2547
100
AcDbArc
 50
225.2560589
 51
269.8190976
  0
ARC
  5
287
330
6F
100
AcDbEntity
  8
LAYER_3
100
AcDbCircle
 10
67.1177
 20
155.7946
 30
0.0
 40
0.257
100
AcDbArc
 50
180.3858349
 51
224.5068288
  0
LINE
  5
288
330
6F
100
AcDbEntity
  8
LAYER_3
100
AcDbLine
 10
66.8607
 20
155.7929
 30
0.0
 11
66.8607
 21
157.2426
 31
0.0
  0
LINE
  5
289
330
6F
100
AcDbEntity
  8
LAYER_3
100
AcDbLine
 10
61.6131
 20
148.2416
 30
0.0
 11
61.6131
 21
148.4917
 31
0.0
  0
LINE
  5
28A
330
6F
100
AcDbEntity
  8
LAYER_3
100
AcDbLine
 10
61.6131
 20
148.4917
 30
0.0
 11
72.6126
 21
148.4917
 31
0.0
  0
LINE
  5
28B
330
6F
100
AcDbEntity
  8
LAYER_3
100
AcDbLine
 10
72.6126
 20
148.4917
 30
0.0
 11
72.6126
 21
148.2416
 31
0.0
  0
LINE
  5
28C
330
6F
100
AcDbEntity
  8
LAYER_3
100
AcDbLine
 10
72.6126
 20
148.2416
 30
0.0
 11
61.6131
 21
148.2416
 31
0.0
  0
LINE
  5
28D
330
6F
100
AcDbEntity
  8
LAYER_3
100
AcDbLine
 10
60.8628
 20
147.8667
 30
0.0
 11
60.8628
 21
148.2416
 31
0.0
  0
LINE
  5
28E
330
6F
100
AcDbEntity
  8
LAYER_3
100
AcDbLine
 10
60.8628
 20
148.2416
 30
0.0
 11
73.363
 21
148.2416
 31
0.0
  0
LINE
  5
28F
330
6F
100
AcDbEntity
  8
LAYER_3
100
AcDbLine
 10
73.363
 20
148.2416
 30
0.0
 11
73.363
 21
147.8667
 31
0.0
  0
LINE
  5
290
330
6F
100
AcDbEntity
  8
LAYER_3
100
AcDbLine
 10
73.363
 20
147.8667
 30
0.0
 11
60.8628
 21
147.8667
 31
0.0
  0
LINE
  5
291
330
6F
100
AcDbEntity
  8
LAYER_3
100
AcDbLine
 10
60.8628
 20
145.3663
 30
0.0
 11
60.8628
 21
146.6162
 31
0.0
  0
LINE
  5
292
330
6F
100
AcDbEntity
  8
LAYER_3
100
AcDbLine
 10
60.8628
 20
146.6162
 30
0.0
 11
73.363
 21
146.6162
 31
0.0
  0
LINE
  5
293
330
6F
100
AcDbEntity
  8
LAYER_3
100
AcDbLine
 10
73.363
 20
146.6162
 30
0.0
 11
73.363
 21
145.3663
 31
0.0
  0
LINE
  5
294
330
6F
100
AcDbEntity
  8
LAYER_3
100
AcDbLine
 10
73.363
 20
145.3663
 30
0.0
 11
60.8628
 21
145.3663
 31
0.0
  0
LINE
  5
295
330
6F
100
AcDbEntity
  8
LAYER_3
100
AcDbLine
 10
66.0628
 20
142.8665
 30
0.0
 11
66.0628
 21
144.1164
 31
0.0
  0
LINE
  5
296
330
6F
100
AcDbEntity
  8
LAYER_3
100
AcDbLine
 10
66.0628
 20
144.1164
 30
0.0
 11
68.1629
 21
144.1164
 31
0.0
  0
LINE
  5
297
330
6F
100
AcDbEntity
  8
LAYER_3
100
AcDbLine
 10
68.1629
 20
144.1164
 30
0.0
 11
68.1629
 21
142.8665
 31
0.0
  0
LINE
  5
298
330
6F
100
AcDbEntity
  8
LAYER_3
100
AcDbLine
 10
68.1629
 20
142.8665
 30
0.0
 11
66.0628
 21
142.8665
 31
0.0
  0
LINE
  5
299
330
6F
100
AcDbEntity
  8
LAYER_3
100
AcDbLine
 10
67.7378
 20
146.6162
 30
0.0
 11
67.7378
 21
147.8667
 31
0.0
  0
LINE
  5
29A
330
6F
100
AcDbEntity
  8
LAYER_3
100
AcDbLine
 10
66.4879
 20
146.6162
 30
0.0
 11
66.4879
 21
147.8667
 31
0.0
  0
LINE
  5
29B
330
6F
100
AcDbEntity
  8
LAYER_3
100
AcDbLine
 10
67.7378
 20
144.1164
 30
0.0
 11
67.7378
 21
145.3663
 31
0.0
  0
LINE
  5
29C
330
6F
100
AcDbEntity
  8
LAYER_3
100
AcDbLine
 10
66.4879
 20
144.1164
 30
0.0
 11
66.4879
 21
145.3663
 31
0.0
  0
LINE
  5
29D
330
6F
100
AcDbEntity
  8
LAYER_3
100
AcDbLine
 10
70.8308
 20
145.367
 30
0.0
 11
70.8308
 21
142.4917
 31
0.0
  0
LINE
  5
29E
330
6F
100
AcDbEntity
  8
LAYER_3
100
AcDbLine
 10
70.8308
 20
142.4917
 30
0.0
 11
70.5793
 21
142.2416
 31
0.0
  0
LINE
  5
29F
330
6F
100
AcDbEntity
  8
LAYER_3
100
AcDbLine
 10
70.5793
 20
142.2416
 30
0.0
 11
63.581
 21
142.2416
 31
0.0
  0
LINE
  5
2A0
330
6F
100
AcDbEntity
  8
LAYER_3
100
AcDbLine
 10
63.581
 20
142.2416
 30
0.0
 11
63.3315
 21
142.4917
 31
0.0
  0
LINE
  5
2A1
330
6F
100
AcDbEntity
  8
LAYER_3
100
AcDbLine
 10
63.3315
 20
142.4917
 30
0.0
 11
70.8308
 21
142.4917
 31
0.0
  0
LINE
  5
2A2
330
6F
100
AcDbEntity
  8
LAYER_3
100
AcDbLine
 10
63.3315
 20
142.4917
 30
0.0
 11
63.3315
 21
145.367
 31
0.0
  0
LINE
  5
2A3
330
6F
100
AcDbEntity
  8
LAYER_3
100
AcDbLine
 10
63.581
 20
145.367
 30
0.0
 11
63.581
 21
142.2416
 31
0.0
  0
LINE
  5
2A4
330
6F
100
AcDbEntity
  8
LAYER_3
100
AcDbLine
 10
63.3315
 20
146.6168
 30
0.0
 11
63.3315
 21
147.8667
 31
0.0
  0
LINE
  5
2A5
330
6F
100
AcDbEntity
  8
LAYER_3
100
AcDbLine
 10
63.581
 20
147.8667
 30
0.0
 11
63.581
 21
146.6168
 31
0.0
  0
LINE
  5
2A6
330
6F
100
AcDbEntity
  8
LAYER_3
100
AcDbLine
 10
70.8308
 20
146.6168
 30
0.0
 11
70.8308
 21
147.8667
 31
0.0
  0
LINE
  5
2A7
330
6F
100
AcDbEntity
  8
LAYER_3
100
AcDbLine
 10
70.5807
 20
147.8667
 30
0.0
 11
70.5807
 21
146.6168
 31
0.0
  0
LINE
  5
2A8
330
6F
100
AcDbEntity
  8
LAYER_3
100
AcDbLine
 10
63.3315
 20
148.4917
 30
0.0
 11
63.3315
 21
155.2259
 31
0.0
  0
LINE
  5
2A9
330
6F
100
AcDbEntity
  8
LAYER_3
100
AcDbLine
 10
63.581
 20
155.2259
 30
0.0
 11
63.581
 21
148.4917
 31
0.0
  0
LINE
  5
2AA
330
6F
100
AcDbEntity
  8
LAYER_3
100
AcDbLine
 10
70.8308
 20
148.4917
 30
0.0
 11
70.8308
 21
155.2259
 31
0.0
  0
LINE
  5
2AB
330
6F
100
AcDbEntity
  8
LAYER_3
100
AcDbLine
 10
70.5807
 20
155.2259
 30
0.0
 11
70.5807
 21
148.4917
 31
0.0
  0
LINE
  5
2AC
330
6F
100
AcDbEntity
  8
LAYER_3
100
AcDbLine
 10
70.5807
 20
145.367
 30
0.0
 11
70.5807
 21
142.2416
 31
0.0
  0
LINE
  5
2AD
330
6F
100
AcDbEntity
  8
LAYER_3
100
AcDbLine
 10
-42.1642
 20
157.2419
 30
0.0
 11
-29.9024
 21
157.2419
 31
0.0
  0
INSERT
  5
2AE
330
6F
100
AcDbEntity
  8
LAYER_3
100
AcDbBlockReference
  2
AIGNBL03010018
 10
0.0
 20
0.0
 30
0.0
  0
LINE
  5
2AF
330
6F
100
AcDbEntity
  8
LAYER_3
100
AcDbLine
 10
-41.4607
 20
157.2419
 30
0.0
 11
-41.4607
 21
142.2419
 31
0.0
  0
LINE
  5
2B0
330
6F
100
AcDbEntity
  8
LAYER_3
100
AcDbLine
 10
-42.0381
 20
144.453
 30
0.0
 11
-41.4462
 21
142.2426
 31
0.0
  0
LINE
  5
2B1
330
6F
100
AcDbEntity
  8
LAYER_3
100
AcDbLine
 10
-41.4462
 20
142.2426
 30
0.0
 11
-40.8537
 21
144.453
 31
0.0
  0
LINE
  5
2B2
330
6F
100
AcDbEntity
  8
LAYER_3
100
AcDbLine
 10
-40.8537
 20
144.453
 30
0.0
 11
-42.0381
 21
144.453
 31
0.0
  0
LINE
  5
2B3
330
6F
100
AcDbEntity
  8
LAYER_3
100
AcDbLine
 10
-40.8681
 20
155.0315
 30
0.0
 11
-41.4607
 21
157.2419
 31
0.0
  0
LINE
  5
2B4
330
6F
100
AcDbEntity
  8
LAYER_3
100
AcDbLine
 10
-41.4607
 20
157.2419
 30
0.0
 11
-42.0525
 21
155.0315
 31
0.0
  0
LINE
  5
2B5
330
6F
100
AcDbEntity
  8
LAYER_3
100
AcDbLine
 10
-42.0525
 20
155.0315
 30
0.0
 11
-40.8681
 21
155.0315
 31
0.0
  0
LINE
  5
2B6
330
6F
100
AcDbEntity
  8
LAYER_3
100
AcDbLine
 10
-36.3061
 20
148.4913
 30
0.0
 11
-30.1353
 21
148.4913
 31
0.0
  0
LINE
  5
2B7
330
6F
100
AcDbEntity
  8
LAYER_3
100
AcDbLine
 10
-42.0836
 20
142.2419
 30
0.0
 11
-28.0641
 21
142.2419
 31
0.0
  0
LINE
  5
2B8
330
6F
100
AcDbEntity
  8
LAYER_3
100
AcDbLine
 10
-20.2447
 20
41.7429
 30
0.0
 11
-8.2699
 21
41.7429
 31
0.0
  0
LINE
  5
2B9
330
6F
100
AcDbEntity
  8
LAYER_3
100
AcDbLine
 10
-9.0231
 20
41.7429
 30
0.0
 11
-9.0231
 21
157.2288
 31
0.0
  0
LINE
  5
2BA
330
6F
100
AcDbEntity
  8
LAYER_3
100
AcDbLine
 10
-8.4305
 20
155.0178
 30
0.0
 11
-9.0231
 21
157.2282
 31
0.0
  0
LINE
  5
2BB
330
6F
100
AcDbEntity
  8
LAYER_3
100
AcDbLine
 10
-9.0231
 20
157.2282
 30
0.0
 11
-9.6149
 21
155.0178
 31
0.0
  0
LINE
  5
2BC
330
6F
100
AcDbEntity
  8
LAYER_3
100
AcDbLine
 10
-9.6149
 20
155.0178
 30
0.0
 11
-8.4305
 21
155.0178
 31
0.0
  0
LINE
  5
2BD
330
6F
100
AcDbEntity
  8
LAYER_3
100
AcDbLine
 10
-8.4298
 20
184.8927
 30
0.0
 11
-9.0223
 21
187.1031
 31
0.0
  0
LINE
  5
2BE
330
6F
100
AcDbEntity
  8
LAYER_3
100
AcDbLine
 10
-9.0223
 20
187.1031
 30
0.0
 11
-9.6142
 21
184.8927
 31
0.0
  0
LINE
  5
2BF
330
6F
100
AcDbEntity
  8
LAYER_3
100
AcDbLine
 10
-9.6142
 20
184.8927
 30
0.0
 11
-8.4298
 21
184.8927
 31
0.0
  0
LINE
  5
2C0
330
6F
100
AcDbEntity
  8
LAYER_3
100
AcDbLine
 10
-9.6004
 20
43.9546
 30
0.0
 11
-9.0086
 21
41.7436
 31
0.0
  0
LINE
  5
2C1
330
6F
100
AcDbEntity
  8
LAYER_3
100
AcDbLine
 10
-9.0086
 20
41.7436
 30
0.0
 11
-8.416
 21
43.9546
 31
0.0
  0
LINE
  5
2C2
330
6F
100
AcDbEntity
  8
LAYER_3
100
AcDbLine
 10
-8.416
 20
43.9546
 30
0.0
 11
-9.6004
 21
43.9546
 31
0.0
  0
LINE
  5
2C3
330
6F
100
AcDbEntity
  8
LAYER_3
100
AcDbLine
 10
-9.6149
 20
159.4392
 30
0.0
 11
-9.0231
 21
157.2282
 31
0.0
  0
LINE
  5
2C4
330
6F
100
AcDbEntity
  8
LAYER_3
100
AcDbLine
 10
-9.0231
 20
157.2282
 30
0.0
 11
-8.4305
 21
159.4392
 31
0.0
  0
LINE
  5
2C5
330
6F
100
AcDbEntity
  8
LAYER_3
100
AcDbLine
 10
-8.4305
 20
159.4392
 30
0.0
 11
-9.6149
 21
159.4392
 31
0.0
  0
LINE
  5
2C6
330
6F
100
AcDbEntity
  8
LAYER_3
100
AcDbLine
 10
-27.5983
 20
157.2419
 30
0.0
 11
-27.5983
 21
155.2252
 31
0.0
  0
LINE
  5
2C7
330
6F
100
AcDbEntity
  8
LAYER_3
100
AcDbLine
 10
-27.5983
 20
155.2252
 30
0.0
 11
-27.9132
 21
157.2419
 31
0.0
  0
LINE
  5
2C8
330
6F
100
AcDbEntity
  8
LAYER_3
100
AcDbLine
 10
-27.5983
 20
155.2252
 30
0.0
 11
-19.4672
 21
155.2252
 31
0.0
  0
LINE
  5
2C9
330
6F
100
AcDbEntity
  8
LAYER_3
100
AcDbLine
 10
-19.4672
 20
155.2252
 30
0.0
 11
-19.1523
 21
157.2419
 31
0.0
  0
LINE
  5
2CA
330
6F
100
AcDbEntity
  8
LAYER_3
100
AcDbLine
 10
-19.4672
 20
155.2252
 30
0.0
 11
-19.4672
 21
157.2419
 31
0.0
  0
LINE
  5
2CB
330
6F
100
AcDbEntity
  8
LAYER_3
100
AcDbLine
 10
-23.2492
 20
157.2419
 30
0.0
 11
-23.2492
 21
155.7929
 31
0.0
  0
ARC
  5
2CC
330
6F
100
AcDbEntity
  8
LAYER_3
100
AcDbCircle
 10
-23.503
 20
155.794
 30
0.0
 40
0.2538
100
AcDbArc
 50
314.9822565
 51
359.7415311
  0
ARC
  5
2CD
330
6F
100
AcDbEntity
  8
LAYER_3
100
AcDbCircle
 10
-23.5022
 20
155.7937
 30
0.0
 40
0.253
100
AcDbArc
 50
270.1785394
 51
314.905508
  0
ARC
  5
2CE
330
6F
100
AcDbEntity
  8
LAYER_3
100
AcDbCircle
 10
-23.5006
 20
155.7951
 30
0.0
 40
0.2544
100
AcDbArc
 50
225.2224385
 51
269.83004
  0
ARC
  5
2CF
330
6F
100
AcDbEntity
  8
LAYER_3
100
AcDbCircle
 10
-23.4973
 20
155.7944
 30
0.0
 40
0.2563
100
AcDbArc
 50
180.345933
 51
224.6015887
  0
LINE
  5
2D0
330
6F
100
AcDbEntity
  8
LAYER_3
100
AcDbLine
 10
-23.7536
 20
155.7929
 30
0.0
 11
-23.7536
 21
157.2419
 31
0.0
  0
LINE
  5
2D1
330
6F
100
AcDbEntity
  8
LAYER_3
100
AcDbLine
 10
-29.0018
 20
148.2412
 30
0.0
 11
-29.0018
 21
148.4913
 31
0.0
  0
LINE
  5
2D2
330
6F
100
AcDbEntity
  8
LAYER_3
100
AcDbLine
 10
-29.0018
 20
148.4913
 30
0.0
 11
-18.0016
 21
148.4913
 31
0.0
  0
LINE
  5
2D3
330
6F
100
AcDbEntity
  8
LAYER_3
100
AcDbLine
 10
-18.0016
 20
148.4913
 30
0.0
 11
-18.0016
 21
148.2412
 31
0.0
  0
LINE
  5
2D4
330
6F
100
AcDbEntity
  8
LAYER_3
100
AcDbLine
 10
-18.0016
 20
148.2412
 30
0.0
 11
-29.0018
 21
148.2412
 31
0.0
  0
LINE
  5
2D5
330
6F
100
AcDbEntity
  8
LAYER_3
100
AcDbLine
 10
-29.7515
 20
147.8664
 30
0.0
 11
-29.7515
 21
148.2412
 31
0.0
  0
LINE
  5
2D6
330
6F
100
AcDbEntity
  8
LAYER_3
100
AcDbLine
 10
-29.7515
 20
148.2412
 30
0.0
 11
-17.2513
 21
148.2412
 31
0.0
  0
LINE
  5
2D7
330
6F
100
AcDbEntity
  8
LAYER_3
100
AcDbLine
 10
-17.2513
 20
148.2412
 30
0.0
 11
-17.2513
 21
147.8664
 31
0.0
  0
LINE
  5
2D8
330
6F
100
AcDbEntity
  8
LAYER_3
100
AcDbLine
 10
-17.2513
 20
147.8664
 30
0.0
 11
-29.7515
 21
147.8664
 31
0.0
  0
LINE
  5
2D9
330
6F
100
AcDbEntity
  8
LAYER_3
100
AcDbLine
 10
-29.7515
 20
145.3666
 30
0.0
 11
-29.7515
 21
146.6165
 31
0.0
  0
LINE
  5
2DA
330
6F
100
AcDbEntity
  8
LAYER_3
100
AcDbLine
 10
-29.7515
 20
146.6165
 30
0.0
 11
-17.2513
 21
146.6165
 31
0.0
  0
LINE
  5
2DB
330
6F
100
AcDbEntity
  8
LAYER_3
100
AcDbLine
 10
-17.2513
 20
146.6165
 30
0.0
 11
-17.2513
 21
145.3666
 31
0.0
  0
LINE
  5
2DC
330
6F
100
AcDbEntity
  8
LAYER_3
100
AcDbLine
 10
-17.2513
 20
145.3666
 30
0.0
 11
-29.7515
 21
145.3666
 31
0.0
  0
LINE
  5
2DD
330
6F
100
AcDbEntity
  8
LAYER_3
100
AcDbLine
 10
-19.3018
 20
142.8662
 30
0.0
 11
-19.3018
 21
144.1167
 31
0.0
  0
LINE
  5
2DE
330
6F
100
AcDbEntity
  8
LAYER_3
100
AcDbLine
 10
-19.3018
 20
144.1167
 30
0.0
 11
-17.2017
 21
144.1167
 31
0.0
  0
LINE
  5
2DF
330
6F
100
AcDbEntity
  8
LAYER_3
100
AcDbLine
 10
-17.2017
 20
144.1167
 30
0.0
 11
-17.2017
 21
142.8662
 31
0.0
  0
LINE
  5
2E0
330
6F
100
AcDbEntity
  8
LAYER_3
100
AcDbLine
 10
-17.2017
 20
142.8662
 30
0.0
 11
-19.3018
 21
142.8662
 31
0.0
  0
LINE
  5
2E1
330
6F
100
AcDbEntity
  8
LAYER_3
  6
AIGENLINE023
100
AcDbLine
 10
-18.2518
 20
141.8196
 30
0.0
 11
-18.2518
 21
149.5145
 31
0.0
  0
LINE
  5
2E2
330
6F
100
AcDbEntity
  8
LAYER_3
100
AcDbLine
 10
-17.6268
 20
146.6165
 30
0.0
 11
-17.6268
 21
147.8664
 31
0.0
  0
LINE
  5
2E3
330
6F
100
AcDbEntity
  8
LAYER_3
100
AcDbLine
 10
-18.8767
 20
146.6165
 30
0.0
 11
-18.8767
 21
147.8664
 31
0.0
  0
LINE
  5
2E4
330
6F
100
AcDbEntity
  8
LAYER_3
100
AcDbLine
 10
-17.6268
 20
144.1167
 30
0.0
 11
-17.6268
 21
145.3666
 31
0.0
  0
LINE
  5
2E5
330
6F
100
AcDbEntity
  8
LAYER_3
100
AcDbLine
 10
-18.8767
 20
144.1167
 30
0.0
 11
-18.8767
 21
145.3666
 31
0.0
  0
LINE
  5
2E6
330
6F
100
AcDbEntity
  8
LAYER_3
100
AcDbLine
 10
-29.8018
 20
142.8662
 30
0.0
 11
-29.8018
 21
144.1167
 31
0.0
  0
LINE
  5
2E7
330
6F
100
AcDbEntity
  8
LAYER_3
100
AcDbLine
 10
-29.8018
 20
144.1167
 30
0.0
 11
-27.7016
 21
144.1167
 31
0.0
  0
LINE
  5
2E8
330
6F
100
AcDbEntity
  8
LAYER_3
100
AcDbLine
 10
-27.7016
 20
144.1167
 30
0.0
 11
-27.7016
 21
142.8662
 31
0.0
  0
LINE
  5
2E9
330
6F
100
AcDbEntity
  8
LAYER_3
100
AcDbLine
 10
-27.7016
 20
142.8662
 30
0.0
 11
-29.8018
 21
142.8662
 31
0.0
  0
LINE
  5
2EA
330
6F
100
AcDbEntity
  8
LAYER_3
  6
AIGENLINE023
100
AcDbLine
 10
-28.7517
 20
141.8196
 30
0.0
 11
-28.7517
 21
149.5145
 31
0.0
  0
LINE
  5
2EB
330
6F
100
AcDbEntity
  8
LAYER_3
100
AcDbLine
 10
-28.1268
 20
146.6165
 30
0.0
 11
-28.1268
 21
147.8664
 31
0.0
  0
LINE
  5
2EC
330
6F
100
AcDbEntity
  8
LAYER_3
100
AcDbLine
 10
-29.3767
 20
146.6165
 30
0.0
 11
-29.3767
 21
147.8664
 31
0.0
  0
LINE
  5
2ED
330
6F
100
AcDbEntity
  8
LAYER_3
100
AcDbLine
 10
-28.1268
 20
144.1167
 30
0.0
 11
-28.1268
 21
145.3666
 31
0.0
  0
LINE
  5
2EE
330
6F
100
AcDbEntity
  8
LAYER_3
100
AcDbLine
 10
-29.3767
 20
144.1167
 30
0.0
 11
-29.3767
 21
145.3666
 31
0.0
  0
LINE
  5
2EF
330
6F
100
AcDbEntity
  8
LAYER_3
100
AcDbLine
 10
-25.0014
 20
49.8339
 30
0.0
 11
-25.0014
 21
142.2419
 31
0.0
  0
LINE
  5
2F0
330
6F
100
AcDbEntity
  8
LAYER_3
100
AcDbLine
 10
-22.0014
 20
49.8339
 30
0.0
 11
-22.0014
 21
142.2419
 31
0.0
  0
LINE
  5
2F1
330
6F
100
AcDbEntity
  8
LAYER_3
100
AcDbLine
 10
-22.0014
 20
140.3202
 30
0.0
 11
-23.1796
 21
139.142
 31
0.0
  0
LINE
  5
2F2
330
6F
100
AcDbEntity
  8
LAYER_3
100
AcDbLine
 10
-23.8238
 20
139.142
 30
0.0
 11
-25.0014
 21
140.3202
 31
0.0
  0
LINE
  5
2F3
330
6F
100
AcDbEntity
  8
LAYER_3
100
AcDbLine
 10
-22.0014
 20
141.4213
 30
0.0
 11
-24.2807
 21
139.142
 31
0.0
  0
LINE
  5
2F4
330
6F
100
AcDbEntity
  8
LAYER_3
100
AcDbLine
 10
-22.7228
 20
139.142
 30
0.0
 11
-25.0014
 21
141.4213
 31
0.0
  0
LINE
  5
2F5
330
6F
100
AcDbEntity
  8
LAYER_3
100
AcDbLine
 10
-22.2818
 20
142.2419
 30
0.0
 11
-25.0014
 21
139.5224
 31
0.0
  0
LINE
  5
2F6
330
6F
100
AcDbEntity
  8
LAYER_3
100
AcDbLine
 10
-22.0014
 20
139.5224
 30
0.0
 11
-24.721
 21
142.2419
 31
0.0
  0
LINE
  5
2F7
330
6F
100
AcDbEntity
  8
LAYER_3
100
AcDbLine
 10
-23.3829
 20
142.2419
 30
0.0
 11
-25.0014
 21
140.6234
 31
0.0
  0
LINE
  5
2F8
330
6F
100
AcDbEntity
  8
LAYER_3
100
AcDbLine
 10
-22.0014
 20
140.6234
 30
0.0
 11
-23.6199
 21
142.2419
 31
0.0
  0
LINE
  5
2F9
330
6F
100
AcDbEntity
  8
LAYER_3
100
AcDbLine
 10
-24.4839
 20
142.2419
 30
0.0
 11
-25.0014
 21
141.7245
 31
0.0
  0
LINE
  5
2FA
330
6F
100
AcDbEntity
  8
LAYER_3
100
AcDbLine
 10
-22.0014
 20
141.7245
 30
0.0
 11
-22.5188
 21
142.2419
 31
0.0
  0
LINE
  5
2FB
330
6F
100
AcDbEntity
  8
LAYER_3
100
AcDbLine
 10
-19.7834
 20
145.3666
 30
0.0
 11
-19.7834
 21
142.4921
 31
0.0
  0
LINE
  5
2FC
330
6F
100
AcDbEntity
  8
LAYER_3
100
AcDbLine
 10
-19.7834
 20
142.4921
 30
0.0
 11
-20.0349
 21
142.2419
 31
0.0
  0
LINE
  5
2FD
330
6F
100
AcDbEntity
  8
LAYER_3
100
AcDbLine
 10
-20.0349
 20
142.2419
 30
0.0
 11
-27.0333
 21
142.2419
 31
0.0
  0
LINE
  5
2FE
330
6F
100
AcDbEntity
  8
LAYER_3
100
AcDbLine
 10
-27.0333
 20
142.2419
 30
0.0
 11
-27.2827
 21
142.4921
 31
0.0
  0
LINE
  5
2FF
330
6F
100
AcDbEntity
  8
LAYER_3
100
AcDbLine
 10
-27.2827
 20
142.4921
 30
0.0
 11
-19.7834
 21
142.4921
 31
0.0
  0
LINE
  5
300
330
6F
100
AcDbEntity
  8
LAYER_3
100
AcDbLine
 10
-27.2827
 20
142.4921
 30
0.0
 11
-27.2827
 21
145.3666
 31
0.0
  0
LINE
  5
301
330
6F
100
AcDbEntity
  8
LAYER_3
100
AcDbLine
 10
-27.0333
 20
145.3666
 30
0.0
 11
-27.0333
 21
142.2419
 31
0.0
  0
LINE
  5
302
330
6F
100
AcDbEntity
  8
LAYER_3
100
AcDbLine
 10
-27.2827
 20
146.6172
 30
0.0
 11
-27.2827
 21
147.8671
 31
0.0
  0
LINE
  5
303
330
6F
100
AcDbEntity
  8
LAYER_3
100
AcDbLine
 10
-27.0333
 20
147.8671
 30
0.0
 11
-27.0333
 21
146.6172
 31
0.0
  0
LINE
  5
304
330
6F
100
AcDbEntity
  8
LAYER_3
100
AcDbLine
 10
-19.7834
 20
146.6172
 30
0.0
 11
-19.7834
 21
147.8671
 31
0.0
  0
LINE
  5
305
330
6F
100
AcDbEntity
  8
LAYER_3
100
AcDbLine
 10
-20.0336
 20
147.8671
 30
0.0
 11
-20.0336
 21
146.6172
 31
0.0
  0
LINE
  5
306
330
6F
100
AcDbEntity
  8
LAYER_3
100
AcDbLine
 10
-27.2827
 20
148.492
 30
0.0
 11
-27.2827
 21
155.2259
 31
0.0
  0
LINE
  5
307
330
6F
100
AcDbEntity
  8
LAYER_3
100
AcDbLine
 10
-27.0333
 20
155.2259
 30
0.0
 11
-27.0333
 21
148.492
 31
0.0
  0
LINE
  5
308
330
6F
100
AcDbEntity
  8
LAYER_3
100
AcDbLine
 10
-19.7834
 20
148.492
 30
0.0
 11
-19.7834
 21
155.2259
 31
0.0
  0
LINE
  5
309
330
6F
100
AcDbEntity
  8
LAYER_3
100
AcDbLine
 10
-20.0336
 20
155.2259
 30
0.0
 11
-20.0336
 21
148.492
 31
0.0
  0
LINE
  5
30A
330
6F
100
AcDbEntity
  8
LAYER_3
100
AcDbLine
 10
-20.0336
 20
145.3666
 30
0.0
 11
-20.0336
 21
142.2419
 31
0.0
  0
INSERT
  5
30B
330
6F
100
AcDbEntity
  8
LAYER_3
100
AcDbBlockReference
  2
AIGNBL03010019
 10
0.0
 20
0.0
 30
0.0
  0
INSERT
  5
30C
330
6F
100
AcDbEntity
  8
LAYER_3
100
AcDbBlockReference
  2
AIGNBL0301001B
 10
0.0
 20
0.0
 30
0.0
  0
CIRCLE
  5
30D
330
6F
100
AcDbEntity
  8
LAYER_3
100
AcDbCircle
 10
67.1205
 20
250.8425
 30
0.0
 40
4.3751
  0
LINE
  5
30E
330
6F
100
AcDbEntity
  8
LAYER_3
100
AcDbLine
 10
51.0615
 20
163.6895
 30
0.0
 11
41.4441
 21
163.6895
 31
0.0
  0
INSERT
  5
30F
330
6F
100
AcDbEntity
  8
LAYER_3
100
AcDbBlockReference
  2
AIGNBL0301001D
 10
0.0
 20
0.0
 30
0.0
  0
LINE
  5
310
330
6F
100
AcDbEntity
  8
LAYER_3
100
AcDbLine
 10
37.9118
 20
164.9926
 30
0.0
 11
28.9343
 21
164.9926
 31
0.0
  0
INSERT
  5
311
330
6F
100
AcDbEntity
  8
LAYER_3
100
AcDbBlockReference
  2
AIGNBL0301001F
 10
0.0
 20
0.0
 30
0.0
  0
LINE
  5
312
330
6F
100
AcDbEntity
  8
LAYER_3
100
AcDbLine
 10
37.4425
 20
163.3355
 30
0.0
 11
29.8444
 21
152.6801
 31
0.0
  0
INSERT
  5
313
330
6F
100
AcDbEntity
  8
LAYER_3
100
AcDbBlockReference
  2
AIGNBL03010021
 10
0.0
 20
0.0
 30
0.0
  0
ARC
  5
314
330
6F
100
AcDbEntity
  8
LAYER_3
100
AcDbCircle
 10
40.383
 20
166.4478
 30
0.0
 40
16.6126
100
AcDbArc
 50
217.6272689
 51
253.7022673
  0
ARC
  5
315
330
6F
100
AcDbEntity
  8
LAYER_3
100
AcDbCircle
 10
40.2518
 20
166.2791
 30
0.0
 40
16.4141
100
AcDbArc
 50
253.9765789
 51
269.1930348
  0
ARC
  5
316
330
6F
100
AcDbEntity
  8
LAYER_3
100
AcDbCircle
 10
40.2686
 20
166.5375
 30
0.0
 40
16.6727
100
AcDbArc
 50
269.1476173
 51
270.0023404
  0
ARC
  5
317
330
6F
100
AcDbEntity
  8
LAYER_3
100
AcDbCircle
 10
40.2742
 20
166.4398
 30
0.0
 40
16.575
100
AcDbArc
 50
269.9831657
 51
279.5664555
  0
LINE
  5
318
330
6F
100
AcDbEntity
  8
LAYER_3
100
AcDbLine
 10
-17.8766
 20
157.2426
 30
0.0
 11
-29.1266
 21
157.2426
 31
0.0
  0
LINE
  5
319
330
6F
100
AcDbEntity
  8
LAYER_3
100
AcDbLine
 10
-29.1266
 20
157.2426
 30
0.0
 11
-29.1266
 21
157.7427
 31
0.0
  0
LINE
  5
31A
330
6F
100
AcDbEntity
  8
LAYER_3
100
AcDbLine
 10
-29.1266
 20
157.7427
 30
0.0
 11
-17.8766
 21
157.7427
 31
0.0
  0
LINE
  5
31B
330
6F
100
AcDbEntity
  8
LAYER_3
100
AcDbLine
 10
-17.8766
 20
157.7427
 30
0.0
 11
-17.8766
 21
157.2426
 31
0.0
  0
LINE
  5
31C
330
6F
100
AcDbEntity
  8
LAYER_3
100
AcDbLine
 10
72.7377
 20
157.2426
 30
0.0
 11
61.4881
 21
157.2426
 31
0.0
  0
LINE
  5
31D
330
6F
100
AcDbEntity
  8
LAYER_3
100
AcDbLine
 10
61.4881
 20
157.2426
 30
0.0
 11
61.4881
 21
157.7427
 31
0.0
  0
LINE
  5
31E
330
6F
100
AcDbEntity
  8
LAYER_3
100
AcDbLine
 10
61.4881
 20
157.7427
 30
0.0
 11
72.7377
 21
157.7427
 31
0.0
  0
LINE
  5
31F
330
6F
100
AcDbEntity
  8
LAYER_3
100
AcDbLine
 10
72.7377
 20
157.7427
 30
0.0
 11
72.7377
 21
157.2426
 31
0.0
  0
INSERT
  5
320
330
6F
100
AcDbEntity
  8
LAYER_3
100
AcDbBlockReference
  2
AIGNBL03010022
 10
0.0
 20
0.0
 30
0.0
  0
INSERT
  5
321
330
6F
100
AcDbEntity
  8
LAYER_3
100
AcDbBlockReference
  2
AIGNBL03010024
 10
0.0
 20
0.0
 30
0.0
  0
LINE
  5
322
330
6F
100
AcDbEntity
  8
LAYER_3
100
AcDbLine
 10
-25.3762
 20
32.4344
 30
0.0
 11
-25.3762
 21
40.9729
 31
0.0
  0
LINE
  5
323
330
6F
100
AcDbEntity
  8
LAYER_3
100
AcDbLine
 10
-21.6266
 20
32.4344
 30
0.0
 11
-21.6266
 21
40.9729
 31
0.0
  0
INSERT
  5
324
330
6F
100
AcDbEntity
  8
LAYER_3
100
AcDbBlockReference
  2
AIGNBL03010025
 10
0.0
 20
0.0
 30
0.0
  0
INSERT
  5
325
330
6F
100
AcDbEntity
  8
LAYER_3
100
AcDbBlockReference
  2
AIGNBL03010026
 10
0.0
 20
0.0
 30
0.0
  0
LINE
  5
326
330
6F
100
AcDbEntity
  8
LAYER_3
100
AcDbLine
 10
-25.8763
 20
222.3264
 30
0.0
 11
-25.8763
 21
246.451
 31
0.0
  0
LINE
  5
327
330
6F
100
AcDbEntity
  8
LAYER_3
100
AcDbLine
 10
-21.1262
 20
222.3264
 30
0.0
 11
-21.1262
 21
246.451
 31
0.0
  0
ARC
  5
328
330
6F
100
AcDbEntity
  8
LAYER_3
100
AcDbCircle
 10
-22.6507
 20
224.9342
 30
0.0
 40
1.5245
100
AcDbArc
 50
334.8809856
 51
359.8588519
  0
ARC
  5
329
330
6F
100
AcDbEntity
  8
LAYER_3
100
AcDbCircle
 10
-22.9398
 20
225.0829
 30
0.0
 40
1.8494
100
AcDbArc
 50
311.0872785
 51
334.5093518
  0
ARC
  5
32A
330
6F
100
AcDbEntity
  8
LAYER_3
100
AcDbCircle
 10
-23.3126
 20
225.5069
 30
0.0
 40
2.414
100
AcDbArc
 50
291.0422234999999
 51
311.1450325
  0
ARC
  5
32B
330
6F
100
AcDbEntity
  8
LAYER_3
100
AcDbCircle
 10
-23.4896
 20
225.9576
 30
0.0
 40
2.8982
100
AcDbArc
 50
269.771132
 51
291.1081947
  0
ARC
  5
32C
330
6F
100
AcDbEntity
  8
LAYER_3
100
AcDbCircle
 10
-23.5132
 20
225.8707
 30
0.0
 40
2.8113
100
AcDbArc
 50
233.6188037
 51
270.2435785
  0
ARC
  5
32D
330
6F
100
AcDbEntity
  8
LAYER_3
100
AcDbCircle
 10
-23.9981
 20
225.1354
 30
0.0
 40
1.9323
100
AcDbArc
 50
209.5955963
 51
232.262334
  0
ARC
  5
32E
330
6F
100
AcDbEntity
  8
LAYER_3
100
AcDbCircle
 10
-24.3308
 20
224.9381
 30
0.0
 40
1.5455
100
AcDbArc
 50
180.2852821
 51
209.3262225
  0
ARC
  5
32F
330
6F
100
AcDbEntity
  8
LAYER_3
100
AcDbCircle
 10
-22.6496
 20
222.3302
 30
0.0
 40
1.5234
100
AcDbArc
 50
334.8716326000001
 51
359.8561463
  0
ARC
  5
330
330
6F
100
AcDbEntity
  8
LAYER_3
100
AcDbCircle
 10
-22.94
 20
222.4797
 30
0.0
 40
1.8498
100
AcDbArc
 50
311.0864312
 51
334.501286
  0
ARC
  5
331
330
6F
100
AcDbEntity
  8
LAYER_3
100
AcDbCircle
 10
-23.3131
 20
222.9038
 30
0.0
 40
2.4147
100
AcDbArc
 50
291.047664
 51
311.1453794
  0
ARC
  5
332
330
6F
100
AcDbEntity
  8
LAYER_3
100
AcDbCircle
 10
-23.4897
 20
223.3533
 30
0.0
 40
2.8977
100
AcDbArc
 50
269.7722016
 51
291.1138504
  0
ARC
  5
333
330
6F
100
AcDbEntity
  8
LAYER_3
100
AcDbCircle
 10
-23.5131
 20
223.2668
 30
0.0
 40
2.8111
100
AcDbArc
 50
233.6133599
 51
270.2420851000001
  0
ARC
  5
334
330
6F
100
AcDbEntity
  8
LAYER_3
100
AcDbCircle
 10
-23.9977
 20
222.5323
 30
0.0
 40
1.9328
100
AcDbArc
 50
209.6026918
 51
232.2616375
  0
ARC
  5
335
330
6F
100
AcDbEntity
  8
LAYER_3
100
AcDbCircle
 10
-24.3317
 20
222.3342
 30
0.0
 40
1.5446
100
AcDbArc
 50
180.2892634
 51
209.3353871
  0
LINE
  5
336
330
6F
100
AcDbEntity
  8
LAYER_3
100
AcDbLine
 10
-28.615
 20
157.7456
 30
0.0
 11
-28.615
 21
178.3941
 31
0.0
  0
LINE
  5
337
330
6F
100
AcDbEntity
  8
LAYER_3
100
AcDbLine
 10
-28.615
 20
178.3941
 30
0.0
 11
-18.4481
 21
178.3941
 31
0.0
  0
LINE
  5
338
330
6F
100
AcDbEntity
  8
LAYER_3
100
AcDbLine
 10
-18.4481
 20
178.3941
 30
0.0
 11
-18.4481
 21
157.7456
 31
0.0
  0
LINE
  5
339
330
6F
100
AcDbEntity
  8
LAYER_3
100
AcDbLine
 10
-28.113
 20
178.7863
 30
0.0
 11
-28.113
 21
178.3941
 31
0.0
  0
LINE
  5
33A
330
6F
100
AcDbEntity
  8
LAYER_3
100
AcDbLine
 10
-18.9498
 20
178.7863
 30
0.0
 11
-18.9498
 21
178.3941
 31
0.0
  0
LINE
  5
33B
330
6F
100
AcDbEntity
  8
LAYER_3
100
AcDbLine
 10
62.1131
 20
157.7453
 30
0.0
 11
62.1131
 21
170.5537
 31
0.0
  0
LINE
  5
33C
330
6F
100
AcDbEntity
  8
LAYER_3
100
AcDbLine
 10
62.1131
 20
175.3037
 30
0.0
 11
62.1131
 21
178.3941
 31
0.0
  0
LINE
  5
33D
330
6F
100
AcDbEntity
  8
LAYER_3
100
AcDbLine
 10
62.1131
 20
178.3941
 30
0.0
 11
72.1128
 21
178.3941
 31
0.0
  0
LINE
  5
33E
330
6F
100
AcDbEntity
  8
LAYER_3
100
AcDbLine
 10
72.1128
 20
178.3941
 30
0.0
 11
72.1128
 21
157.7453
 31
0.0
  0
LINE
  5
33F
330
6F
100
AcDbEntity
  8
LAYER_3
100
AcDbLine
 10
62.5317
 20
178.7867
 30
0.0
 11
62.5317
 21
178.3941
 31
0.0
  0
LINE
  5
340
330
6F
100
AcDbEntity
  8
LAYER_3
100
AcDbLine
 10
71.6315
 20
178.7867
 30
0.0
 11
71.6315
 21
178.3941
 31
0.0
  0
ARC
  5
341
330
6F
100
AcDbEntity
  8
LAYER_3
100
AcDbCircle
 10
-23.5014
 20
172.9287
 30
0.0
 40
2.375
100
AcDbArc
 50
359.998576
 51
89.99901158
  0
ARC
  5
342
330
6F
100
AcDbEntity
  8
LAYER_3
100
AcDbCircle
 10
-23.5014
 20
172.9287
 30
0.0
 40
2.375
100
AcDbArc
 50
90.00087044
 51
180.001542
  0
ARC
  5
343
330
6F
100
AcDbEntity
  8
LAYER_3
100
AcDbCircle
 10
-22.0193
 20
164.9809
 30
0.0
 40
0.893
100
AcDbArc
 50
0.753562208
 51
34.19886696
  0
ARC
  5
344
330
6F
100
AcDbEntity
  8
LAYER_3
100
AcDbCircle
 10
-22.5633
 20
164.5924
 30
0.0
 40
1.5613
100
AcDbArc
 50
34.77031559
 51
59.99084769
  0
ARC
  5
345
330
6F
100
AcDbEntity
  8
LAYER_3
100
AcDbCircle
 10
-23.2472
 20
163.4535
 30
0.0
 40
2.8897
100
AcDbArc
 50
59.54046239
 51
78.22966955
  0
ARC
  5
346
330
6F
100
AcDbEntity
  8
LAYER_3
100
AcDbCircle
 10
-23.4954
 20
162.4114
 30
0.0
 40
3.9606
100
AcDbArc
 50
77.79081496
 51
90.0871322
  0
ARC
  5
347
330
6F
100
AcDbEntity
  8
LAYER_3
100
AcDbCircle
 10
-23.5193
 20
162.5497
 30
0.0
 40
3.8224
100
AcDbArc
 50
89.73213685
 51
106.1538088
  0
ARC
  5
348
330
6F
100
AcDbEntity
  8
LAYER_3
100
AcDbCircle
 10
-23.8873
 20
163.7577
 30
0.0
 40
2.5597
100
AcDbArc
 50
105.7649843
 51
125.3957617
  0
ARC
  5
349
330
6F
100
AcDbEntity
  8
LAYER_3
100
AcDbCircle
 10
-24.6063
 20
164.7536
 30
0.0
 40
1.3314
100
AcDbArc
 50
124.9957848
 51
152.4071837
  0
ARC
  5
34A
330
6F
100
AcDbEntity
  8
LAYER_3
100
AcDbCircle
 10
-25.0249
 20
164.9891
 30
0.0
 40
0.8515
100
AcDbArc
 50
153.4056905
 51
179.765018
  0
ARC
  5
34B
330
6F
100
AcDbEntity
  8
LAYER_3
100
AcDbCircle
 10
-24.9842
 20
165.0044
 30
0.0
 40
0.8923
100
AcDbArc
 50
180.7545451
 51
214.2026194
  0
ARC
  5
34C
330
6F
100
AcDbEntity
  8
LAYER_3
100
AcDbCircle
 10
-24.4403
 20
165.3928
 30
0.0
 40
1.5606
100
AcDbArc
 50
214.7738771
 51
239.996305
  0
ARC
  5
34D
330
6F
100
AcDbEntity
  8
LAYER_3
100
AcDbCircle
 10
-23.7562
 20
166.5322
 30
0.0
 40
2.8894
100
AcDbArc
 50
239.5461852
 51
258.2356514
  0
ARC
  5
34E
330
6F
100
AcDbEntity
  8
LAYER_3
100
AcDbCircle
 10
-23.5075
 20
167.5775
 30
0.0
 40
3.9636
100
AcDbArc
 50
257.7968853
 51
270.0878122
  0
ARC
  5
34F
330
6F
100
AcDbEntity
  8
LAYER_3
100
AcDbCircle
 10
-23.4837
 20
167.4361
 30
0.0
 40
3.8222
100
AcDbArc
 50
269.7344201
 51
286.1521597
  0
ARC
  5
350
330
6F
100
AcDbEntity
  8
LAYER_3
100
AcDbCircle
 10
-23.1163
 20
166.2304
 30
0.0
 40
2.562
100
AcDbArc
 50
285.7624171
 51
305.3764480999999
  0
ARC
  5
351
330
6F
100
AcDbEntity
  8
LAYER_3
100
AcDbCircle
 10
-22.3964
 20
165.2326
 30
0.0
 40
1.3316
100
AcDbArc
 50
304.9728722
 51
332.3770078
  0
ARC
  5
352
330
6F
100
AcDbEntity
  8
LAYER_3
100
AcDbCircle
 10
-21.9764
 20
164.9961
 30
0.0
 40
0.85
100
AcDbArc
 50
333.3751148
 51
359.7625376
  0
ARC
  5
353
330
6F
100
AcDbEntity
  8
LAYER_3
100
AcDbCircle
 10
-22.0194
 20
168.7526
 30
0.0
 40
0.8931
100
AcDbArc
 50
0.7529211041
 51
34.19591009
  0
ARC
  5
354
330
6F
100
AcDbEntity
  8
LAYER_3
100
AcDbCircle
 10
-22.5633
 20
168.3642
 30
0.0
 40
1.5613
100
AcDbArc
 50
34.76773858
 51
59.98939761
  0
ARC
  5
355
330
6F
100
AcDbEntity
  8
LAYER_3
100
AcDbCircle
 10
-23.2472
 20
167.2255
 30
0.0
 40
2.8895
100
AcDbArc
 50
59.53920223
 51
78.22950057
  0
ARC
  5
356
330
6F
100
AcDbEntity
  8
LAYER_3
100
AcDbCircle
 10
-23.4954
 20
166.1833
 30
0.0
 40
3.9605
100
AcDbArc
 50
77.79063055
 51
90.08716040000002
  0
ARC
  5
357
330
6F
100
AcDbEntity
  8
LAYER_3
100
AcDbCircle
 10
-23.5193
 20
166.3216
 30
0.0
 40
3.8223
100
AcDbArc
 50
89.73206415999998
 51
106.1541534
  0
ARC
  5
358
330
6F
100
AcDbEntity
  8
LAYER_3
100
AcDbCircle
 10
-23.8873
 20
167.5296
 30
0.0
 40
2.5596
100
AcDbArc
 50
105.765353
 51
125.3973715
  0
ARC
  5
359
330
6F
100
AcDbEntity
  8
LAYER_3
100
AcDbCircle
 10
-24.6063
 20
168.5254
 30
0.0
 40
1.3315
100
AcDbArc
 50
124.9976814
 51
152.4097781999999
  0
ARC
  5
35A
330
6F
100
AcDbEntity
  8
LAYER_3
100
AcDbCircle
 10
-25.0248
 20
168.7608
 30
0.0
 40
0.8517
100
AcDbArc
 50
153.4083767
 51
179.7652899
  0
LINE
  5
35B
330
6F
100
AcDbEntity
  8
LAYER_3
100
AcDbLine
 10
-25.8764
 20
164.9926
 30
0.0
 11
-25.8764
 21
172.9286
 31
0.0
  0
LINE
  5
35C
330
6F
100
AcDbEntity
  8
LAYER_3
100
AcDbLine
 10
-21.1264
 20
164.9926
 30
0.0
 11
-21.1264
 21
172.9286
 31
0.0
  0
LINE
  5
35D
330
6F
100
AcDbEntity
  8
LAYER_3
100
AcDbLine
 10
43.2112
 20
167.4193
 30
0.0
 11
40.6301
 21
163.7331
 31
0.0
  0
INSERT
  5
35E
330
6F
100
AcDbEntity
  8
LAYER_3
100
AcDbBlockReference
  2
AIGNBL03010027
 10
0.0
 20
0.0
 30
0.0
  0
ARC
  5
35F
330
6F
100
AcDbEntity
  8
LAYER_3
100
AcDbCircle
 10
49.2324
 20
163.2032
 30
0.0
 40
12.1005
100
AcDbArc
 50
90.00016540000001
 51
144.9997194
  0
LINE
  5
360
330
6F
100
AcDbEntity
  8
LAYER_3
100
AcDbLine
 10
39.3203
 20
170.1438
 30
0.0
 11
43.2112
 21
167.4193
 31
0.0
  0
LINE
  5
361
330
6F
100
AcDbEntity
  8
LAYER_3
100
AcDbLine
 10
62.1131
 20
170.5537
 30
0.0
 11
49.2324
 21
170.5537
 31
0.0
  0
LINE
  5
362
330
6F
100
AcDbEntity
  8
LAYER_3
100
AcDbLine
 10
62.1131
 20
175.3037
 30
0.0
 11
49.2324
 21
175.3037
 31
0.0
  0
INSERT
  5
363
330
6F
100
AcDbEntity
  8
LAYER_3
100
AcDbBlockReference
  2
AIGNBL03010029
 10
0.0
 20
0.0
 30
0.0
  0
ARC
  5
364
330
6F
100
AcDbEntity
  8
LAYER_3
100
AcDbCircle
 10
57.7132
 20
172.9287
 30
0.0
 40
5.0
100
AcDbArc
 50
331.6406318
 51
28.35936822
  0
ARC
  5
365
330
6F
100
AcDbEntity
  8
LAYER_3
100
AcDbCircle
 10
49.2324
 20
163.2031
 30
0.0
 40
7.3506
100
AcDbArc
 50
89.99988065
 51
144.9995455
  0
LINE
  5
366
330
6F
100
AcDbEntity
  8
LAYER_3
100
AcDbLine
 10
39.3203
 20
170.1438
 30
0.0
 11
36.7392
 21
166.4576
 31
0.0
  0
LINE
  5
367
330
6F
100
AcDbEntity
  8
LAYER_3
100
AcDbLine
 10
36.7699
 20
166.2835
 30
0.0
 11
38.613
 21
164.9929
 31
0.0
  0
LINE
  5
368
330
6F
100
AcDbEntity
  8
LAYER_3
100
AcDbLine
 10
38.613
 20
164.9929
 30
0.0
 11
40.456
 21
163.7024
 31
0.0
  0
ARC
  5
369
330
6F
100
AcDbEntity
  8
LAYER_3
100
AcDbCircle
 10
40.5277
 20
163.8048
 30
0.0
 40
0.125
100
AcDbArc
 50
234.9910176999999
 51
325.0099223999999
  0
ARC
  5
36A
330
6F
100
AcDbEntity
  8
LAYER_3
100
AcDbCircle
 10
36.8416
 20
166.3859
 30
0.0
 40
0.125
100
AcDbArc
 50
144.9858346
 51
235.0151055
  0
INSERT
  5
36B
330
6F
100
AcDbEntity
  8
LAYER_3
100
AcDbBlockReference
  2
AIGNBL0301002B
 10
0.0
 20
0.0
 30
0.0
  0
LINE
  5
36C
330
6F
100
AcDbEntity
  8
LAYER_3
100
AcDbLine
 10
62.5317
 20
178.7866
 30
0.0
 11
62.5317
 21
178.3941
 31
0.0
  0
LINE
  5
36D
330
6F
100
AcDbEntity
  8
LAYER_3
100
AcDbLine
 10
71.6315
 20
178.7866
 30
0.0
 11
71.6315
 21
178.3941
 31
0.0
  0
LINE
  5
36E
330
6F
100
AcDbEntity
  8
LAYER_3
100
AcDbLine
 10
62.1444
 20
186.9792
 30
0.0
 11
62.1864
 21
187.0816
 31
0.0
  0
ARC
  5
36F
330
6F
100
AcDbEntity
  8
LAYER_3
100
AcDbCircle
 10
62.3676
 20
186.9437
 30
0.0
 40
0.2277
100
AcDbArc
 50
98.69525887
 51
142.7258263
  0
LINE
  5
370
330
6F
100
AcDbEntity
  8
LAYER_3
100
AcDbLine
 10
62.3332
 20
187.1688
 30
0.0
 11
71.955
 21
187.1688
 31
0.0
  0
LINE
  5
371
330
6F
100
AcDbEntity
  8
LAYER_3
100
AcDbLine
 10
71.955
 20
187.1688
 30
0.0
 11
72.0573
 21
187.1265
 31
0.0
  0
ARC
  5
372
330
6F
100
AcDbEntity
  8
LAYER_3
100
AcDbCircle
 10
71.9177
 20
186.945
 30
0.0
 40
0.229
100
AcDbArc
 50
8.591174699
 51
52.42826897
  0
LINE
  5
373
330
6F
100
AcDbEntity
  8
LAYER_3
100
AcDbLine
 10
72.1441
 20
186.9792
 30
0.0
 11
72.1441
 21
178.7863
 31
0.0
  0
LINE
  5
374
330
6F
100
AcDbEntity
  8
LAYER_3
100
AcDbLine
 10
72.1441
 20
178.7863
 30
0.0
 11
62.1444
 21
178.7863
 31
0.0
  0
LINE
  5
375
330
6F
100
AcDbEntity
  8
LAYER_3
100
AcDbLine
 10
62.1444
 20
178.7863
 30
0.0
 11
62.1444
 21
184.9628
 31
0.0
  0
ARC
  5
376
330
6F
100
AcDbEntity
  8
LAYER_3
100
AcDbCircle
 10
60.68600000000001
 20
185.9713
 30
0.0
 40
1.7732
100
AcDbArc
 50
325.334887
 51
10.27779835
  0
ARC
  5
377
330
6F
100
AcDbEntity
  8
LAYER_3
100
AcDbCircle
 10
60.6855
 20
185.9702
 30
0.0
 40
1.7738
100
AcDbArc
 50
10.31207624
 51
34.66972149
  0
LINE
  5
378
330
6F
100
AcDbEntity
  8
LAYER_3
100
AcDbLine
 10
62.1444
 20
186.9792
 30
0.0
 11
55.8316
 21
186.9792
 31
0.0
  0
ARC
  5
379
330
6F
100
AcDbEntity
  8
LAYER_3
100
AcDbCircle
 10
55.8655
 20
186.7521
 30
0.0
 40
0.2296
100
AcDbArc
 50
98.48656845
 51
142.3055034
  0
LINE
  5
37A
330
6F
100
AcDbEntity
  8
LAYER_3
100
AcDbLine
 10
55.6838
 20
186.8925
 30
0.0
 11
55.6421
 21
186.7907
 31
0.0
  0
LINE
  5
37B
330
6F
100
AcDbEntity
  8
LAYER_3
100
AcDbLine
 10
55.6421
 20
186.7907
 30
0.0
 11
55.6421
 21
185.1515
 31
0.0
  0
ARC
  5
37C
330
6F
100
AcDbEntity
  8
LAYER_3
100
AcDbCircle
 10
55.8641
 20
185.1842
 30
0.0
 40
0.2243
100
AcDbArc
 50
188.3717723
 51
232.9553069
  0
LINE
  5
37D
330
6F
100
AcDbEntity
  8
LAYER_3
100
AcDbLine
 10
55.7289
 20
185.0051
 30
0.0
 11
55.8316
 21
184.9628
 31
0.0
  0
LINE
  5
37E
330
6F
100
AcDbEntity
  8
LAYER_3
100
AcDbLine
 10
55.8316
 20
184.9628
 30
0.0
 11
62.1444
 21
184.9628
 31
0.0
  0
LINE
  5
37F
330
6F
100
AcDbEntity
  8
LAYER_3
100
AcDbLine
 10
-24.5096
 20
245.954
 30
0.0
 11
-24.5096
 21
239.5706
 31
0.0
  0
ARC
  5
380
330
6F
100
AcDbEntity
  8
LAYER_3
100
AcDbCircle
 10
-24.2846
 20
239.6039
 30
0.0
 40
0.2274
100
AcDbArc
 50
188.4315107
 51
232.587933
  0
LINE
  5
381
330
6F
100
AcDbEntity
  8
LAYER_3
100
AcDbLine
 10
-24.4228
 20
239.4233
 30
0.0
 11
-24.3208
 21
239.3815
 31
0.0
  0
LINE
  5
382
330
6F
100
AcDbEntity
  8
LAYER_3
100
AcDbLine
 10
-24.3208
 20
239.3815
 30
0.0
 11
-22.6818
 21
239.3815
 31
0.0
  0
ARC
  5
383
330
6F
100
AcDbEntity
  8
LAYER_3
100
AcDbCircle
 10
-22.7147
 20
239.6041
 30
0.0
 40
0.225
100
AcDbArc
 50
278.4127785
 51
322.8799807
  0
LINE
  5
384
330
6F
100
AcDbEntity
  8
LAYER_3
100
AcDbLine
 10
-22.5353
 20
239.4683
 30
0.0
 11
-22.493
 21
239.5706
 31
0.0
  0
LINE
  5
385
330
6F
100
AcDbEntity
  8
LAYER_3
100
AcDbLine
 10
-22.493
 20
239.5706
 30
0.0
 11
-22.493
 21
245.9539
 31
0.0
  0
LINE
  5
386
330
6F
100
AcDbEntity
  8
LAYER_3
100
AcDbLine
 10
-18.7217
 20
187.161
 30
0.0
 11
-18.7034
 21
187.1689
 31
0.0
  0
ARC
  5
387
330
6F
100
AcDbEntity
  8
LAYER_3
100
AcDbCircle
 10
-18.6596
 20
187.0309
 30
0.0
 40
0.1448
100
AcDbArc
 50
63.96479944999999
 51
107.6213653
  0
ARC
  5
388
330
6F
100
AcDbEntity
  8
LAYER_3
100
AcDbCircle
 10
-18.6621
 20
187.0311
 30
0.0
 40
0.1457
100
AcDbArc
 50
19.3993319
 51
63.04216079
  0
ARC
  5
389
330
6F
100
AcDbEntity
  8
LAYER_3
100
AcDbCircle
 10
-18.6659
 20
187.0363
 30
0.0
 40
0.1477
100
AcDbArc
 50
334.1662546
 51
17.01190331
  0
LINE
  5
38A
330
6F
100
AcDbEntity
  8
LAYER_3
100
AcDbLine
 10
-18.5329
 20
186.9719
 30
0.0
 11
-18.5329
 21
178.7863
 31
0.0
  0
LINE
  5
38B
330
6F
100
AcDbEntity
  8
LAYER_3
100
AcDbLine
 10
-18.5329
 20
178.7863
 30
0.0
 11
-28.533
 21
178.7863
 31
0.0
  0
LINE
  5
38C
330
6F
100
AcDbEntity
  8
LAYER_3
100
AcDbLine
 10
-28.533
 20
178.7863
 30
0.0
 11
-28.533
 21
186.9719
 31
0.0
  0
LINE
  5
38D
330
6F
100
AcDbEntity
  8
LAYER_3
100
AcDbLine
 10
-28.533
 20
186.9719
 30
0.0
 11
-28.5406
 21
186.9905
 31
0.0
  0
ARC
  5
38E
330
6F
100
AcDbEntity
  8
LAYER_3
100
AcDbCircle
 10
-28.4062
 20
187.0351
 30
0.0
 40
0.1416
100
AcDbArc
 50
153.5754733
 51
198.3441187
  0
ARC
  5
38F
330
6F
100
AcDbEntity
  8
LAYER_3
100
AcDbCircle
 10
-28.4051
 20
187.0331
 30
0.0
 40
0.1434
100
AcDbArc
 50
108.77392
 51
153.0495064
  0
ARC
  5
390
330
6F
100
AcDbEntity
  8
LAYER_3
100
AcDbCircle
 10
-28.4075
 20
187.0324
 30
0.0
 40
0.1434
100
AcDbArc
 50
63.78349433
 51
107.7791872
  0
LINE
  5
391
330
6F
100
AcDbEntity
  8
LAYER_3
100
AcDbLine
 10
-28.3442
 20
187.161
 30
0.0
 11
-18.7217
 21
187.161
 31
0.0
  0
ARC
  5
392
330
6F
100
AcDbEntity
  8
LAYER_3
100
AcDbCircle
 10
-23.5028
 20
185.9004
 30
0.0
 40
0.8837
100
AcDbArc
 50
0.02313121219
 51
44.95952107
  0
ARC
  5
393
330
6F
100
AcDbEntity
  8
LAYER_3
100
AcDbCircle
 10
-23.5013
 20
185.9009
 30
0.0
 40
0.8823
100
AcDbArc
 50
45.01100872999999
 51
90.00903467
  0
ARC
  5
394
330
6F
100
AcDbEntity
  8
LAYER_3
100
AcDbCircle
 10
-23.5018
 20
185.9023
 30
0.0
 40
0.8809
100
AcDbArc
 50
89.97248769
 51
135.0269512
  0
ARC
  5
395
330
6F
100
AcDbEntity
  8
LAYER_3
100
AcDbCircle
 10
-23.5008
 20
185.9005
 30
0.0
 40
0.8829
100
AcDbArc
 50
134.9895655
 51
179.9807678
  0
ARC
  5
396
330
6F
100
AcDbEntity
  8
LAYER_3
100
AcDbCircle
 10
-23.5019
 20
185.9004
 30
0.0
 40
0.8818
100
AcDbArc
 50
179.9767156
 51
225.0399647
  0
ARC
  5
397
330
6F
100
AcDbEntity
  8
LAYER_3
100
AcDbCircle
 10
-23.5022
 20
185.8991
 30
0.0
 40
0.8806
100
AcDbArc
 50
224.9931328
 51
270.0544908000001
  0
ARC
  5
398
330
6F
100
AcDbEntity
  8
LAYER_3
100
AcDbCircle
 10
-23.5011
 20
185.9011
 30
0.0
 40
0.8826
100
AcDbArc
 50
269.9792533
 51
314.953657
  0
ARC
  5
399
330
6F
100
AcDbEntity
  8
LAYER_3
100
AcDbCircle
 10
-23.5011
 20
185.9003
 30
0.0
 40
0.882
100
AcDbArc
 50
314.9949164
 51
0.002954317218
  0
LINE
  5
39A
330
6F
100
AcDbEntity
  8
LAYER_3
100
AcDbLine
 10
-22.6191
 20
185.9003
 30
0.0
 11
-22.6191
 21
185.9008
 31
0.0
  0
INSERT
  5
39B
330
6F
100
AcDbEntity
  8
LAYER_3
100
AcDbBlockReference
  2
AIGNBL0301002D
 10
0.0
 20
0.0
 30
0.0
  0
LINE
  5
39C
330
6F
100
AcDbEntity
  8
LAYER_4
100
AcDbLine
 10
126.9566
 20
57.1559
 30
0.0
 11
293.4567
 21
57.1559
 31
0.0
  0
LINE
  5
39D
330
6F
100
AcDbEntity
  8
LAYER_4
100
AcDbLine
 10
213.4567
 20
37.1557
 30
0.0
 11
293.4567
 21
37.1557
 31
0.0
  0
LINE
  5
39E
330
6F
100
AcDbEntity
  8
LAYER_4
100
AcDbLine
 10
126.9566
 20
44.6564
 30
0.0
 11
213.4567
 21
44.6564
 31
0.0
  0
LINE
  5
39F
330
6F
100
AcDbEntity
  8
LAYER_4
100
AcDbLine
 10
126.9566
 20
30.6562
 30
0.0
 11
213.4567
 21
30.6562
 31
0.0
  0
LINE
  5
3A0
330
6F
100
AcDbEntity
  8
LAYER_4
100
AcDbLine
 10
138.4563
 20
30.6562
 30
0.0
 11
138.4563
 21
44.6564
 31
0.0
  0
LINE
  5
3A1
330
6F
100
AcDbEntity
  8
LAYER_4
100
AcDbLine
 10
213.4567
 20
17.1562
 30
0.0
 11
213.4567
 21
57.1559
 31
0.0
  0
LINE
  5
3A2
330
6F
100
AcDbEntity
  8
LAYER_4
100
AcDbLine
 10
126.9566
 20
17.1562
 30
0.0
 11
126.9566
 21
57.1559
 31
0.0
  0
LINE
  5
3A3
330
6F
100
AcDbEntity
  8
LAYER_4
100
AcDbLine
 10
194.4563
 20
30.6562
 30
0.0
 11
194.4563
 21
57.1559
 31
0.0
  0
LINE
  5
3A4
330
6F
100
AcDbEntity
  8
LAYER_4
100
AcDbLine
 10
175.4566
 20
30.6562
 30
0.0
 11
175.4566
 21
57.1559
 31
0.0
  0
LINE
  5
3A5
330
6F
100
AcDbEntity
  8
LAYER_4
100
AcDbLine
 10
293.4567
 20
17.1562
 30
0.0
 11
-83.0433
 21
17.1562
 31
0.0
  0
LINE
  5
3A6
330
6F
100
AcDbEntity
  8
LAYER_4
100
AcDbLine
 10
-83.0433
 20
17.1562
 30
0.0
 11
-83.0433
 21
280.1562
 31
0.0
  0
LINE
  5
3A7
330
6F
100
AcDbEntity
  8
LAYER_4
100
AcDbLine
 10
-83.0433
 20
280.1562
 30
0.0
 11
293.4567
 21
280.1562
 31
0.0
  0
LINE
  5
3A8
330
6F
100
AcDbEntity
  8
LAYER_4
100
AcDbLine
 10
293.4567
 20
280.1562
 30
0.0
 11
293.4567
 21
17.1562
 31
0.0
  0
TEXT
  5
3A9
330
6F
100
AcDbEntity
  8
LAYER_4
100
AcDbText
 10
136.177985
 20
49.1839
 30
0.0
 40
4.4979
  1
セラトレーディング株式会社
 41
0.5
 72
     1
 11
153.4949
 21
49.1839
 31
0.0
100
AcDbText
  0
TEXT
  5
3AA
330
6F
100
AcDbEntity
  8
LAYER_4
100
AcDbText
 10
127.9281
 20
40.658
 30
0.0
 40
3.0923
  1
製図
 41
0.5
100
AcDbText
  0
TEXT
  5
3AB
330
6F
100
AcDbEntity
  8
LAYER_4
100
AcDbText
 10
127.9281
 20
26.4587
 30
0.0
 40
3.0923
  1
備考
 41
0.5
100
AcDbText
  0
TEXT
  5
3AC
330
6F
100
AcDbEntity
  8
LAYER_4
100
AcDbText
 10
139.5463
 20
40.658
 30
0.0
 40
3.0923
  1
検図
 41
0.5
100
AcDbText
  0
TEXT
  5
3AD
330
6F
100
AcDbEntity
  8
LAYER_4
100
AcDbText
 10
176.4998
 20
40.658
 30
0.0
 40
3.0923
  1
日付
 41
0.5
100
AcDbText
  0
LINE
  5
3AE
330
6F
100
AcDbEntity
  8
LAYER_4
100
AcDbLine
 10
126.9566
 20
75.5544
 30
0.0
 11
290.1597
 21
75.5544
 31
0.0
  0
TEXT
  5
3AF
330
6F
100
AcDbEntity
  8
LAYER_4
100
AcDbText
 10
129.4953
 20
70.0405
 30
0.0
 40
3.9357
  1
使用環境温度
 41
0.5
100
AcDbText
  0
LINE
  5
3B0
330
6F
100
AcDbEntity
  8
LAYER_4
100
AcDbLine
 10
145.6397
 20
96.8909
 30
0.0
 11
290.1597
 21
96.8909
 31
0.0
  0
TEXT
  5
3B1
330
6F
100
AcDbEntity
  8
LAYER_4
100
AcDbText
 10
147.4139
 20
91.37700000000001
 30
0.0
 40
3.9357
  1
最高水圧
 41
0.5
100
AcDbText
  0
LINE
  5
3B2
330
6F
100
AcDbEntity
  8
LAYER_4
100
AcDbLine
 10
126.9566
 20
83.3169
 30
0.0
 11
290.1597
 21
83.3169
 31
0.0
  0
TEXT
  5
3B3
330
6F
100
AcDbEntity
  8
LAYER_4
100
AcDbText
 10
169.5094
 20
77.6624
 30
0.0
 40
3.9357
  1
水道水
 41
0.5
100
AcDbText
  0
TEXT
  5
3B4
330
6F
100
AcDbEntity
  8
LAYER_4
100
AcDbText
 10
129.4953
 20
77.6624
 30
0.0
 40
3.9357
  1
使用可能水質
 41
0.5
100
AcDbText
  0
LINE
  5
3B5
330
6F
100
AcDbEntity
  8
LAYER_4
100
AcDbLine
 10
126.9566
 20
104.6534
 30
0.0
 11
290.1597
 21
104.6534
 31
0.0
  0
TEXT
  5
3B6
330
6F
100
AcDbEntity
  8
LAYER_4
100
AcDbText
 10
169.5094
 20
98.999
 30
0.0
 40
3.9357
  1
0.1MPa（流動圧）
 41
0.5
100
AcDbText
  0
TEXT
  5
3B7
330
6F
100
AcDbEntity
  8
LAYER_4
100
AcDbText
 10
147.4139
 20
98.999
 30
0.0
 40
3.9357
  1
最低必要水圧
 41
0.5
100
AcDbText
  0
LINE
  5
3B8
330
6F
100
AcDbEntity
  8
LAYER_4
100
AcDbLine
 10
290.1597
 20
112.4159
 30
0.0
 11
126.9566
 21
112.4159
 31
0.0
  0
LINE
  5
3B9
330
6F
100
AcDbEntity
  8
LAYER_4
100
AcDbLine
 10
126.9566
 20
112.4159
 30
0.0
 11
126.9566
 21
61.9804
 31
0.0
  0
LINE
  5
3BA
330
6F
100
AcDbEntity
  8
LAYER_4
100
AcDbLine
 10
126.9566
 20
61.9804
 30
0.0
 11
290.1597
 21
61.9804
 31
0.0
  0
LINE
  5
3BB
330
6F
100
AcDbEntity
  8
LAYER_4
100
AcDbLine
 10
290.1597
 20
61.9804
 30
0.0
 11
290.1597
 21
112.4159
 31
0.0
  0
LINE
  5
3BC
330
6F
100
AcDbEntity
  8
LAYER_4
100
AcDbLine
 10
166.9707
 20
112.4159
 30
0.0
 11
166.9707
 21
61.9804
 31
0.0
  0
LINE
  5
3BD
330
6F
100
AcDbEntity
  8
LAYER_4
100
AcDbLine
 10
145.6397
 20
104.6534
 30
0.0
 11
145.6397
 21
83.3169
 31
0.0
  0
TEXT
  5
3BE
330
6F
100
AcDbEntity
  8
LAYER_4
100
AcDbText
 10
169.5094
 20
106.7614
 30
0.0
 40
3.9357
  1
一般住宅用（屋内用）
 41
0.5
100
AcDbText
  0
TEXT
  5
3BF
330
6F
100
AcDbEntity
  8
LAYER_4
100
AcDbText
 10
129.4953
 20
106.7614
 30
0.0
 40
3.9357
  1
用途
 41
0.5
100
AcDbText
  0
TEXT
  5
3C0
330
6F
100
AcDbEntity
  8
LAYER_4
100
AcDbText
 10
129.4953
 20
98.999
 30
0.0
 40
3.9357
  1
給水圧力
 41
0.5
100
AcDbText
  0
TEXT
  5
3C1
330
6F
100
AcDbEntity
  8
LAYER_4
100
AcDbText
 10
245.912975
 20
20.3547
 30
0.0
 40
3.9357
  1
VLRB1CDX
 41
0.5
 72
     1
 11
253.4564
 21
20.3547
 31
0.0
100
AcDbText
  0
TEXT
  5
3C2
330
6F
100
AcDbEntity
  8
LAYER_4
100
AcDbText
 10
195.5498
 20
40.658
 30
0.0
 40
3.0923
  1
尺度
 41
0.5
100
AcDbText
  0
TEXT
  5
3C3
330
6F
100
AcDbEntity
  8
LAYER_4
100
AcDbText
 10
195.5498
 20
53.0652
 30
0.0
 40
3.0923
  1
単位
 41
0.5
100
AcDbText
  0
TEXT
  5
3C4
330
6F
100
AcDbEntity
  8
LAYER_4
100
AcDbText
 10
201.75165
 20
48.0691
 30
0.0
 40
3.6546
  1
mm
 41
0.5
 72
     1
 11
203.2744
 21
48.0691
 31
0.0
100
AcDbText
  0
TEXT
  5
3C5
330
6F
100
AcDbEntity
  8
LAYER_4
100
AcDbText
 10
214.5116
 20
53.0652
 30
0.0
 40
3.0923
  1
名称
 41
0.5
100
AcDbText
  0
TEXT
  5
3C6
330
6F
100
AcDbEntity
  8
LAYER_4
100
AcDbText
 10
214.5116
 20
32.9265
 30
0.0
 40
3.0923
  1
品番
 41
0.5
100
AcDbText
  0
LINE
  5
3C7
330
6F
100
AcDbEntity
  8
LAYER_4
100
AcDbLine
 10
213.4567
 20
27.156
 30
0.0
 11
293.4567
 21
27.156
 31
0.0
  0
TEXT
  5
3C8
330
6F
100
AcDbEntity
  8
LAYER_4
100
AcDbText
 10
214.5116
 20
22.9268
 30
0.0
 40
3.0923
  1
図番
 41
0.5
100
AcDbText
  0
INSERT
  5
3C9
330
6F
100
AcDbEntity
  8
LAYER_4
100
AcDbBlockReference
  2
AIGNBL04010002
 10
0.0
 20
0.0
 30
0.0
  0
LINE
  5
3CA
330
6F
100
AcDbEntity
  8
LAYER_4
100
AcDbLine
 10
-83.0433
 20
148.6576
 30
0.0
 11
-104.7936
 21
148.6576
 31
0.0
  0
LINE
  5
3CB
330
6F
100
AcDbEntity
  8
LAYER_4
100
AcDbLine
 10
105.2067
 20
297.1763
 30
0.0
 11
105.2067
 21
280.1562
 31
0.0
  0
LINE
  5
3CC
330
6F
100
AcDbEntity
  8
LAYER_4
100
AcDbLine
 10
105.2067
 20
17.1562
 30
0.0
 11
105.2067
 21
0.176
 31
0.0
  0
LINE
  5
3CD
330
6F
100
AcDbEntity
  8
LAYER_4
100
AcDbLine
 10
315.2069
 20
148.6576
 30
0.0
 11
293.4567
 21
148.6576
 31
0.0
  0
TEXT
  5
3CE
330
6F
100
AcDbEntity
  8
LAYER_4
100
AcDbText
 10
134.4938
 20
21.9546
 30
0.0
 40
3.9357
  1
（社）日本水道協会認証品
 41
0.5
100
AcDbText
  0
TEXT
  5
3CF
330
6F
100
AcDbEntity
  8
LAYER_4
100
AcDbText
 10
290.6455333333333
 20
12.8082
 30
0.0
 40
3.3734
  1
A3
 41
0.5
 72
     2
 11
293.4567
 21
12.8082
 31
0.0
100
AcDbText
  0
TEXT
  5
3D0
330
6F
100
AcDbEntity
  8
LAYER_4
100
AcDbText
 10
177.6925
 20
34.4651
 30
0.0
 40
3.6546
  1
23.10.23
 41
0.5
100
AcDbText
  0
TEXT
  5
3D1
330
6F
100
AcDbEntity
  8
LAYER_4
100
AcDbText
 10
130.69738
 20
34.8502
 30
0.0
 40
3.6546
  1
木場
 41
0.5
 72
     1
 11
132.6465
 21
34.8502
 31
0.0
100
AcDbText
  0
TEXT
  5
3D2
330
6F
100
AcDbEntity
  8
LAYER_4
100
AcDbText
 10
149.33219
 20
34.8502
 30
0.0
 40
3.6546
  1
井田
 41
0.5
 72
     1
 11
151.2204
 21
34.8502
 31
0.0
100
AcDbText
  0
TEXT
  5
3D3
330
6F
100
AcDbEntity
  8
LAYER_4
100
AcDbText
 10
245.912975
 20
30.3551
 30
0.0
 40
3.9357
  1
VLRB1CDX
 41
0.5
 72
     1
 11
253.4564
 21
30.3551
 31
0.0
100
AcDbText
  0
TEXT
  5
3D4
330
6F
100
AcDbEntity
  8
LAYER_4
100
AcDbText
 10
200.45534
 20
34.4651
 30
0.0
 40
3.6546
  1
1 ： 4
 41
0.5
 72
     1
 11
203.8663
 21
34.4651
 31
0.0
100
AcDbText
  0
TEXT
  5
3D5
330
6F
100
AcDbEntity
  8
LAYER_4
100
AcDbText
 10
219.0853
 20
45.4728
 30
0.0
 40
3.9357
  1
ボラ　立水栓
 41
0.5
100
AcDbText
  0
TEXT
  5
3D6
330
6F
100
AcDbEntity
  8
LAYER_4
100
AcDbText
 10
169.5094
 20
70.0405
 30
0.0
 40
3.9357
  1
1～40℃
 41
0.5
100
AcDbText
  0
TEXT
  5
3D7
330
6F
100
AcDbEntity
  8
LAYER_4
100
AcDbText
 10
169.5094
 20
63.9603
 30
0.0
 40
3.9357
  1
※寒冷地仕様ではありません、凍結が予想される場合は凍結予防をしてください。
 41
0.5
100
AcDbText
  0
TEXT
  5
3D8
330
6F
100
AcDbEntity
  8
LAYER_4
100
AcDbText
 10
169.5094
 20
91.37700000000001
 30
0.0
 40
3.9357
  1
0.5MPa（流動圧）
 41
0.5
100
AcDbText
  0
TEXT
  5
3D9
330
6F
100
AcDbEntity
  8
LAYER_4
100
AcDbText
 10
169.5094
 20
85.2968
 30
0.0
 40
3.9357
  1
※快適にお使いいただくためには、0.2～0.3MPa程度の圧力をおすすめします。
 41
0.5
100
AcDbText
  0
TEXT
  5
3DA
330
6F
100
AcDbEntity
  8
LAYER_4
100
AcDbText
 10
247.18488
 20
270.0405
 30
0.0
 40
4.2168
  1
（注）：色番号はカタログを参照ください。
 41
0.5
 72
     2
 11
295.9592
 21
270.0405
 31
0.0
100
AcDbText
  0
ENDSEC
  0
SECTION
  2
OBJECTS
  0
DICTIONARY
  5
C
330
0
100
AcDbDictionary
281
     1
  3
ACAD_CIP_PREVIOUS_PRODUCT_INFO
350
3DC
  3
ACAD_COLOR
350
62
  3
ACAD_DETAILVIEWSTYLE
350
69
  3
ACAD_GROUP
350
D
  3
ACAD_LAYOUT
350
61
  3
ACAD_MATERIAL
350
10
  3
ACAD_MLEADERSTYLE
350
65
  3
ACAD_MLINESTYLE
350
5E
  3
ACAD_PLOTSETTINGS
350
60
  3
ACAD_PLOTSTYLENAME
350
E
  3
ACAD_SCALELIST
350
42
  3
ACAD_SECTIONVIEWSTYLE
350
67
  3
ACAD_TABLESTYLE
350
63
  3
ACAD_VISUALSTYLE
350
29
  3
ACDBHEADERROUNDTRIPXREC
350
43A
  3
AcDbVariableDictionary
350
42E
  3
DWGPROPS
350
43D
  0
DICTIONARY
  5
43E
330
8
100
AcDbDictionary
280
     1
281
     1
  3
ACAD_XREC_ROUNDTRIP
360
43F
  0
DICTIONARY
  5
3DE
330
54
100
AcDbDictionary
280
     1
281
     1
  3
ADSK_XREC_LAYER_RECONCILED
360
3DF
  0
DICTIONARY
  5
3E0
330
8A
100
AcDbDictionary
280
     1
281
     1
  3
ADSK_XREC_LAYER_RECONCILED
360
3E1
  0
DICTIONARY
  5
3E2
330
8B
100
AcDbDictionary
280
     1
281
     1
  3
ADSK_XREC_LAYER_RECONCILED
360
3E3
  0
DICTIONARY
  5
3E4
330
8C
100
AcDbDictionary
280
     1
281
     1
  3
ADSK_XREC_LAYER_RECONCILED
360
3E5
  0
DICTIONARY
  5
3E6
330
8D
100
AcDbDictionary
280
     1
281
     1
  3
ADSK_XREC_LAYER_RECONCILED
360
3E7
  0
DICTIONARY
  5
3E8
330
3DD
100
AcDbDictionary
280
     1
281
     1
  3
ADSK_XREC_LAYER_RECONCILED
360
3E9
  0
XRECORD
  5
3DC
102
{ACAD_REACTORS
330
C
102
}
330
C
100
AcDbXrecord
280
     1
300
ACD
300
2020
300

  0
DICTIONARY
  5
62
102
{ACAD_REACTORS
330
C
102
}
330
C
100
AcDbDictionary
281
     1
  0
DICTIONARY
  5
69
102
{ACAD_REACTORS
330
C
102
}
330
C
100
AcDbDictionary
281
     1
  3
Imperial24
350
6A
  0
DICTIONARY
  5
D
102
{ACAD_REACTORS
330
C
102
}
330
C
100
AcDbDictionary
281
     1
  0
DICTIONARY
  5
61
102
{ACAD_REACTORS
330
C
102
}
330
C
100
AcDbDictionary
281
     1
  3
Model
350
72
  3
レイアウト1
350
6E
  0
DICTIONARY
  5
10
102
{ACAD_REACTORS
330
C
102
}
330
C
100
AcDbDictionary
281
     1
  3
ByBlock
350
19
  3
ByLayer
350
11
  3
Global
350
21
  0
DICTIONARY
  5
65
102
{ACAD_REACTORS
330
C
102
}
330
C
100
AcDbDictionary
281
     1
  3
Standard
350
66
  0
DICTIONARY
  5
5E
102
{ACAD_REACTORS
330
C
102
}
330
C
100
AcDbDictionary
281
     1
  3
Standard
350
5F
  0
DICTIONARY
  5
60
102
{ACAD_REACTORS
330
C
102
}
330
C
100
AcDbDictionary
281
     1
  0
ACDBDICTIONARYWDFLT
  5
E
102
{ACAD_REACTORS
330
C
102
}
330
C
100
AcDbDictionary
281
     1
  3
Normal
350
F
100
AcDbDictionaryWithDefault
340
F
  0
DICTIONARY
  5
42
102
{ACAD_REACTORS
330
C
102
}
330
C
100
AcDbDictionary
281
     1
  3
A0
350
43
  3
A1
350
44
  3
A2
350
45
  3
A3
350
46
  3
A4
350
47
  3
A5
350
48
  3
A6
350
49
  3
A7
350
4A
  3
A8
350
4B
  3
A9
350
4C
  3
B0
350
4D
  3
B1
350
4E
  3
B2
350
4F
  3
B3
350
50
  3
B4
350
51
  3
B5
350
52
  3
B6
350
53
  0
DICTIONARY
  5
67
102
{ACAD_REACTORS
330
C
102
}
330
C
100
AcDbDictionary
281
     1
  3
Imperial24
350
68
  0
DICTIONARY
  5
63
102
{ACAD_REACTORS
330
C
102
}
330
C
100
AcDbDictionary
281
     1
  3
Standard
350
64
  0
DICTIONARY
  5
29
102
{ACAD_REACTORS
330
C
102
}
330
C
100
AcDbDictionary
281
     1
  3
2dWireframe
350
2F
  3
Basic
350
2E
  3
Brighten
350
35
  3
ColorChange
350
39
  3
Conceptual
350
32
  3
Dim
350
34
  3
EdgeColorOff
350
41
  3
Facepattern
350
38
  3
Flat
350
2A
  3
FlatWithEdges
350
2B
  3
Gouraud
350
2C
  3
GouraudWithEdges
350
2D
  3
Hidden
350
31
  3
JitterOff
350
3F
  3
Linepattern
350
37
  3
OverhangOff
350
40
  3
Realistic
350
33
  3
Shaded
350
3E
  3
Shaded with edges
350
3D
  3
Shades of Gray
350
3A
  3
Sketchy
350
3B
  3
Thicken
350
36
  3
Wireframe
350
30
  3
X-Ray
350
3C
  0
DICTIONARY
  5
43A
102
{ACAD_REACTORS
330
C
102
}
330
C
100
AcDbDictionary
281
     1
  3
COLORDICT
350
43B
  3
MATERIALDICT
350
43C
  0
DICTIONARY
  5
42E
102
{ACAD_REACTORS
330
C
102
}
330
C
100
AcDbDictionary
281
     1
  3
CANNOSCALE
350
440
  3
CMLEADERSTYLE
350
430
  3
CTABLESTYLE
350
42F
  3
CVIEWDETAILSTYLE
350
431
  3
CVIEWSECTIONSTYLE
350
432
  3
DIMASSOC
350
436
  3
HIDETEXT
350
439
  3
INDEXCTL
350
435
  3
MSLTSCALE
350
438
  3
SORTENTS
350
434
  3
XCLIPFRAME
350
437
  0
XRECORD
  5
43D
102
{ACAD_REACTORS
330
C
102
}
330
C
100
AcDbXrecord
280
     1
  1
DWGPROPS COOKIE
  2

  3

  4

  6

  7

  8
SYSTEM
  9

300
=
301
=
302
=
303
=
304
=
305
=
306
=
307
=
308
=
309
=
 40
0.0
 41
2460243.063333333
 42
2460339.443256863
  1

 90
        0
  0
XRECORD
  5
43F
102
{ACAD_REACTORS
330
43E
102
}
330
43E
100
AcDbXrecord
280
     1
102
VTR_0.000_0.000_1.000_1.000_VISUALSTYLE
340
2F
102
VTR_0.000_0.000_1.000_1.000_GRIDDISPLAY
 70
     3
102
VTR_0.000_0.000_1.000_1.000_GRIDMAJOR
 70
     5
102
VTR_0.000_0.000_1.000_1.000_DEFAULTLIGHTING
280
     1
102
VTR_0.000_0.000_1.000_1.000_DEFAULTLIGHTINGTYPE
 70
     1
102
VTR_0.000_0.000_1.000_1.000_BRIGHTNESS
141
0.0
102
VTR_0.000_0.000_1.000_1.000_CONTRAST
142
0.0
  0
XRECORD
  5
3DF
102
{ACAD_REACTORS
330
3DE
102
}
330
3DE
100
AcDbXrecord
280
     1
290
     1
  0
XRECORD
  5
3E1
102
{ACAD_REACTORS
330
3E0
102
}
330
3E0
100
AcDbXrecord
280
     1
290
     1
  0
XRECORD
  5
3E3
102
{ACAD_REACTORS
330
3E2
102
}
330
3E2
100
AcDbXrecord
280
     1
290
     1
  0
XRECORD
  5
3E5
102
{ACAD_REACTORS
330
3E4
102
}
330
3E4
100
AcDbXrecord
280
     1
290
     1
  0
XRECORD
  5
3E7
102
{ACAD_REACTORS
330
3E6
102
}
330
3E6
100
AcDbXrecord
280
     1
290
     1
  0
XRECORD
  5
3E9
102
{ACAD_REACTORS
330
3E8
102
}
330
3E8
100
AcDbXrecord
280
     1
290
     1
  0
ACDBDETAILVIEWSTYLE
  5
6A
102
{ACAD_REACTORS
330
69
102
}
102
{ACAD_XDICTIONARY
360
428
102
}
330
69
100
AcDbModelDocViewStyle
 70
     0
  3
Imperial24
290
     0
100
AcDbDetailViewStyle
 70
     0
 71
     0
 90
        3
 71
     1
340
55
 40
0.24
340
0
 40
0.24
300

 40
0.36
280
     3
 71
     2
340
5C
 90
       25
 71
     3
340
55
 40
0.24
 90
        1
 40
0.75
 90
        1
300
%<\AcVar ViewType \f "%tc1">% %<\AcVar ViewDetailId>%\PSCALE %<\AcVar ViewScale \f "%sn">%
 71
     4
340
5C
 90
       25
340
5C
 90
       25
280
     0
  0
LAYOUT
  5
72
102
{ACAD_REACTORS
330
61
102
}
330
61
100
AcDbPlotSettings
  1

  2
RICOH IM C3500 JPN RPCS
  4

  6

 40
0.0
 41
0.0
 42
0.0
 43
0.0
 44
0.0
 45
0.0
 46
0.0
 47
0.0
 48
0.0
 49
0.0
140
0.0
141
0.0
142
1.0
143
1.0
 70
  1712
 72
     0
 73
     0
 74
     0
  7

 75
     0
147
1.0
148
0.0
149
0.0
100
AcDbLayout
  1
Model
 70
     1
 71
     0
 10
0.0
 20
0.0
 11
12.0
 21
9.0
 12
0.0
 22
0.0
 32
0.0
 14
0.0
 24
0.0
 34
0.0
 15
0.0
 25
0.0
 35
0.0
146
0.0
 13
0.0
 23
0.0
 33
0.0
 16
1.0
 26
0.0
 36
0.0
 17
0.0
 27
1.0
 37
0.0
 76
     0
330
6F
331
90
  0
LAYOUT
  5
6E
102
{ACAD_REACTORS
330
61
102
}
330
61
100
AcDbPlotSettings
  1

  2
RICOH IM C3500 JPN RPCS
  4

  6

 40
0.0
 41
0.0
 42
0.0
 43
0.0
 44
0.0
 45
0.0
 46
0.0
 47
0.0
 48
0.0
 49
0.0
140
0.0
141
0.0
142
1.0
143
1.0
 70
   688
 72
     0
 73
     0
 74
     5
  7

 75
    16
147
1.0
148
0.0
149
0.0
100
AcDbLayout
  1
レイアウト1
 70
     1
 71
     1
 10
0.0
 20
0.0
 11
12.0
 21
9.0
 12
0.0
 22
0.0
 32
0.0
 14
1.000000000000000E+20
 24
1.000000000000000E+20
 34
1.000000000000000E+20
 15
-1.000000000000000E+20
 25
-1.000000000000000E+20
 35
-1.000000000000000E+20
146
0.0
 13
0.0
 23
0.0
 33
0.0
 16
1.0
 26
0.0
 36
0.0
 17
0.0
 27
1.0
 37
0.0
 76
     0
330
6B
  0
MATERIAL
  5
19
102
{ACAD_REACTORS
330
10
102
}
102
{ACAD_XDICTIONARY
360
442
102
}
330
10
100
AcDbMaterial
  1
ByBlock
 72
     0
 73
     2
 43
0.0208333333333333
 43
0.0
 43
0.0
 43
0.0
 43
0.0
 43
0.0208333333333333
 43
0.0
 43
0.0
 43
0.0
 43
0.0
 43
1.0
 43
0.0
 43
0.0
 43
0.0
 43
0.0
 43
1.0
 77
     0
 78
     2
 47
0.0208333333333333
 47
0.0
 47
0.0
 47
0.0
 47
0.0
 47
0.0208333333333333
 47
0.0
 47
0.0
 47
0.0
 47
0.0
 47
1.0
 47
0.0
 47
0.0
 47
0.0
 47
0.0
 47
1.0
171
     0
172
     2
 49
0.0208333333333333
 49
0.0
 49
0.0
 49
0.0
 49
0.0
 49
0.0208333333333333
 49
0.0
 49
0.0
 49
0.0
 49
0.0
 49
1.0
 49
0.0
 49
0.0
 49
0.0
 49
0.0
 49
1.0
175
     0
176
     2
142
0.0208333333333333
142
0.0
142
0.0
142
0.0
142
0.0
142
0.0208333333333333
142
0.0
142
0.0
142
0.0
142
0.0
142
1.0
142
0.0
142
0.0
142
0.0
142
0.0
142
1.0
179
     0
270
     2
144
0.0208333333333333
144
0.0
144
0.0
144
0.0
144
0.0
144
0.0208333333333333
144
0.0
144
0.0
144
0.0
144
0.0
144
1.0
144
0.0
144
0.0
144
0.0
144
0.0
144
1.0
274
     2
147
0.0208333333333333
147
0.0
147
0.0
147
0.0
147
0.0
147
0.0208333333333333
147
0.0
147
0.0
147
0.0
147
0.0
147
1.0
147
0.0
147
0.0
147
0.0
147
0.0
147
1.0
  0
MATERIAL
  5
11
102
{ACAD_REACTORS
330
10
102
}
102
{ACAD_XDICTIONARY
360
444
102
}
330
10
100
AcDbMaterial
  1
ByLayer
 72
     0
 73
     2
 43
0.0208333333333333
 43
0.0
 43
0.0
 43
0.0
 43
0.0
 43
0.0208333333333333
 43
0.0
 43
0.0
 43
0.0
 43
0.0
 43
1.0
 43
0.0
 43
0.0
 43
0.0
 43
0.0
 43
1.0
 77
     0
 78
     2
 47
0.0208333333333333
 47
0.0
 47
0.0
 47
0.0
 47
0.0
 47
0.0208333333333333
 47
0.0
 47
0.0
 47
0.0
 47
0.0
 47
1.0
 47
0.0
 47
0.0
 47
0.0
 47
0.0
 47
1.0
171
     0
172
     2
 49
0.0208333333333333
 49
0.0
 49
0.0
 49
0.0
 49
0.0
 49
0.0208333333333333
 49
0.0
 49
0.0
 49
0.0
 49
0.0
 49
1.0
 49
0.0
 49
0.0
 49
0.0
 49
0.0
 49
1.0
175
     0
176
     2
142
0.0208333333333333
142
0.0
142
0.0
142
0.0
142
0.0
142
0.0208333333333333
142
0.0
142
0.0
142
0.0
142
0.0
142
1.0
142
0.0
142
0.0
142
0.0
142
0.0
142
1.0
179
     0
270
     2
144
0.0208333333333333
144
0.0
144
0.0
144
0.0
144
0.0
144
0.0208333333333333
144
0.0
144
0.0
144
0.0
144
0.0
144
1.0
144
0.0
144
0.0
144
0.0
144
0.0
144
1.0
274
     2
147
0.0208333333333333
147
0.0
147
0.0
147
0.0
147
0.0
147
0.0208333333333333
147
0.0
147
0.0
147
0.0
147
0.0
147
1.0
147
0.0
147
0.0
147
0.0
147
0.0
147
1.0
  0
MATERIAL
  5
21
102
{ACAD_REACTORS
330
10
102
}
102
{ACAD_XDICTIONARY
360
446
102
}
330
10
100
AcDbMaterial
  1
Global
 72
     0
 73
     2
 43
0.0208333333333333
 43
0.0
 43
0.0
 43
0.0
 43
0.0
 43
0.0208333333333333
 43
0.0
 43
0.0
 43
0.0
 43
0.0
 43
1.0
 43
0.0
 43
0.0
 43
0.0
 43
0.0
 43
1.0
 77
     0
 78
     2
 47
0.0208333333333333
 47
0.0
 47
0.0
 47
0.0
 47
0.0
 47
0.0208333333333333
 47
0.0
 47
0.0
 47
0.0
 47
0.0
 47
1.0
 47
0.0
 47
0.0
 47
0.0
 47
0.0
 47
1.0
171
     0
172
     2
 49
0.0208333333333333
 49
0.0
 49
0.0
 49
0.0
 49
0.0
 49
0.0208333333333333
 49
0.0
 49
0.0
 49
0.0
 49
0.0
 49
1.0
 49
0.0
 49
0.0
 49
0.0
 49
0.0
 49
1.0
175
     0
176
     2
142
0.0208333333333333
142
0.0
142
0.0
142
0.0
142
0.0
142
0.0208333333333333
142
0.0
142
0.0
142
0.0
142
0.0
142
1.0
142
0.0
142
0.0
142
0.0
142
0.0
142
1.0
179
     0
270
     2
144
0.0208333333333333
144
0.0
144
0.0
144
0.0
144
0.0
144
0.0208333333333333
144
0.0
144
0.0
144
0.0
144
0.0
144
1.0
144
0.0
144
0.0
144
0.0
144
0.0
144
1.0
274
     2
147
0.0208333333333333
147
0.0
147
0.0
147
0.0
147
0.0
147
0.0208333333333333
147
0.0
147
0.0
147
0.0
147
0.0
147
1.0
147
0.0
147
0.0
147
0.0
147
0.0
147
1.0
  0
MLEADERSTYLE
  5
66
102
{ACAD_REACTORS
330
65
102
}
102
{ACAD_XDICTIONARY
360
448
102
}
330
65
100
AcDbMLeaderStyle
170
     2
171
     1
172
     0
 90
        2
 40
0.0
 41
0.0
173
     1
 91
-1056964608
340
5A
 92
       -2
290
     1
 42
0.09
291
     1
 43
0.36
  3
Standard
341
0
 44
0.18
300

342
55
174
     1
178
     6
175
     1
176
     0
 93
-1056964608
 45
0.18
292
     0
297
     0
 46
0.18
343
0
 94
-1056964608
 47
1.0
 49
1.0
140
1.0
293
     1
141
0.0
294
     1
177
     0
142
1.0
295
     0
296
     0
143
0.125
1001
ACAD_MLEADERVER
1070
     2
  0
MLINESTYLE
  5
5F
102
{ACAD_REACTORS
330
5E
102
}
330
5E
100
AcDbMlineStyle
  2
STANDARD
 70
     0
  3

 62
   256
 51
90.0
 52
90.0
 71
     2
 49
0.5
 62
   256
  6
BYLAYER
 49
-0.5
 62
   256
  6
BYLAYER
  0
ACDBPLACEHOLDER
  5
F
102
{ACAD_REACTORS
330
E
102
}
330
E
  0
SCALE
  5
43
102
{ACAD_REACTORS
330
42
102
}
330
42
100
AcDbScale
 70
     0
300
1:1
140
1.0
141
1.0
290
     1
  0
SCALE
  5
44
102
{ACAD_REACTORS
330
42
102
}
330
42
100
AcDbScale
 70
     0
300
1/128" = 1'-0"
140
0.0078125
141
12.0
290
     0
  0
SCALE
  5
45
102
{ACAD_REACTORS
330
42
102
}
330
42
100
AcDbScale
 70
     0
300
1/64" = 1'-0"
140
0.015625
141
12.0
290
     0
  0
SCALE
  5
46
102
{ACAD_REACTORS
330
42
102
}
330
42
100
AcDbScale
 70
     0
300
1/32" = 1'-0"
140
0.03125
141
12.0
290
     0
  0
SCALE
  5
47
102
{ACAD_REACTORS
330
42
102
}
330
42
100
AcDbScale
 70
     0
300
1/16" = 1'-0"
140
0.0625
141
12.0
290
     0
  0
SCALE
  5
48
102
{ACAD_REACTORS
330
42
102
}
330
42
100
AcDbScale
 70
     0
300
3/32" = 1'-0"
140
0.09375
141
12.0
290
     0
  0
SCALE
  5
49
102
{ACAD_REACTORS
330
42
102
}
330
42
100
AcDbScale
 70
     0
300
1/8" = 1'-0"
140
0.125
141
12.0
290
     0
  0
SCALE
  5
4A
102
{ACAD_REACTORS
330
42
102
}
330
42
100
AcDbScale
 70
     0
300
3/16" = 1'-0"
140
0.1875
141
12.0
290
     0
  0
SCALE
  5
4B
102
{ACAD_REACTORS
330
42
102
}
330
42
100
AcDbScale
 70
     0
300
1/4" = 1'-0"
140
0.25
141
12.0
290
     0
  0
SCALE
  5
4C
102
{ACAD_REACTORS
330
42
102
}
330
42
100
AcDbScale
 70
     0
300
3/8" = 1'-0"
140
0.375
141
12.0
290
     0
  0
SCALE
  5
4D
102
{ACAD_REACTORS
330
42
102
}
330
42
100
AcDbScale
 70
     0
300
1/2" = 1'-0"
140
0.5
141
12.0
290
     0
  0
SCALE
  5
4E
102
{ACAD_REACTORS
330
42
102
}
330
42
100
AcDbScale
 70
     0
300
3/4" = 1'-0"
140
0.75
141
12.0
290
     0
  0
SCALE
  5
4F
102
{ACAD_REACTORS
330
42
102
}
330
42
100
AcDbScale
 70
     0
300
1" = 1'-0"
140
1.0
141
12.0
290
     0
  0
SCALE
  5
50
102
{ACAD_REACTORS
330
42
102
}
330
42
100
AcDbScale
 70
     0
300
1-1/2" = 1'-0"
140
1.5
141
12.0
290
     0
  0
SCALE
  5
51
102
{ACAD_REACTORS
330
42
102
}
330
42
100
AcDbScale
 70
     0
300
3" = 1'-0"
140
3.0
141
12.0
290
     0
  0
SCALE
  5
52
102
{ACAD_REACTORS
330
42
102
}
330
42
100
AcDbScale
 70
     0
300
6" = 1'-0"
140
6.0
141
12.0
290
     0
  0
SCALE
  5
53
102
{ACAD_REACTORS
330
42
102
}
330
42
100
AcDbScale
 70
     0
300
1'-0" = 1'-0"
140
12.0
141
12.0
290
     0
  0
ACDBSECTIONVIEWSTYLE
  5
68
102
{ACAD_REACTORS
330
67
102
}
102
{ACAD_XDICTIONARY
360
426
102
}
330
67
100
AcDbModelDocViewStyle
 70
     0
  3
Imperial24
290
     0
100
AcDbSectionViewStyle
 70
     0
 71
     0
 90
       78
 71
     1
340
55
 40
0.24
340
0
340
0
 40
0.24
300
I, O, Q, S, X, Z
 40
0.48
 90
        3
 40
0.18
 90
        1
 71
     2
340
5C
 90
       25
340
5C
 90
       50
 40
0.24
 40
0.0
 40
0.24
 71
     3
340
55
 40
0.24
 90
        1
 40
0.75
 90
        1
300
%<\AcVar ViewType \f "%tc1">% %<\AcVar ViewSectionStartId>%-%<\AcVar ViewSectionEndId>%\PSCALE %<\AcVar ViewScale \f "%sn">%
 71
     4
300
ANSI31
 40
1.0
 90
        0
290
     0
290
     0
 90
        6
 40
0.0
 40
1.570796326794897
 40
0.2617993877991494
 40
1.308996938995747
 40
-0.2617993877991494
 40
1.832595714594046
  0
TABLESTYLE
  5
64
102
{ACAD_REACTORS
330
63
102
}
330
63
100
AcDbTableStyle
  3
Standard
 70
     0
 71
     0
 40
0.06
 41
0.06
280
     0
281
     0
  7
STANDARD
140
0.18
170
     2
 62
     0
 63
   257
283
     0
274
    -2
284
     1
 64
     0
275
    -2
285
     1
 65
     0
276
    -2
286
     1
 66
     0
277
    -2
287
     1
 67
     0
278
    -2
288
     1
 68
     0
279
    -2
289
     1
 69
     0
  7
STANDARD
140
0.25
170
     5
 62
     0
 63
   257
283
     0
274
    -2
284
     1
 64
     0
275
    -2
285
     1
 65
     0
276
    -2
286
     1
 66
     0
277
    -2
287
     1
 67
     0
278
    -2
288
     1
 68
     0
279
    -2
289
     1
 69
     0
  7
STANDARD
140
0.18
170
     5
 62
     0
 63
   257
283
     0
274
    -2
284
     1
 64
     0
275
    -2
285
     1
 65
     0
276
    -2
286
     1
 66
     0
277
    -2
287
     1
 67
     0
278
    -2
288
     1
 68
     0
279
    -2
289
     1
 69
     0
  0
VISUALSTYLE
  5
2F
102
{ACAD_REACTORS
330
29
102
}
102
{ACAD_XDICTIONARY
360
44B
102
}
330
29
100
AcDbVisualStyle
  2
2dWireframe
 70
     4
 71
     0
 72
     2
 73
     0
 90
        0
 40
-0.6
 41
-30.0
 62
     5
 63
     7
 74
     1
 91
        4
 64
     7
 65
   257
 75
     1
175
     1
 42
1.0
 92
        0
 66
   257
 43
1.0
 76
     1
 77
     6
 78
     2
 67
     7
 79
     5
170
     0
171
     0
290
     0
174
     0
 93
        1
 44
0.0
173
     0
291
     0
 45
0.0
1001
ACAD
1000
AcDbSavedByObjectVersion
1070
     0
  0
VISUALSTYLE
  5
2E
102
{ACAD_REACTORS
330
29
102
}
102
{ACAD_XDICTIONARY
360
44D
102
}
330
29
100
AcDbVisualStyle
  2
Basic
 70
     7
 71
     1
 72
     0
 73
     1
 90
        0
 40
-0.6
 41
-30.0
 62
     5
 63
     7
 74
     0
 91
        4
 64
     7
 65
   257
 75
     1
175
     1
 42
1.0
 92
        8
 66
     7
 43
1.0
 76
     1
 77
     6
 78
     2
 67
     7
 79
     5
170
     0
171
     0
290
     0
174
     0
 93
        1
 44
0.0
173
     0
291
     1
 45
0.0
1001
ACAD
1000
AcDbSavedByObjectVersion
1070
     0
  0
VISUALSTYLE
  5
35
102
{ACAD_REACTORS
330
29
102
}
102
{ACAD_XDICTIONARY
360
44F
102
}
330
29
100
AcDbVisualStyle
  2
Brighten
 70
    12
 71
     2
 72
     2
 73
     0
 90
        0
 40
-0.6
 41
-30.0
 62
     5
 63
     7
 74
     1
 91
        4
 64
     7
 65
   257
 75
     1
175
     1
 42
1.0
 92
        8
 66
     7
 43
1.0
 76
     1
 77
     6
 78
     2
 67
     7
 79
     5
170
     0
171
     0
290
     0
174
     0
 93
        1
 44
50.0
173
     0
291
     1
 45
0.0
1001
ACAD
1000
AcDbSavedByObjectVersion
1070
     0
  0
VISUALSTYLE
  5
39
102
{ACAD_REACTORS
330
29
102
}
102
{ACAD_XDICTIONARY
360
451
102
}
330
29
100
AcDbVisualStyle
  2
ColorChange
 70
    16
 71
     2
 72
     2
 73
     3
 90
        0
 40
-0.6
 41
-30.0
 62
     5
 63
     8
 74
     1
 91
        4
 64
     7
 65
   257
 75
     1
175
     1
 42
1.0
 92
        8
 66
     8
 43
1.0
 76
     1
 77
     6
 78
     2
 67
     7
 79
     5
170
     0
171
     0
290
     0
174
     0
 93
        1
 44
0.0
173
     0
291
     1
 45
0.0
1001
ACAD
1000
AcDbSavedByObjectVersion
1070
     0
  0
VISUALSTYLE
  5
32
102
{ACAD_REACTORS
330
29
102
}
102
{ACAD_XDICTIONARY
360
453
102
}
330
29
100
AcDbVisualStyle
  2
Conceptual
 70
     9
 71
     3
 72
     2
 73
     0
 90
        0
 40
-0.6
 41
-30.0
 62
     5
 63
     7
 74
     2
 91
        2
 64
     7
 65
   257
 75
     1
175
     1
 42
179.0
 92
        8
 66
     7
 43
1.0
 76
     1
 77
     6
 78
     2
 67
     7
 79
     3
170
     0
171
     0
290
     0
174
     0
 93
        1
 44
0.0
173
     0
291
     0
 45
0.0
1001
ACAD
1000
AcDbSavedByObjectVersion
1070
     0
  0
VISUALSTYLE
  5
34
102
{ACAD_REACTORS
330
29
102
}
102
{ACAD_XDICTIONARY
360
455
102
}
330
29
100
AcDbVisualStyle
  2
Dim
 70
    11
 71
     2
 72
     2
 73
     0
 90
        0
 40
-0.6
 41
-30.0
 62
     5
 63
     7
 74
     1
 91
        4
 64
     7
 65
   257
 75
     1
175
     1
 42
1.0
 92
        8
 66
     7
 43
1.0
 76
     1
 77
     6
 78
     2
 67
     7
 79
     5
170
     0
171
     0
290
     0
174
     0
 93
        1
 44
-50.0
173
     0
291
     1
 45
0.0
1001
ACAD
1000
AcDbSavedByObjectVersion
1070
     0
  0
VISUALSTYLE
  5
41
102
{ACAD_REACTORS
330
29
102
}
102
{ACAD_XDICTIONARY
360
457
102
}
330
29
100
AcDbVisualStyle
  2
EdgeColorOff
 70
    22
 71
     2
 72
     2
 73
     0
 90
        0
 40
-0.6
 41
-30.0
 62
     5
 63
     7
 74
     1
 91
        4
 64
     7
 65
   257
 75
     1
175
     1
 42
1.0
 92
        8
 66
     7
 43
1.0
 76
     1
 77
     6
 78
     2
 67
     7
 79
     5
170
     0
171
     0
290
     0
174
     0
 93
        1
 44
0.0
173
     0
291
     1
 45
0.0
1001
ACAD
1000
AcDbSavedByObjectVersion
1070
     0
  0
VISUALSTYLE
  5
38
102
{ACAD_REACTORS
330
29
102
}
102
{ACAD_XDICTIONARY
360
459
102
}
330
29
100
AcDbVisualStyle
  2
Facepattern
 70
    15
 71
     2
 72
     2
 73
     0
 90
        0
 40
-0.6
 41
-30.0
 62
     5
 63
     7
 74
     1
 91
        4
 64
     7
 65
   257
 75
     1
175
     1
 42
1.0
 92
        8
 66
     7
 43
1.0
 76
     1
 77
     6
 78
     2
 67
     7
 79
     5
170
     0
171
     0
290
     0
174
     0
 93
        1
 44
0.0
173
     0
291
     1
 45
0.0
1001
ACAD
1000
AcDbSavedByObjectVersion
1070
     0
  0
VISUALSTYLE
  5
2A
102
{ACAD_REACTORS
330
29
102
}
102
{ACAD_XDICTIONARY
360
45B
102
}
330
29
100
AcDbVisualStyle
  2
Flat
 70
     0
 71
     2
 72
     1
 73
     1
 90
        2
 40
-0.6
 41
30.0
 62
     5
 63
     7
 74
     0
 91
        0
 64
     7
 65
   257
 75
     1
175
     1
 42
1.0
 92
        8
 66
     7
 43
1.0
 76
     1
 77
     6
 78
     2
 67
     7
 79
     5
170
     0
171
     0
290
     0
174
     0
 93
       13
 44
0.0
173
     0
291
     1
 45
0.0
1001
ACAD
1000
AcDbSavedByObjectVersion
1070
     0
  0
VISUALSTYLE
  5
2B
102
{ACAD_REACTORS
330
29
102
}
102
{ACAD_XDICTIONARY
360
45D
102
}
330
29
100
AcDbVisualStyle
  2
FlatWithEdges
 70
     1
 71
     2
 72
     1
 73
     1
 90
        2
 40
-0.6
 41
30.0
 62
     5
 63
     7
 74
     1
 91
        0
 64
     7
 65
   257
 75
     1
175
     1
 42
1.0
 92
        0
 66
   257
 43
1.0
 76
     1
 77
     6
 78
     2
 67
     7
 79
     5
170
     0
171
     0
290
     0
174
     0
 93
       13
 44
0.0
173
     0
291
     1
 45
0.0
1001
ACAD
1000
AcDbSavedByObjectVersion
1070
     0
  0
VISUALSTYLE
  5
2C
102
{ACAD_REACTORS
330
29
102
}
102
{ACAD_XDICTIONARY
360
45F
102
}
330
29
100
AcDbVisualStyle
  2
Gouraud
 70
     2
 71
     2
 72
     2
 73
     1
 90
        2
 40
-0.6
 41
30.0
 62
     5
 63
     7
 74
     0
 91
        0
 64
     7
 65
   257
 75
     1
175
     1
 42
1.0
 92
        0
 66
     7
 43
1.0
 76
     1
 77
     6
 78
     2
 67
     7
 79
     5
170
     0
171
     0
290
     0
174
     0
 93
       13
 44
0.0
173
     0
291
     1
 45
0.0
1001
ACAD
1000
AcDbSavedByObjectVersion
1070
     0
  0
VISUALSTYLE
  5
2D
102
{ACAD_REACTORS
330
29
102
}
102
{ACAD_XDICTIONARY
360
461
102
}
330
29
100
AcDbVisualStyle
  2
GouraudWithEdges
 70
     3
 71
     2
 72
     2
 73
     1
 90
        2
 40
-0.6
 41
30.0
 62
     5
 63
     7
 74
     1
 91
        0
 64
     7
 65
   257
 75
     1
175
     1
 42
1.0
 92
        0
 66
   257
 43
1.0
 76
     1
 77
     6
 78
     2
 67
     7
 79
     5
170
     0
171
     0
290
     0
174
     0
 93
       13
 44
0.0
173
     0
291
     1
 45
0.0
1001
ACAD
1000
AcDbSavedByObjectVersion
1070
     0
  0
VISUALSTYLE
  5
31
102
{ACAD_REACTORS
330
29
102
}
102
{ACAD_XDICTIONARY
360
463
102
}
330
29
100
AcDbVisualStyle
  2
Hidden
 70
     6
 71
     1
 72
     2
 73
     2
 90
        0
 40
-0.6
 41
-30.0
 62
     5
 63
     7
 74
     2
 91
        2
 64
     7
 65
   257
 75
     2
175
     1
 42
40.0
 92
        0
 66
   257
 43
1.0
 76
     1
 77
     6
 78
     2
 67
     7
 79
     3
170
     0
171
     0
290
     0
174
     0
 93
        1
 44
0.0
173
     0
291
     0
 45
0.0
1001
ACAD
1000
AcDbSavedByObjectVersion
1070
     0
  0
VISUALSTYLE
  5
3F
102
{ACAD_REACTORS
330
29
102
}
102
{ACAD_XDICTIONARY
360
465
102
}
330
29
100
AcDbVisualStyle
  2
JitterOff
 70
    20
 71
     2
 72
     2
 73
     0
 90
        0
 40
-0.6
 41
-30.0
 62
     5
 63
     7
 74
     1
 91
        4
 64
     7
 65
   257
 75
     1
175
     1
 42
1.0
 92
       10
 66
     7
 43
1.0
 76
     1
 77
     6
 78
     2
 67
     7
 79
     5
170
     0
171
     0
290
     0
174
     0
 93
        1
 44
0.0
173
     0
291
     1
 45
0.0
1001
ACAD
1000
AcDbSavedByObjectVersion
1070
     0
  0
VISUALSTYLE
  5
37
102
{ACAD_REACTORS
330
29
102
}
102
{ACAD_XDICTIONARY
360
467
102
}
330
29
100
AcDbVisualStyle
  2
Linepattern
 70
    14
 71
     2
 72
     2
 73
     0
 90
        0
 40
-0.6
 41
-30.0
 62
     5
 63
     7
 74
     1
 91
        4
 64
     7
 65
   257
 75
     7
175
     7
 42
1.0
 92
        8
 66
     7
 43
1.0
 76
     1
 77
     6
 78
     2
 67
     7
 79
     5
170
     0
171
     0
290
     0
174
     0
 93
        1
 44
0.0
173
     0
291
     1
 45
0.0
1001
ACAD
1000
AcDbSavedByObjectVersion
1070
     0
  0
VISUALSTYLE
  5
40
102
{ACAD_REACTORS
330
29
102
}
102
{ACAD_XDICTIONARY
360
469
102
}
330
29
100
AcDbVisualStyle
  2
OverhangOff
 70
    21
 71
     2
 72
     2
 73
     0
 90
        0
 40
-0.6
 41
-30.0
 62
     5
 63
     7
 74
     1
 91
        4
 64
     7
 65
   257
 75
     1
175
     1
 42
1.0
 92
        9
 66
     7
 43
1.0
 76
     1
 77
     6
 78
     2
 67
     7
 79
     5
170
     0
171
     0
290
     0
174
     0
 93
        1
 44
0.0
173
     0
291
     1
 45
0.0
1001
ACAD
1000
AcDbSavedByObjectVersion
1070
     0
  0
VISUALSTYLE
  5
33
102
{ACAD_REACTORS
330
29
102
}
102
{ACAD_XDICTIONARY
360
46B
102
}
330
29
100
AcDbVisualStyle
  2
Realistic
 70
     8
 71
     2
 72
     2
 73
     0
 90
        2
 40
-0.6
 41
30.0
 62
     5
 63
     7
 74
     0
 91
        0
 64
     7
 65
   257
 75
     1
175
     1
 42
1.0
 92
        8
 66
   257
 43
1.0
 76
     1
 77
     6
 78
     2
 67
     7
 79
     3
170
     0
171
     0
290
     0
174
     0
 93
       13
 44
0.0
173
     0
291
     0
 45
0.0
1001
ACAD
1000
AcDbSavedByObjectVersion
1070
     0
  0
VISUALSTYLE
  5
3E
102
{ACAD_REACTORS
330
29
102
}
102
{ACAD_XDICTIONARY
360
46D
102
}
330
29
100
AcDbVisualStyle
  2
Shaded
 70
    27
 71
     2
 72
     2
 73
     1
 90
        2
 40
-0.6
 41
30.0
 62
     5
 63
     7
 74
     0
 91
        4
 64
     7
 65
   257
 75
     1
175
     1
 42
1.0
 92
        8
 66
   257
 43
1.0
 76
     1
 77
     6
 78
     2
 67
     8
 79
     3
170
     0
171
     0
290
     0
174
     0
 93
        5
 44
0.0
173
     0
291
     0
 45
0.0
1001
ACAD
1000
AcDbSavedByObjectVersion
1070
     0
  0
VISUALSTYLE
  5
3D
102
{ACAD_REACTORS
330
29
102
}
102
{ACAD_XDICTIONARY
360
46F
102
}
330
29
100
AcDbVisualStyle
  2
Shaded with edges
 70
    26
 71
     2
 72
     2
 73
     1
 90
        2
 40
-0.6
 41
30.0
 62
     5
 63
     7
 74
     1
 91
        2
 64
     7
 65
   257
 75
     2
175
     1
 42
1.0
 92
        8
 66
   257
 43
1.0
 76
     1
 77
     6
 78
     2
 67
     7
 79
     3
170
     0
171
     0
290
     0
174
     0
 93
        5
 44
0.0
173
     0
291
     0
 45
0.0
1001
ACAD
1000
AcDbSavedByObjectVersion
1070
     0
  0
VISUALSTYLE
  5
3A
102
{ACAD_REACTORS
330
29
102
}
102
{ACAD_XDICTIONARY
360
471
102
}
330
29
100
AcDbVisualStyle
  2
Shades of Gray
 70
    23
 71
     2
 72
     2
 73
     3
 90
        0
 40
-0.6
 41
-30.0
 62
     5
 63
     7
 74
     2
 91
        2
 64
     7
 65
     7
 75
     1
175
     1
 42
40.0
 92
        8
 66
     7
 43
1.0
 76
     1
 77
     6
 78
     2
 67
     7
 79
     3
170
     0
171
     0
290
     0
174
     0
 93
        1
 44
0.0
173
     0
291
     0
 45
0.0
1001
ACAD
1000
AcDbSavedByObjectVersion
1070
     0
  0
VISUALSTYLE
  5
3B
102
{ACAD_REACTORS
330
29
102
}
102
{ACAD_XDICTIONARY
360
473
102
}
330
29
100
AcDbVisualStyle
  2
Sketchy
 70
    24
 71
     1
 72
     2
 73
     2
 90
        0
 40
-0.6
 41
-30.0
 62
     5
 63
     7
 74
     2
 91
        2
 64
     7
 65
     7
 75
     1
175
     1
 42
40.0
 92
       11
 66
     7
 43
1.0
 76
     1
 77
     6
 78
     2
 67
     7
 79
     6
170
     0
171
     0
290
     0
174
     0
 93
        1
 44
0.0
173
     0
291
     0
 45
0.0
1001
ACAD
1000
AcDbSavedByObjectVersion
1070
     0
  0
VISUALSTYLE
  5
36
102
{ACAD_REACTORS
330
29
102
}
102
{ACAD_XDICTIONARY
360
475
102
}
330
29
100
AcDbVisualStyle
  2
Thicken
 70
    13
 71
     2
 72
     2
 73
     0
 90
        0
 40
-0.6
 41
-30.0
 62
     5
 63
     7
 74
     1
 91
        4
 64
     7
 65
   257
 75
     1
175
     1
 42
1.0
 92
       12
 66
     7
 43
1.0
 76
     1
 77
     6
 78
     2
 67
     7
 79
     5
170
     0
171
     0
290
     0
174
     0
 93
        1
 44
0.0
173
     0
291
     1
 45
0.0
1001
ACAD
1000
AcDbSavedByObjectVersion
1070
     0
  0
VISUALSTYLE
  5
30
102
{ACAD_REACTORS
330
29
102
}
102
{ACAD_XDICTIONARY
360
477
102
}
330
29
100
AcDbVisualStyle
  2
Wireframe
 70
     5
 71
     0
 72
     2
 73
     0
 90
        0
 40
-0.6
 41
-30.0
 62
     5
 63
     7
 74
     1
 91
        4
 64
     7
 65
   257
 75
     1
175
     1
 42
1.0
 92
        0
 66
   257
 43
1.0
 76
     1
 77
     6
 78
     2
 67
     7
 79
     3
170
     0
171
     0
290
     0
174
     0
 93
        1
 44
0.0
173
     0
291
     0
 45
0.0
1001
ACAD
1000
AcDbSavedByObjectVersion
1070
     0
  0
VISUALSTYLE
  5
3C
102
{ACAD_REACTORS
330
29
102
}
102
{ACAD_XDICTIONARY
360
479
102
}
330
29
100
AcDbVisualStyle
  2
X-Ray
 70
    25
 71
     2
 72
     2
 73
     1
 90
        1
 40
0.5
 41
-30.0
 62
     5
 63
     7
 74
     1
 91
        0
 64
     7
 65
   257
 75
     1
175
     1
 42
1.0
 92
        8
 66
     7
 43
1.0
 76
     1
 77
     6
 78
     2
 67
     7
 79
     3
170
     0
171
     0
290
     0
174
     0
 93
       13
 44
0.0
173
     0
291
     0
 45
0.0
1001
ACAD
1000
AcDbSavedByObjectVersion
1070
     0
  0
XRECORD
  5
43B
102
{ACAD_REACTORS
330
43A
102
}
330
43A
100
AcDbXrecord
280
     1
340
62
  0
XRECORD
  5
43C
102
{ACAD_REACTORS
330
43A
102
}
330
43A
100
AcDbXrecord
280
     1
340
10
  0
DICTIONARYVAR
  5
440
102
{ACAD_REACTORS
330
42E
102
}
330
42E
100
DictionaryVariables
280
     0
  1
1:1
  0
DICTIONARYVAR
  5
430
102
{ACAD_REACTORS
330
42E
102
}
330
42E
100
DictionaryVariables
280
     0
  1
Standard
  0
DICTIONARYVAR
  5
42F
102
{ACAD_REACTORS
330
42E
102
}
330
42E
100
DictionaryVariables
280
     0
  1
Standard
  0
DICTIONARYVAR
  5
431
102
{ACAD_REACTORS
330
42E
102
}
330
42E
100
DictionaryVariables
280
     0
  1
Imperial24
  0
DICTIONARYVAR
  5
432
102
{ACAD_REACTORS
330
42E
102
}
330
42E
100
DictionaryVariables
280
     0
  1
Imperial24
  0
DICTIONARYVAR
  5
436
102
{ACAD_REACTORS
330
42E
102
}
330
42E
100
DictionaryVariables
280
     0
  1
1
  0
DICTIONARYVAR
  5
439
102
{ACAD_REACTORS
330
42E
102
}
330
42E
100
DictionaryVariables
280
     0
  1
1
  0
DICTIONARYVAR
  5
435
102
{ACAD_REACTORS
330
42E
102
}
330
42E
100
DictionaryVariables
280
     0
  1
0
  0
DICTIONARYVAR
  5
438
102
{ACAD_REACTORS
330
42E
102
}
330
42E
100
DictionaryVariables
280
     0
  1
0
  0
DICTIONARYVAR
  5
434
102
{ACAD_REACTORS
330
42E
102
}
330
42E
100
DictionaryVariables
280
     0
  1
127
  0
DICTIONARYVAR
  5
437
102
{ACAD_REACTORS
330
42E
102
}
330
42E
100
DictionaryVariables
280
     0
  1
2
  0
DICTIONARY
  5
428
330
6A
100
AcDbDictionary
280
     1
281
     1
  3
ACAD_XREC_ROUNDTRIP
360
441
  0
DICTIONARY
  5
442
330
19
100
AcDbDictionary
280
     1
281
     1
  3
ACAD_XREC_ROUNDTRIP
360
443
  0
DICTIONARY
  5
444
330
11
100
AcDbDictionary
280
     1
281
     1
  3
ACAD_XREC_ROUNDTRIP
360
445
  0
DICTIONARY
  5
446
330
21
100
AcDbDictionary
280
     1
281
     1
  3
ACAD_XREC_ROUNDTRIP
360
447
  0
DICTIONARY
  5
448
330
66
100
AcDbDictionary
280
     1
281
     1
  3
ACAD_XREC_ROUNDTRIP
360
449
  0
DICTIONARY
  5
426
330
68
100
AcDbDictionary
280
     1
281
     1
  3
ACAD_XREC_ROUNDTRIP
360
44A
  0
DICTIONARY
  5
44B
330
2F
100
AcDbDictionary
280
     1
281
     1
  3
ACAD_XREC_ROUNDTRIP
360
44C
  0
DICTIONARY
  5
44D
330
2E
100
AcDbDictionary
280
     1
281
     1
  3
ACAD_XREC_ROUNDTRIP
360
44E
  0
DICTIONARY
  5
44F
330
35
100
AcDbDictionary
280
     1
281
     1
  3
ACAD_XREC_ROUNDTRIP
360
450
  0
DICTIONARY
  5
451
330
39
100
AcDbDictionary
280
     1
281
     1
  3
ACAD_XREC_ROUNDTRIP
360
452
  0
DICTIONARY
  5
453
330
32
100
AcDbDictionary
280
     1
281
     1
  3
ACAD_XREC_ROUNDTRIP
360
454
  0
DICTIONARY
  5
455
330
34
100
AcDbDictionary
280
     1
281
     1
  3
ACAD_XREC_ROUNDTRIP
360
456
  0
DICTIONARY
  5
457
330
41
100
AcDbDictionary
280
     1
281
     1
  3
ACAD_XREC_ROUNDTRIP
360
458
  0
DICTIONARY
  5
459
330
38
100
AcDbDictionary
280
     1
281
     1
  3
ACAD_XREC_ROUNDTRIP
360
45A
  0
DICTIONARY
  5
45B
330
2A
100
AcDbDictionary
280
     1
281
     1
  3
ACAD_XREC_ROUNDTRIP
360
45C
  0
DICTIONARY
  5
45D
330
2B
100
AcDbDictionary
280
     1
281
     1
  3
ACAD_XREC_ROUNDTRIP
360
45E
  0
DICTIONARY
  5
45F
330
2C
100
AcDbDictionary
280
     1
281
     1
  3
ACAD_XREC_ROUNDTRIP
360
460
  0
DICTIONARY
  5
461
330
2D
100
AcDbDictionary
280
     1
281
     1
  3
ACAD_XREC_ROUNDTRIP
360
462
  0
DICTIONARY
  5
463
330
31
100
AcDbDictionary
280
     1
281
     1
  3
ACAD_XREC_ROUNDTRIP
360
464
  0
DICTIONARY
  5
465
330
3F
100
AcDbDictionary
280
     1
281
     1
  3
ACAD_XREC_ROUNDTRIP
360
466
  0
DICTIONARY
  5
467
330
37
100
AcDbDictionary
280
     1
281
     1
  3
ACAD_XREC_ROUNDTRIP
360
468
  0
DICTIONARY
  5
469
330
40
100
AcDbDictionary
280
     1
281
     1
  3
ACAD_XREC_ROUNDTRIP
360
46A
  0
DICTIONARY
  5
46B
330
33
100
AcDbDictionary
280
     1
281
     1
  3
ACAD_XREC_ROUNDTRIP
360
46C
  0
DICTIONARY
  5
46D
330
3E
100
AcDbDictionary
280
     1
281
     1
  3
ACAD_XREC_ROUNDTRIP
360
46E
  0
DICTIONARY
  5
46F
330
3D
100
AcDbDictionary
280
     1
281
     1
  3
ACAD_XREC_ROUNDTRIP
360
470
  0
DICTIONARY
  5
471
330
3A
100
AcDbDictionary
280
     1
281
     1
  3
ACAD_XREC_ROUNDTRIP
360
472
  0
DICTIONARY
  5
473
330
3B
100
AcDbDictionary
280
     1
281
     1
  3
ACAD_XREC_ROUNDTRIP
360
474
  0
DICTIONARY
  5
475
330
36
100
AcDbDictionary
280
     1
281
     1
  3
ACAD_XREC_ROUNDTRIP
360
476
  0
DICTIONARY
  5
477
330
30
100
AcDbDictionary
280
     1
281
     1
  3
ACAD_XREC_ROUNDTRIP
360
478
  0
DICTIONARY
  5
479
330
3C
100
AcDbDictionary
280
     1
281
     1
  3
ACAD_XREC_ROUNDTRIP
360
47A
  0
XRECORD
  5
441
102
{ACAD_REACTORS
330
428
102
}
330
428
100
AcDbXrecord
280
     1
102
DISPLAYNAME
  1
Imperial24
102
FLAGS
 90
        0
  0
XRECORD
  5
443
102
{ACAD_REACTORS
330
442
102
}
330
442
100
AcDbXrecord
280
     1
102
MATERIAL
148
0.0
149
0.0
149
0.0
 93
        0
 94
      127
282
     0
 72
     0
 77
     0
171
     0
175
     0
179
     0
273
     0
  0
XRECORD
  5
445
102
{ACAD_REACTORS
330
444
102
}
330
444
100
AcDbXrecord
280
     1
102
MATERIAL
148
0.0
149
0.0
149
0.0
 93
        0
 94
      127
282
     0
 72
     0
 77
     0
171
     0
175
     0
179
     0
273
     0
  0
XRECORD
  5
447
102
{ACAD_REACTORS
330
446
102
}
330
446
100
AcDbXrecord
280
     1
102
MATERIAL
148
0.0
149
0.0
149
0.0
 93
        0
 94
      127
282
     0
 72
     0
 77
     0
171
     0
175
     0
179
     0
273
     0
  0
XRECORD
  5
449
102
{ACAD_REACTORS
330
448
102
}
330
448
100
AcDbXrecord
280
     1
102
ACAD_ROUNDTRIP_2010_MLEADER_STYLE
  0
XRECORD
  5
44A
102
{ACAD_REACTORS
330
426
102
}
330
426
100
AcDbXrecord
280
     1
102
DISPLAYNAME
  1
Imperial24
102
FLAGS
 90
        0
  0
XRECORD
  5
44C
102
{ACAD_REACTORS
330
44B
102
}
330
44B
100
AcDbXrecord
280
     1
102
RTVSPropertyOp0
 70
     1
102
RTVSPropertyOp1
 70
     1
102
RTVSPropertyOp2
 70
     1
102
RTVSPropertyOp3
 70
     1
102
RTVSPropertyOp4
 70
     1
102
RTVSPropertyOp5
 70
     1
102
RTVSPropertyOp6
 70
     1
102
RTVSPropertyOp7
 70
     1
102
RTVSPropertyOp8
 70
     1
102
RTVSPropertyOp9
 70
     1
102
RTVSPropertyOp10
 70
     1
102
RTVSPropertyOp11
 70
     1
102
RTVSPropertyOp12
 70
     1
102
RTVSPropertyOp13
 70
     1
102
RTVSPropertyOp14
 70
     1
102
RTVSPropertyOp15
 70
     1
102
RTVSPropertyOp16
 70
     1
102
RTVSPropertyOp17
 70
     1
102
RTVSPropertyOp18
 70
     1
102
RTVSPropertyOp19
 70
     1
102
RTVSPropertyOp20
 70
     1
102
RTVSPropertyOp21
 70
     1
102
RTVSPropertyOp22
 70
     1
102
RTVSPropertyOp23
 70
     1
102
RTVSPropertyOp24
 70
     1
102
RTVSPropertyOp25
 70
     1
102
RTVSPropertyOp26
 70
     1
102
RTVSPropertyOp27
 70
     1
102
RTVSPropertyOp28
 70
     1
102
RTVSPropertyOp29
 70
     1
102
RTVSPropertyOp30
 70
     1
102
RTVSPropertyOp31
 70
     1
102
RTVSPropertyOp32
 70
     1
102
RTVSPropertyOp33
 70
     1
102
RTVSPropertyOp34
 70
     1
102
RTVSPropertyOp35
 70
     1
102
RTVSPropertyOp36
 70
     1
102
RTVSPropertyOp37
 70
     1
102
RTVSPropertyOp38
 70
     1
102
RTVSPropertyOp39
 70
     1
102
RTVSPropertyOp40
 70
     1
102
RTVSPropertyOp41
 70
     1
102
RTVSPropertyOp42
 70
     1
102
RTVSPropertyOp43
 70
     1
102
RTVSPropertyOp44
 70
     1
102
RTVSPropertyOp45
 70
     1
102
RTVSPropertyOp46
 70
     1
102
RTVSPropertyOp47
 70
     1
102
RTVSPropertyOp48
 70
     1
102
RTVSPropertyOp49
 70
     1
102
RTVSPropertyOp50
 70
     1
102
RTVSPropertyOp51
 70
     0
102
RTVSPropertyOp52
 70
     0
102
RTVSPropertyOp53
 70
     1
102
RTVSPropertyOp54
 70
     1
102
RTVSPropertyOp55
 70
     1
102
RTVSPropertyOp56
 70
     1
102
RTVSPropertyOp57
 70
     1
102
RTVSPost2010Prop28
280
     1
102
RTVSPost2010PropOp28
 70
     1
102
RTVSPost2010Prop29
280
     1
102
RTVSPost2010PropOp29
 70
     1
102
RTVSPost2010Prop30
280
     0
102
RTVSPost2010PropOp30
 70
     1
102
RTVSPost2010Prop31
280
     0
102
RTVSPost2010PropOp31
 70
     1
102
RTVSPost2010Prop32
280
     0
102
RTVSPost2010PropOp32
 70
     1
102
RTVSPost2010Prop33
280
     0
102
RTVSPost2010PropOp33
 70
     1
102
RTVSPost2010Prop34
280
     0
102
RTVSPost2010PropOp34
 70
     1
102
RTVSPost2010Prop35
280
     0
102
RTVSPost2010PropOp35
 70
     1
102
RTVSPost2010Prop36
280
     0
102
RTVSPost2010PropOp36
 70
     1
102
RTVSPost2010Prop37
 90
       50
102
RTVSPost2010PropOp37
 70
     1
102
RTVSPost2010Prop38
140
0.0
102
RTVSPost2010PropOp38
 70
     1
102
RTVSPost2010Prop39
140
1.0
102
RTVSPost2010PropOp39
 70
     1
102
RTVSPost2010Prop40
 90
        0
102
RTVSPost2010PropOp40
 70
     1
102
RTVSPost2010Prop41ColorIndex
 90
       18
102
RTVSPost2010Prop41ColorRGB
 90
        0
102
RTVSPost2010PropOp41
 70
     1
102
RTVSPost2010Prop42
 90
       50
102
RTVSPost2010PropOp42
 70
     1
102
RTVSPost2010Prop43
 90
        3
102
RTVSPost2010PropOp43
 70
     1
102
RTVSPost2010Prop44ColorIndex
 90
        5
102
RTVSPost2010Prop44ColorRGB
 90
      255
102
RTVSPost2010PropOp44
 70
     1
102
RTVSPost2010Prop45
280
     0
102
RTVSPost2010PropOp45
 70
     1
102
RTVSPost2010Prop46
 90
       50
102
RTVSPost2010PropOp46
 70
     1
102
RTVSPost2010Prop47
 90
       50
102
RTVSPost2010PropOp47
 70
     1
102
RTVSPost2010Prop48
 90
       50
102
RTVSPost2010PropOp48
 70
     1
102
RTVSPost2010Prop49
280
     0
102
RTVSPost2010PropOp49
 70
     1
102
RTVSPost2010Prop50
 90
       50
102
RTVSPost2010PropOp50
 70
     1
102
RTVSPost2010Prop51ColorIndex
 90
      256
102
RTVSPost2010Prop51ColorRGB
 90
-16777216
102
RTVSPost2010PropOp51
 70
     0
102
RTVSPost2010Prop52
140
1.0
102
RTVSPost2010PropOp52
 70
     0
102
RTVSPost2010Prop53
 90
        2
102
RTVSPost2010PropOp53
 70
     1
102
RTVSPost2010Prop54
  1
strokes_ogs.tif
102
RTVSPost2010PropOp54
 70
     1
102
RTVSPost2010Prop55
280
     0
102
RTVSPost2010PropOp55
 70
     1
102
RTVSPost2010Prop56
140
1.0
102
RTVSPost2010PropOp56
 70
     1
102
RTVSPost2010Prop57
140
1.0
102
RTVSPost2010PropOp57
 70
     1
  0
XRECORD
  5
44E
102
{ACAD_REACTORS
330
44D
102
}
330
44D
100
AcDbXrecord
280
     1
102
RTVSPropertyOp0
 70
     1
102
RTVSPropertyOp1
 70
     1
102
RTVSPropertyOp2
 70
     1
102
RTVSPropertyOp3
 70
     1
102
RTVSPropertyOp4
 70
     1
102
RTVSPropertyOp5
 70
     1
102
RTVSPropertyOp6
 70
     1
102
RTVSPropertyOp7
 70
     1
102
RTVSPropertyOp8
 70
     1
102
RTVSPropertyOp9
 70
     1
102
RTVSPropertyOp10
 70
     1
102
RTVSPropertyOp11
 70
     1
102
RTVSPropertyOp12
 70
     1
102
RTVSPropertyOp13
 70
     1
102
RTVSPropertyOp14
 70
     1
102
RTVSPropertyOp15
 70
     1
102
RTVSPropertyOp16
 70
     1
102
RTVSPropertyOp17
 70
     1
102
RTVSPropertyOp18
 70
     1
102
RTVSPropertyOp19
 70
     1
102
RTVSPropertyOp20
 70
     1
102
RTVSPropertyOp21
 70
     1
102
RTVSPropertyOp22
 70
     1
102
RTVSPropertyOp23
 70
     1
102
RTVSPropertyOp24
 70
     1
102
RTVSPropertyOp25
 70
     1
102
RTVSPropertyOp26
 70
     1
102
RTVSPropertyOp27
 70
     1
102
RTVSPropertyOp28
 70
     1
102
RTVSPropertyOp29
 70
     1
102
RTVSPropertyOp30
 70
     1
102
RTVSPropertyOp31
 70
     1
102
RTVSPropertyOp32
 70
     1
102
RTVSPropertyOp33
 70
     1
102
RTVSPropertyOp34
 70
     1
102
RTVSPropertyOp35
 70
     1
102
RTVSPropertyOp36
 70
     1
102
RTVSPropertyOp37
 70
     1
102
RTVSPropertyOp38
 70
     1
102
RTVSPropertyOp39
 70
     1
102
RTVSPropertyOp40
 70
     1
102
RTVSPropertyOp41
 70
     1
102
RTVSPropertyOp42
 70
     1
102
RTVSPropertyOp43
 70
     1
102
RTVSPropertyOp44
 70
     1
102
RTVSPropertyOp45
 70
     1
102
RTVSPropertyOp46
 70
     1
102
RTVSPropertyOp47
 70
     1
102
RTVSPropertyOp48
 70
     1
102
RTVSPropertyOp49
 70
     1
102
RTVSPropertyOp50
 70
     1
102
RTVSPropertyOp51
 70
     0
102
RTVSPropertyOp52
 70
     0
102
RTVSPropertyOp53
 70
     1
102
RTVSPropertyOp54
 70
     1
102
RTVSPropertyOp55
 70
     1
102
RTVSPropertyOp56
 70
     1
102
RTVSPropertyOp57
 70
     1
102
RTVSPost2010Prop28
280
     0
102
RTVSPost2010PropOp28
 70
     1
102
RTVSPost2010Prop29
280
     1
102
RTVSPost2010PropOp29
 70
     1
102
RTVSPost2010Prop30
280
     1
102
RTVSPost2010PropOp30
 70
     1
102
RTVSPost2010Prop31
280
     0
102
RTVSPost2010PropOp31
 70
     1
102
RTVSPost2010Prop32
280
     0
102
RTVSPost2010PropOp32
 70
     1
102
RTVSPost2010Prop33
280
     0
102
RTVSPost2010PropOp33
 70
     1
102
RTVSPost2010Prop34
280
     0
102
RTVSPost2010PropOp34
 70
     1
102
RTVSPost2010Prop35
280
     0
102
RTVSPost2010PropOp35
 70
     1
102
RTVSPost2010Prop36
280
     0
102
RTVSPost2010PropOp36
 70
     1
102
RTVSPost2010Prop37
 90
       50
102
RTVSPost2010PropOp37
 70
     1
102
RTVSPost2010Prop38
140
0.0
102
RTVSPost2010PropOp38
 70
     1
102
RTVSPost2010Prop39
140
1.0
102
RTVSPost2010PropOp39
 70
     1
102
RTVSPost2010Prop40
 90
        0
102
RTVSPost2010PropOp40
 70
     1
102
RTVSPost2010Prop41ColorIndex
 90
       18
102
RTVSPost2010Prop41ColorRGB
 90
        0
102
RTVSPost2010PropOp41
 70
     1
102
RTVSPost2010Prop42
 90
       50
102
RTVSPost2010PropOp42
 70
     1
102
RTVSPost2010Prop43
 90
        3
102
RTVSPost2010PropOp43
 70
     1
102
RTVSPost2010Prop44ColorIndex
 90
        5
102
RTVSPost2010Prop44ColorRGB
 90
      255
102
RTVSPost2010PropOp44
 70
     1
102
RTVSPost2010Prop45
280
     0
102
RTVSPost2010PropOp45
 70
     1
102
RTVSPost2010Prop46
 90
       50
102
RTVSPost2010PropOp46
 70
     1
102
RTVSPost2010Prop47
 90
       50
102
RTVSPost2010PropOp47
 70
     1
102
RTVSPost2010Prop48
 90
       50
102
RTVSPost2010PropOp48
 70
     1
102
RTVSPost2010Prop49
280
     0
102
RTVSPost2010PropOp49
 70
     1
102
RTVSPost2010Prop50
 90
       50
102
RTVSPost2010PropOp50
 70
     1
102
RTVSPost2010Prop51ColorIndex
 90
      256
102
RTVSPost2010Prop51ColorRGB
 90
-16777216
102
RTVSPost2010PropOp51
 70
     0
102
RTVSPost2010Prop52
140
1.0
102
RTVSPost2010PropOp52
 70
     0
102
RTVSPost2010Prop53
 90
        2
102
RTVSPost2010PropOp53
 70
     1
102
RTVSPost2010Prop54
  1
strokes_ogs.tif
102
RTVSPost2010PropOp54
 70
     1
102
RTVSPost2010Prop55
280
     0
102
RTVSPost2010PropOp55
 70
     1
102
RTVSPost2010Prop56
140
1.0
102
RTVSPost2010PropOp56
 70
     1
102
RTVSPost2010Prop57
140
1.0
102
RTVSPost2010PropOp57
 70
     1
  0
XRECORD
  5
450
102
{ACAD_REACTORS
330
44F
102
}
330
44F
100
AcDbXrecord
280
     1
102
RTVSPropertyOp0
 70
     1
102
RTVSPropertyOp1
 70
     1
102
RTVSPropertyOp2
 70
     1
102
RTVSPropertyOp3
 70
     1
102
RTVSPropertyOp4
 70
     1
102
RTVSPropertyOp5
 70
     1
102
RTVSPropertyOp6
 70
     1
102
RTVSPropertyOp7
 70
     1
102
RTVSPropertyOp8
 70
     1
102
RTVSPropertyOp9
 70
     1
102
RTVSPropertyOp10
 70
     1
102
RTVSPropertyOp11
 70
     1
102
RTVSPropertyOp12
 70
     1
102
RTVSPropertyOp13
 70
     1
102
RTVSPropertyOp14
 70
     1
102
RTVSPropertyOp15
 70
     1
102
RTVSPropertyOp16
 70
     1
102
RTVSPropertyOp17
 70
     1
102
RTVSPropertyOp18
 70
     1
102
RTVSPropertyOp19
 70
     1
102
RTVSPropertyOp20
 70
     1
102
RTVSPropertyOp21
 70
     1
102
RTVSPropertyOp22
 70
     1
102
RTVSPropertyOp23
 70
     1
102
RTVSPropertyOp24
 70
     1
102
RTVSPropertyOp25
 70
     1
102
RTVSPropertyOp26
 70
     1
102
RTVSPropertyOp27
 70
     1
102
RTVSPropertyOp28
 70
     1
102
RTVSPropertyOp29
 70
     1
102
RTVSPropertyOp30
 70
     1
102
RTVSPropertyOp31
 70
     1
102
RTVSPropertyOp32
 70
     1
102
RTVSPropertyOp33
 70
     1
102
RTVSPropertyOp34
 70
     1
102
RTVSPropertyOp35
 70
     1
102
RTVSPropertyOp36
 70
     1
102
RTVSPropertyOp37
 70
     1
102
RTVSPropertyOp38
 70
     1
102
RTVSPropertyOp39
 70
     1
102
RTVSPropertyOp40
 70
     1
102
RTVSPropertyOp41
 70
     1
102
RTVSPropertyOp42
 70
     1
102
RTVSPropertyOp43
 70
     1
102
RTVSPropertyOp44
 70
     1
102
RTVSPropertyOp45
 70
     1
102
RTVSPropertyOp46
 70
     1
102
RTVSPropertyOp47
 70
     1
102
RTVSPropertyOp48
 70
     1
102
RTVSPropertyOp49
 70
     1
102
RTVSPropertyOp50
 70
     1
102
RTVSPropertyOp51
 70
     0
102
RTVSPropertyOp52
 70
     0
102
RTVSPropertyOp53
 70
     1
102
RTVSPropertyOp54
 70
     1
102
RTVSPropertyOp55
 70
     1
102
RTVSPropertyOp56
 70
     1
102
RTVSPropertyOp57
 70
     1
102
RTVSPost2010Prop28
280
     0
102
RTVSPost2010PropOp28
 70
     1
102
RTVSPost2010Prop29
280
     1
102
RTVSPost2010PropOp29
 70
     1
102
RTVSPost2010Prop30
280
     1
102
RTVSPost2010PropOp30
 70
     1
102
RTVSPost2010Prop31
280
     0
102
RTVSPost2010PropOp31
 70
     1
102
RTVSPost2010Prop32
280
     0
102
RTVSPost2010PropOp32
 70
     1
102
RTVSPost2010Prop33
280
     0
102
RTVSPost2010PropOp33
 70
     1
102
RTVSPost2010Prop34
280
     0
102
RTVSPost2010PropOp34
 70
     1
102
RTVSPost2010Prop35
280
     0
102
RTVSPost2010PropOp35
 70
     1
102
RTVSPost2010Prop36
280
     0
102
RTVSPost2010PropOp36
 70
     1
102
RTVSPost2010Prop37
 90
       50
102
RTVSPost2010PropOp37
 70
     1
102
RTVSPost2010Prop38
140
0.0
102
RTVSPost2010PropOp38
 70
     1
102
RTVSPost2010Prop39
140
1.0
102
RTVSPost2010PropOp39
 70
     1
102
RTVSPost2010Prop40
 90
        0
102
RTVSPost2010PropOp40
 70
     1
102
RTVSPost2010Prop41ColorIndex
 90
       18
102
RTVSPost2010Prop41ColorRGB
 90
        0
102
RTVSPost2010PropOp41
 70
     1
102
RTVSPost2010Prop42
 90
       50
102
RTVSPost2010PropOp42
 70
     1
102
RTVSPost2010Prop43
 90
        3
102
RTVSPost2010PropOp43
 70
     1
102
RTVSPost2010Prop44ColorIndex
 90
        5
102
RTVSPost2010Prop44ColorRGB
 90
      255
102
RTVSPost2010PropOp44
 70
     1
102
RTVSPost2010Prop45
280
     0
102
RTVSPost2010PropOp45
 70
     1
102
RTVSPost2010Prop46
 90
       50
102
RTVSPost2010PropOp46
 70
     1
102
RTVSPost2010Prop47
 90
       50
102
RTVSPost2010PropOp47
 70
     1
102
RTVSPost2010Prop48
 90
       50
102
RTVSPost2010PropOp48
 70
     1
102
RTVSPost2010Prop49
280
     0
102
RTVSPost2010PropOp49
 70
     1
102
RTVSPost2010Prop50
 90
       50
102
RTVSPost2010PropOp50
 70
     1
102
RTVSPost2010Prop51ColorIndex
 90
      256
102
RTVSPost2010Prop51ColorRGB
 90
-16777216
102
RTVSPost2010PropOp51
 70
     0
102
RTVSPost2010Prop52
140
1.0
102
RTVSPost2010PropOp52
 70
     0
102
RTVSPost2010Prop53
 90
        2
102
RTVSPost2010PropOp53
 70
     1
102
RTVSPost2010Prop54
  1
strokes_ogs.tif
102
RTVSPost2010PropOp54
 70
     1
102
RTVSPost2010Prop55
280
     0
102
RTVSPost2010PropOp55
 70
     1
102
RTVSPost2010Prop56
140
1.0
102
RTVSPost2010PropOp56
 70
     1
102
RTVSPost2010Prop57
140
1.0
102
RTVSPost2010PropOp57
 70
     1
  0
XRECORD
  5
452
102
{ACAD_REACTORS
330
451
102
}
330
451
100
AcDbXrecord
280
     1
102
RTVSPropertyOp0
 70
     1
102
RTVSPropertyOp1
 70
     1
102
RTVSPropertyOp2
 70
     1
102
RTVSPropertyOp3
 70
     1
102
RTVSPropertyOp4
 70
     1
102
RTVSPropertyOp5
 70
     1
102
RTVSPropertyOp6
 70
     1
102
RTVSPropertyOp7
 70
     1
102
RTVSPropertyOp8
 70
     1
102
RTVSPropertyOp9
 70
     1
102
RTVSPropertyOp10
 70
     1
102
RTVSPropertyOp11
 70
     1
102
RTVSPropertyOp12
 70
     1
102
RTVSPropertyOp13
 70
     1
102
RTVSPropertyOp14
 70
     1
102
RTVSPropertyOp15
 70
     1
102
RTVSPropertyOp16
 70
     1
102
RTVSPropertyOp17
 70
     1
102
RTVSPropertyOp18
 70
     1
102
RTVSPropertyOp19
 70
     1
102
RTVSPropertyOp20
 70
     1
102
RTVSPropertyOp21
 70
     1
102
RTVSPropertyOp22
 70
     1
102
RTVSPropertyOp23
 70
     1
102
RTVSPropertyOp24
 70
     1
102
RTVSPropertyOp25
 70
     1
102
RTVSPropertyOp26
 70
     1
102
RTVSPropertyOp27
 70
     1
102
RTVSPropertyOp28
 70
     1
102
RTVSPropertyOp29
 70
     1
102
RTVSPropertyOp30
 70
     1
102
RTVSPropertyOp31
 70
     1
102
RTVSPropertyOp32
 70
     1
102
RTVSPropertyOp33
 70
     1
102
RTVSPropertyOp34
 70
     1
102
RTVSPropertyOp35
 70
     1
102
RTVSPropertyOp36
 70
     1
102
RTVSPropertyOp37
 70
     1
102
RTVSPropertyOp38
 70
     1
102
RTVSPropertyOp39
 70
     1
102
RTVSPropertyOp40
 70
     1
102
RTVSPropertyOp41
 70
     1
102
RTVSPropertyOp42
 70
     1
102
RTVSPropertyOp43
 70
     1
102
RTVSPropertyOp44
 70
     1
102
RTVSPropertyOp45
 70
     1
102
RTVSPropertyOp46
 70
     1
102
RTVSPropertyOp47
 70
     1
102
RTVSPropertyOp48
 70
     1
102
RTVSPropertyOp49
 70
     1
102
RTVSPropertyOp50
 70
     1
102
RTVSPropertyOp51
 70
     0
102
RTVSPropertyOp52
 70
     0
102
RTVSPropertyOp53
 70
     1
102
RTVSPropertyOp54
 70
     1
102
RTVSPropertyOp55
 70
     1
102
RTVSPropertyOp56
 70
     1
102
RTVSPropertyOp57
 70
     1
102
RTVSPost2010Prop28
280
     0
102
RTVSPost2010PropOp28
 70
     1
102
RTVSPost2010Prop29
280
     1
102
RTVSPost2010PropOp29
 70
     1
102
RTVSPost2010Prop30
280
     1
102
RTVSPost2010PropOp30
 70
     1
102
RTVSPost2010Prop31
280
     0
102
RTVSPost2010PropOp31
 70
     1
102
RTVSPost2010Prop32
280
     0
102
RTVSPost2010PropOp32
 70
     1
102
RTVSPost2010Prop33
280
     0
102
RTVSPost2010PropOp33
 70
     1
102
RTVSPost2010Prop34
280
     0
102
RTVSPost2010PropOp34
 70
     1
102
RTVSPost2010Prop35
280
     0
102
RTVSPost2010PropOp35
 70
     1
102
RTVSPost2010Prop36
280
     0
102
RTVSPost2010PropOp36
 70
     1
102
RTVSPost2010Prop37
 90
       50
102
RTVSPost2010PropOp37
 70
     1
102
RTVSPost2010Prop38
140
0.0
102
RTVSPost2010PropOp38
 70
     1
102
RTVSPost2010Prop39
140
1.0
102
RTVSPost2010PropOp39
 70
     1
102
RTVSPost2010Prop40
 90
        0
102
RTVSPost2010PropOp40
 70
     1
102
RTVSPost2010Prop41ColorIndex
 90
       18
102
RTVSPost2010Prop41ColorRGB
 90
        0
102
RTVSPost2010PropOp41
 70
     1
102
RTVSPost2010Prop42
 90
       50
102
RTVSPost2010PropOp42
 70
     1
102
RTVSPost2010Prop43
 90
        3
102
RTVSPost2010PropOp43
 70
     1
102
RTVSPost2010Prop44ColorIndex
 90
        5
102
RTVSPost2010Prop44ColorRGB
 90
      255
102
RTVSPost2010PropOp44
 70
     1
102
RTVSPost2010Prop45
280
     0
102
RTVSPost2010PropOp45
 70
     1
102
RTVSPost2010Prop46
 90
       50
102
RTVSPost2010PropOp46
 70
     1
102
RTVSPost2010Prop47
 90
       50
102
RTVSPost2010PropOp47
 70
     1
102
RTVSPost2010Prop48
 90
       50
102
RTVSPost2010PropOp48
 70
     1
102
RTVSPost2010Prop49
280
     0
102
RTVSPost2010PropOp49
 70
     1
102
RTVSPost2010Prop50
 90
       50
102
RTVSPost2010PropOp50
 70
     1
102
RTVSPost2010Prop51ColorIndex
 90
      256
102
RTVSPost2010Prop51ColorRGB
 90
-16777216
102
RTVSPost2010PropOp51
 70
     0
102
RTVSPost2010Prop52
140
1.0
102
RTVSPost2010PropOp52
 70
     0
102
RTVSPost2010Prop53
 90
        2
102
RTVSPost2010PropOp53
 70
     1
102
RTVSPost2010Prop54
  1
strokes_ogs.tif
102
RTVSPost2010PropOp54
 70
     1
102
RTVSPost2010Prop55
280
     0
102
RTVSPost2010PropOp55
 70
     1
102
RTVSPost2010Prop56
140
1.0
102
RTVSPost2010PropOp56
 70
     1
102
RTVSPost2010Prop57
140
1.0
102
RTVSPost2010PropOp57
 70
     1
  0
XRECORD
  5
454
102
{ACAD_REACTORS
330
453
102
}
330
453
100
AcDbXrecord
280
     1
102
RTVSPropertyOp0
 70
     1
102
RTVSPropertyOp1
 70
     1
102
RTVSPropertyOp2
 70
     1
102
RTVSPropertyOp3
 70
     1
102
RTVSPropertyOp4
 70
     1
102
RTVSPropertyOp5
 70
     1
102
RTVSPropertyOp6
 70
     1
102
RTVSPropertyOp7
 70
     1
102
RTVSPropertyOp8
 70
     1
102
RTVSPropertyOp9
 70
     1
102
RTVSPropertyOp10
 70
     1
102
RTVSPropertyOp11
 70
     1
102
RTVSPropertyOp12
 70
     1
102
RTVSPropertyOp13
 70
     1
102
RTVSPropertyOp14
 70
     1
102
RTVSPropertyOp15
 70
     1
102
RTVSPropertyOp16
 70
     1
102
RTVSPropertyOp17
 70
     1
102
RTVSPropertyOp18
 70
     1
102
RTVSPropertyOp19
 70
     1
102
RTVSPropertyOp20
 70
     1
102
RTVSPropertyOp21
 70
     1
102
RTVSPropertyOp22
 70
     1
102
RTVSPropertyOp23
 70
     1
102
RTVSPropertyOp24
 70
     1
102
RTVSPropertyOp25
 70
     1
102
RTVSPropertyOp26
 70
     1
102
RTVSPropertyOp27
 70
     1
102
RTVSPropertyOp28
 70
     1
102
RTVSPropertyOp29
 70
     1
102
RTVSPropertyOp30
 70
     1
102
RTVSPropertyOp31
 70
     1
102
RTVSPropertyOp32
 70
     1
102
RTVSPropertyOp33
 70
     1
102
RTVSPropertyOp34
 70
     1
102
RTVSPropertyOp35
 70
     1
102
RTVSPropertyOp36
 70
     1
102
RTVSPropertyOp37
 70
     1
102
RTVSPropertyOp38
 70
     1
102
RTVSPropertyOp39
 70
     1
102
RTVSPropertyOp40
 70
     1
102
RTVSPropertyOp41
 70
     1
102
RTVSPropertyOp42
 70
     1
102
RTVSPropertyOp43
 70
     1
102
RTVSPropertyOp44
 70
     1
102
RTVSPropertyOp45
 70
     1
102
RTVSPropertyOp46
 70
     1
102
RTVSPropertyOp47
 70
     1
102
RTVSPropertyOp48
 70
     1
102
RTVSPropertyOp49
 70
     1
102
RTVSPropertyOp50
 70
     1
102
RTVSPropertyOp51
 70
     0
102
RTVSPropertyOp52
 70
     0
102
RTVSPropertyOp53
 70
     1
102
RTVSPropertyOp54
 70
     1
102
RTVSPropertyOp55
 70
     1
102
RTVSPropertyOp56
 70
     1
102
RTVSPropertyOp57
 70
     1
102
RTVSPost2010Prop28
280
     0
102
RTVSPost2010PropOp28
 70
     1
102
RTVSPost2010Prop29
280
     1
102
RTVSPost2010PropOp29
 70
     1
102
RTVSPost2010Prop30
280
     1
102
RTVSPost2010PropOp30
 70
     1
102
RTVSPost2010Prop31
280
     0
102
RTVSPost2010PropOp31
 70
     1
102
RTVSPost2010Prop32
280
     0
102
RTVSPost2010PropOp32
 70
     1
102
RTVSPost2010Prop33
280
     0
102
RTVSPost2010PropOp33
 70
     1
102
RTVSPost2010Prop34
280
     0
102
RTVSPost2010PropOp34
 70
     1
102
RTVSPost2010Prop35
280
     0
102
RTVSPost2010PropOp35
 70
     1
102
RTVSPost2010Prop36
280
     0
102
RTVSPost2010PropOp36
 70
     1
102
RTVSPost2010Prop37
 90
       50
102
RTVSPost2010PropOp37
 70
     1
102
RTVSPost2010Prop38
140
0.0
102
RTVSPost2010PropOp38
 70
     1
102
RTVSPost2010Prop39
140
1.0
102
RTVSPost2010PropOp39
 70
     1
102
RTVSPost2010Prop40
 90
        0
102
RTVSPost2010PropOp40
 70
     1
102
RTVSPost2010Prop41ColorIndex
 90
       18
102
RTVSPost2010Prop41ColorRGB
 90
        0
102
RTVSPost2010PropOp41
 70
     1
102
RTVSPost2010Prop42
 90
       50
102
RTVSPost2010PropOp42
 70
     1
102
RTVSPost2010Prop43
 90
        3
102
RTVSPost2010PropOp43
 70
     1
102
RTVSPost2010Prop44ColorIndex
 90
        5
102
RTVSPost2010Prop44ColorRGB
 90
      255
102
RTVSPost2010PropOp44
 70
     1
102
RTVSPost2010Prop45
280
     0
102
RTVSPost2010PropOp45
 70
     1
102
RTVSPost2010Prop46
 90
       50
102
RTVSPost2010PropOp46
 70
     1
102
RTVSPost2010Prop47
 90
       50
102
RTVSPost2010PropOp47
 70
     1
102
RTVSPost2010Prop48
 90
       50
102
RTVSPost2010PropOp48
 70
     1
102
RTVSPost2010Prop49
280
     0
102
RTVSPost2010PropOp49
 70
     1
102
RTVSPost2010Prop50
 90
       50
102
RTVSPost2010PropOp50
 70
     1
102
RTVSPost2010Prop51ColorIndex
 90
      256
102
RTVSPost2010Prop51ColorRGB
 90
-16777216
102
RTVSPost2010PropOp51
 70
     0
102
RTVSPost2010Prop52
140
1.0
102
RTVSPost2010PropOp52
 70
     0
102
RTVSPost2010Prop53
 90
        2
102
RTVSPost2010PropOp53
 70
     1
102
RTVSPost2010Prop54
  1
strokes_ogs.tif
102
RTVSPost2010PropOp54
 70
     1
102
RTVSPost2010Prop55
280
     0
102
RTVSPost2010PropOp55
 70
     1
102
RTVSPost2010Prop56
140
1.0
102
RTVSPost2010PropOp56
 70
     1
102
RTVSPost2010Prop57
140
1.0
102
RTVSPost2010PropOp57
 70
     1
  0
XRECORD
  5
456
102
{ACAD_REACTORS
330
455
102
}
330
455
100
AcDbXrecord
280
     1
102
RTVSPropertyOp0
 70
     1
102
RTVSPropertyOp1
 70
     1
102
RTVSPropertyOp2
 70
     1
102
RTVSPropertyOp3
 70
     1
102
RTVSPropertyOp4
 70
     1
102
RTVSPropertyOp5
 70
     1
102
RTVSPropertyOp6
 70
     1
102
RTVSPropertyOp7
 70
     1
102
RTVSPropertyOp8
 70
     1
102
RTVSPropertyOp9
 70
     1
102
RTVSPropertyOp10
 70
     1
102
RTVSPropertyOp11
 70
     1
102
RTVSPropertyOp12
 70
     1
102
RTVSPropertyOp13
 70
     1
102
RTVSPropertyOp14
 70
     1
102
RTVSPropertyOp15
 70
     1
102
RTVSPropertyOp16
 70
     1
102
RTVSPropertyOp17
 70
     1
102
RTVSPropertyOp18
 70
     1
102
RTVSPropertyOp19
 70
     1
102
RTVSPropertyOp20
 70
     1
102
RTVSPropertyOp21
 70
     1
102
RTVSPropertyOp22
 70
     1
102
RTVSPropertyOp23
 70
     1
102
RTVSPropertyOp24
 70
     1
102
RTVSPropertyOp25
 70
     1
102
RTVSPropertyOp26
 70
     1
102
RTVSPropertyOp27
 70
     1
102
RTVSPropertyOp28
 70
     1
102
RTVSPropertyOp29
 70
     1
102
RTVSPropertyOp30
 70
     1
102
RTVSPropertyOp31
 70
     1
102
RTVSPropertyOp32
 70
     1
102
RTVSPropertyOp33
 70
     1
102
RTVSPropertyOp34
 70
     1
102
RTVSPropertyOp35
 70
     1
102
RTVSPropertyOp36
 70
     1
102
RTVSPropertyOp37
 70
     1
102
RTVSPropertyOp38
 70
     1
102
RTVSPropertyOp39
 70
     1
102
RTVSPropertyOp40
 70
     1
102
RTVSPropertyOp41
 70
     1
102
RTVSPropertyOp42
 70
     1
102
RTVSPropertyOp43
 70
     1
102
RTVSPropertyOp44
 70
     1
102
RTVSPropertyOp45
 70
     1
102
RTVSPropertyOp46
 70
     1
102
RTVSPropertyOp47
 70
     1
102
RTVSPropertyOp48
 70
     1
102
RTVSPropertyOp49
 70
     1
102
RTVSPropertyOp50
 70
     1
102
RTVSPropertyOp51
 70
     0
102
RTVSPropertyOp52
 70
     0
102
RTVSPropertyOp53
 70
     1
102
RTVSPropertyOp54
 70
     1
102
RTVSPropertyOp55
 70
     1
102
RTVSPropertyOp56
 70
     1
102
RTVSPropertyOp57
 70
     1
102
RTVSPost2010Prop28
280
     0
102
RTVSPost2010PropOp28
 70
     1
102
RTVSPost2010Prop29
280
     1
102
RTVSPost2010PropOp29
 70
     1
102
RTVSPost2010Prop30
280
     1
102
RTVSPost2010PropOp30
 70
     1
102
RTVSPost2010Prop31
280
     0
102
RTVSPost2010PropOp31
 70
     1
102
RTVSPost2010Prop32
280
     0
102
RTVSPost2010PropOp32
 70
     1
102
RTVSPost2010Prop33
280
     0
102
RTVSPost2010PropOp33
 70
     1
102
RTVSPost2010Prop34
280
     0
102
RTVSPost2010PropOp34
 70
     1
102
RTVSPost2010Prop35
280
     0
102
RTVSPost2010PropOp35
 70
     1
102
RTVSPost2010Prop36
280
     0
102
RTVSPost2010PropOp36
 70
     1
102
RTVSPost2010Prop37
 90
       50
102
RTVSPost2010PropOp37
 70
     1
102
RTVSPost2010Prop38
140
0.0
102
RTVSPost2010PropOp38
 70
     1
102
RTVSPost2010Prop39
140
1.0
102
RTVSPost2010PropOp39
 70
     1
102
RTVSPost2010Prop40
 90
        0
102
RTVSPost2010PropOp40
 70
     1
102
RTVSPost2010Prop41ColorIndex
 90
       18
102
RTVSPost2010Prop41ColorRGB
 90
        0
102
RTVSPost2010PropOp41
 70
     1
102
RTVSPost2010Prop42
 90
       50
102
RTVSPost2010PropOp42
 70
     1
102
RTVSPost2010Prop43
 90
        3
102
RTVSPost2010PropOp43
 70
     1
102
RTVSPost2010Prop44ColorIndex
 90
        5
102
RTVSPost2010Prop44ColorRGB
 90
      255
102
RTVSPost2010PropOp44
 70
     1
102
RTVSPost2010Prop45
280
     0
102
RTVSPost2010PropOp45
 70
     1
102
RTVSPost2010Prop46
 90
       50
102
RTVSPost2010PropOp46
 70
     1
102
RTVSPost2010Prop47
 90
       50
102
RTVSPost2010PropOp47
 70
     1
102
RTVSPost2010Prop48
 90
       50
102
RTVSPost2010PropOp48
 70
     1
102
RTVSPost2010Prop49
280
     0
102
RTVSPost2010PropOp49
 70
     1
102
RTVSPost2010Prop50
 90
       50
102
RTVSPost2010PropOp50
 70
     1
102
RTVSPost2010Prop51ColorIndex
 90
      256
102
RTVSPost2010Prop51ColorRGB
 90
-16777216
102
RTVSPost2010PropOp51
 70
     0
102
RTVSPost2010Prop52
140
1.0
102
RTVSPost2010PropOp52
 70
     0
102
RTVSPost2010Prop53
 90
        2
102
RTVSPost2010PropOp53
 70
     1
102
RTVSPost2010Prop54
  1
strokes_ogs.tif
102
RTVSPost2010PropOp54
 70
     1
102
RTVSPost2010Prop55
280
     0
102
RTVSPost2010PropOp55
 70
     1
102
RTVSPost2010Prop56
140
1.0
102
RTVSPost2010PropOp56
 70
     1
102
RTVSPost2010Prop57
140
1.0
102
RTVSPost2010PropOp57
 70
     1
  0
XRECORD
  5
458
102
{ACAD_REACTORS
330
457
102
}
330
457
100
AcDbXrecord
280
     1
102
RTVSPropertyOp0
 70
     0
102
RTVSPropertyOp1
 70
     0
102
RTVSPropertyOp2
 70
     0
102
RTVSPropertyOp3
 70
     0
102
RTVSPropertyOp4
 70
     0
102
RTVSPropertyOp5
 70
     0
102
RTVSPropertyOp6
 70
     0
102
RTVSPropertyOp7
 70
     0
102
RTVSPropertyOp8
 70
     0
102
RTVSPropertyOp9
 70
     0
102
RTVSPropertyOp10
 70
     0
102
RTVSPropertyOp11
 70
     0
102
RTVSPropertyOp12
 70
     0
102
RTVSPropertyOp13
 70
     0
102
RTVSPropertyOp14
 70
     2
102
RTVSPropertyOp15
 70
     0
102
RTVSPropertyOp16
 70
     0
102
RTVSPropertyOp17
 70
     0
102
RTVSPropertyOp18
 70
     0
102
RTVSPropertyOp19
 70
     0
102
RTVSPropertyOp20
 70
     0
102
RTVSPropertyOp21
 70
     0
102
RTVSPropertyOp22
 70
     0
102
RTVSPropertyOp23
 70
     0
102
RTVSPropertyOp24
 70
     0
102
RTVSPropertyOp25
 70
     0
102
RTVSPropertyOp26
 70
     0
102
RTVSPropertyOp27
 70
     0
102
RTVSPropertyOp28
 70
     1
102
RTVSPropertyOp29
 70
     1
102
RTVSPropertyOp30
 70
     1
102
RTVSPropertyOp31
 70
     1
102
RTVSPropertyOp32
 70
     1
102
RTVSPropertyOp33
 70
     1
102
RTVSPropertyOp34
 70
     1
102
RTVSPropertyOp35
 70
     1
102
RTVSPropertyOp36
 70
     1
102
RTVSPropertyOp37
 70
     0
102
RTVSPropertyOp38
 70
     0
102
RTVSPropertyOp39
 70
     0
102
RTVSPropertyOp40
 70
     0
102
RTVSPropertyOp41
 70
     0
102
RTVSPropertyOp42
 70
     0
102
RTVSPropertyOp43
 70
     0
102
RTVSPropertyOp44
 70
     0
102
RTVSPropertyOp45
 70
     1
102
RTVSPropertyOp46
 70
     0
102
RTVSPropertyOp47
 70
     0
102
RTVSPropertyOp48
 70
     0
102
RTVSPropertyOp49
 70
     1
102
RTVSPropertyOp50
 70
     0
102
RTVSPropertyOp51
 70
     0
102
RTVSPropertyOp52
 70
     0
102
RTVSPropertyOp53
 70
     0
102
RTVSPropertyOp54
 70
     0
102
RTVSPropertyOp55
 70
     1
102
RTVSPropertyOp56
 70
     0
102
RTVSPropertyOp57
 70
     0
102
RTVSPost2010Prop28
280
     0
102
RTVSPost2010PropOp28
 70
     1
102
RTVSPost2010Prop29
280
     1
102
RTVSPost2010PropOp29
 70
     1
102
RTVSPost2010Prop30
280
     1
102
RTVSPost2010PropOp30
 70
     1
102
RTVSPost2010Prop31
280
     0
102
RTVSPost2010PropOp31
 70
     1
102
RTVSPost2010Prop32
280
     0
102
RTVSPost2010PropOp32
 70
     1
102
RTVSPost2010Prop33
280
     0
102
RTVSPost2010PropOp33
 70
     1
102
RTVSPost2010Prop34
280
     0
102
RTVSPost2010PropOp34
 70
     1
102
RTVSPost2010Prop35
280
     0
102
RTVSPost2010PropOp35
 70
     1
102
RTVSPost2010Prop36
280
     0
102
RTVSPost2010PropOp36
 70
     1
102
RTVSPost2010Prop37
 90
       50
102
RTVSPost2010PropOp37
 70
     0
102
RTVSPost2010Prop38
140
0.0
102
RTVSPost2010PropOp38
 70
     0
102
RTVSPost2010Prop39
140
1.0
102
RTVSPost2010PropOp39
 70
     0
102
RTVSPost2010Prop40
 90
        0
102
RTVSPost2010PropOp40
 70
     0
102
RTVSPost2010Prop41ColorIndex
 90
       18
102
RTVSPost2010Prop41ColorRGB
 90
        0
102
RTVSPost2010PropOp41
 70
     0
102
RTVSPost2010Prop42
 90
       50
102
RTVSPost2010PropOp42
 70
     0
102
RTVSPost2010Prop43
 90
        3
102
RTVSPost2010PropOp43
 70
     0
102
RTVSPost2010Prop44ColorIndex
 90
        5
102
RTVSPost2010Prop44ColorRGB
 90
      255
102
RTVSPost2010PropOp44
 70
     0
102
RTVSPost2010Prop45
280
     0
102
RTVSPost2010PropOp45
 70
     1
102
RTVSPost2010Prop46
 90
       50
102
RTVSPost2010PropOp46
 70
     0
102
RTVSPost2010Prop47
 90
       50
102
RTVSPost2010PropOp47
 70
     0
102
RTVSPost2010Prop48
 90
       50
102
RTVSPost2010PropOp48
 70
     0
102
RTVSPost2010Prop49
280
     0
102
RTVSPost2010PropOp49
 70
     1
102
RTVSPost2010Prop50
 90
       50
102
RTVSPost2010PropOp50
 70
     0
102
RTVSPost2010Prop51ColorIndex
 90
      256
102
RTVSPost2010Prop51ColorRGB
 90
-16777216
102
RTVSPost2010PropOp51
 70
     0
102
RTVSPost2010Prop52
140
1.0
102
RTVSPost2010PropOp52
 70
     0
102
RTVSPost2010Prop53
 90
        2
102
RTVSPost2010PropOp53
 70
     0
102
RTVSPost2010Prop54
  1
strokes_ogs.tif
102
RTVSPost2010PropOp54
 70
     0
102
RTVSPost2010Prop55
280
     0
102
RTVSPost2010PropOp55
 70
     1
102
RTVSPost2010Prop56
140
1.0
102
RTVSPost2010PropOp56
 70
     0
102
RTVSPost2010Prop57
140
1.0
102
RTVSPost2010PropOp57
 70
     0
  0
XRECORD
  5
45A
102
{ACAD_REACTORS
330
459
102
}
330
459
100
AcDbXrecord
280
     1
102
RTVSPropertyOp0
 70
     1
102
RTVSPropertyOp1
 70
     1
102
RTVSPropertyOp2
 70
     1
102
RTVSPropertyOp3
 70
     1
102
RTVSPropertyOp4
 70
     1
102
RTVSPropertyOp5
 70
     1
102
RTVSPropertyOp6
 70
     1
102
RTVSPropertyOp7
 70
     1
102
RTVSPropertyOp8
 70
     1
102
RTVSPropertyOp9
 70
     1
102
RTVSPropertyOp10
 70
     1
102
RTVSPropertyOp11
 70
     1
102
RTVSPropertyOp12
 70
     1
102
RTVSPropertyOp13
 70
     1
102
RTVSPropertyOp14
 70
     1
102
RTVSPropertyOp15
 70
     1
102
RTVSPropertyOp16
 70
     1
102
RTVSPropertyOp17
 70
     1
102
RTVSPropertyOp18
 70
     1
102
RTVSPropertyOp19
 70
     1
102
RTVSPropertyOp20
 70
     1
102
RTVSPropertyOp21
 70
     1
102
RTVSPropertyOp22
 70
     1
102
RTVSPropertyOp23
 70
     1
102
RTVSPropertyOp24
 70
     1
102
RTVSPropertyOp25
 70
     1
102
RTVSPropertyOp26
 70
     1
102
RTVSPropertyOp27
 70
     1
102
RTVSPropertyOp28
 70
     1
102
RTVSPropertyOp29
 70
     1
102
RTVSPropertyOp30
 70
     1
102
RTVSPropertyOp31
 70
     1
102
RTVSPropertyOp32
 70
     1
102
RTVSPropertyOp33
 70
     1
102
RTVSPropertyOp34
 70
     1
102
RTVSPropertyOp35
 70
     1
102
RTVSPropertyOp36
 70
     1
102
RTVSPropertyOp37
 70
     1
102
RTVSPropertyOp38
 70
     1
102
RTVSPropertyOp39
 70
     1
102
RTVSPropertyOp40
 70
     1
102
RTVSPropertyOp41
 70
     1
102
RTVSPropertyOp42
 70
     1
102
RTVSPropertyOp43
 70
     1
102
RTVSPropertyOp44
 70
     1
102
RTVSPropertyOp45
 70
     1
102
RTVSPropertyOp46
 70
     1
102
RTVSPropertyOp47
 70
     1
102
RTVSPropertyOp48
 70
     1
102
RTVSPropertyOp49
 70
     1
102
RTVSPropertyOp50
 70
     1
102
RTVSPropertyOp51
 70
     0
102
RTVSPropertyOp52
 70
     0
102
RTVSPropertyOp53
 70
     1
102
RTVSPropertyOp54
 70
     1
102
RTVSPropertyOp55
 70
     1
102
RTVSPropertyOp56
 70
     1
102
RTVSPropertyOp57
 70
     1
102
RTVSPost2010Prop28
280
     0
102
RTVSPost2010PropOp28
 70
     1
102
RTVSPost2010Prop29
280
     1
102
RTVSPost2010PropOp29
 70
     1
102
RTVSPost2010Prop30
280
     1
102
RTVSPost2010PropOp30
 70
     1
102
RTVSPost2010Prop31
280
     0
102
RTVSPost2010PropOp31
 70
     1
102
RTVSPost2010Prop32
280
     0
102
RTVSPost2010PropOp32
 70
     1
102
RTVSPost2010Prop33
280
     0
102
RTVSPost2010PropOp33
 70
     1
102
RTVSPost2010Prop34
280
     0
102
RTVSPost2010PropOp34
 70
     1
102
RTVSPost2010Prop35
280
     0
102
RTVSPost2010PropOp35
 70
     1
102
RTVSPost2010Prop36
280
     0
102
RTVSPost2010PropOp36
 70
     1
102
RTVSPost2010Prop37
 90
       50
102
RTVSPost2010PropOp37
 70
     1
102
RTVSPost2010Prop38
140
0.0
102
RTVSPost2010PropOp38
 70
     1
102
RTVSPost2010Prop39
140
1.0
102
RTVSPost2010PropOp39
 70
     1
102
RTVSPost2010Prop40
 90
        0
102
RTVSPost2010PropOp40
 70
     1
102
RTVSPost2010Prop41ColorIndex
 90
       18
102
RTVSPost2010Prop41ColorRGB
 90
        0
102
RTVSPost2010PropOp41
 70
     1
102
RTVSPost2010Prop42
 90
       50
102
RTVSPost2010PropOp42
 70
     1
102
RTVSPost2010Prop43
 90
        3
102
RTVSPost2010PropOp43
 70
     1
102
RTVSPost2010Prop44ColorIndex
 90
        5
102
RTVSPost2010Prop44ColorRGB
 90
      255
102
RTVSPost2010PropOp44
 70
     1
102
RTVSPost2010Prop45
280
     0
102
RTVSPost2010PropOp45
 70
     1
102
RTVSPost2010Prop46
 90
       50
102
RTVSPost2010PropOp46
 70
     1
102
RTVSPost2010Prop47
 90
       50
102
RTVSPost2010PropOp47
 70
     1
102
RTVSPost2010Prop48
 90
       50
102
RTVSPost2010PropOp48
 70
     1
102
RTVSPost2010Prop49
280
     0
102
RTVSPost2010PropOp49
 70
     1
102
RTVSPost2010Prop50
 90
       50
102
RTVSPost2010PropOp50
 70
     1
102
RTVSPost2010Prop51ColorIndex
 90
      256
102
RTVSPost2010Prop51ColorRGB
 90
-16777216
102
RTVSPost2010PropOp51
 70
     0
102
RTVSPost2010Prop52
140
1.0
102
RTVSPost2010PropOp52
 70
     0
102
RTVSPost2010Prop53
 90
        2
102
RTVSPost2010PropOp53
 70
     1
102
RTVSPost2010Prop54
  1
strokes_ogs.tif
102
RTVSPost2010PropOp54
 70
     1
102
RTVSPost2010Prop55
280
     0
102
RTVSPost2010PropOp55
 70
     1
102
RTVSPost2010Prop56
140
1.0
102
RTVSPost2010PropOp56
 70
     1
102
RTVSPost2010Prop57
140
1.0
102
RTVSPost2010PropOp57
 70
     1
  0
XRECORD
  5
45C
102
{ACAD_REACTORS
330
45B
102
}
330
45B
100
AcDbXrecord
280
     1
102
RTVSPropertyOp0
 70
     1
102
RTVSPropertyOp1
 70
     1
102
RTVSPropertyOp2
 70
     1
102
RTVSPropertyOp3
 70
     1
102
RTVSPropertyOp4
 70
     1
102
RTVSPropertyOp5
 70
     1
102
RTVSPropertyOp6
 70
     1
102
RTVSPropertyOp7
 70
     1
102
RTVSPropertyOp8
 70
     1
102
RTVSPropertyOp9
 70
     1
102
RTVSPropertyOp10
 70
     1
102
RTVSPropertyOp11
 70
     1
102
RTVSPropertyOp12
 70
     1
102
RTVSPropertyOp13
 70
     1
102
RTVSPropertyOp14
 70
     1
102
RTVSPropertyOp15
 70
     1
102
RTVSPropertyOp16
 70
     1
102
RTVSPropertyOp17
 70
     1
102
RTVSPropertyOp18
 70
     1
102
RTVSPropertyOp19
 70
     1
102
RTVSPropertyOp20
 70
     1
102
RTVSPropertyOp21
 70
     1
102
RTVSPropertyOp22
 70
     1
102
RTVSPropertyOp23
 70
     1
102
RTVSPropertyOp24
 70
     1
102
RTVSPropertyOp25
 70
     1
102
RTVSPropertyOp26
 70
     1
102
RTVSPropertyOp27
 70
     1
102
RTVSPropertyOp28
 70
     1
102
RTVSPropertyOp29
 70
     1
102
RTVSPropertyOp30
 70
     1
102
RTVSPropertyOp31
 70
     1
102
RTVSPropertyOp32
 70
     1
102
RTVSPropertyOp33
 70
     1
102
RTVSPropertyOp34
 70
     1
102
RTVSPropertyOp35
 70
     1
102
RTVSPropertyOp36
 70
     1
102
RTVSPropertyOp37
 70
     1
102
RTVSPropertyOp38
 70
     1
102
RTVSPropertyOp39
 70
     1
102
RTVSPropertyOp40
 70
     1
102
RTVSPropertyOp41
 70
     1
102
RTVSPropertyOp42
 70
     1
102
RTVSPropertyOp43
 70
     1
102
RTVSPropertyOp44
 70
     1
102
RTVSPropertyOp45
 70
     1
102
RTVSPropertyOp46
 70
     1
102
RTVSPropertyOp47
 70
     1
102
RTVSPropertyOp48
 70
     1
102
RTVSPropertyOp49
 70
     1
102
RTVSPropertyOp50
 70
     1
102
RTVSPropertyOp51
 70
     0
102
RTVSPropertyOp52
 70
     0
102
RTVSPropertyOp53
 70
     1
102
RTVSPropertyOp54
 70
     1
102
RTVSPropertyOp55
 70
     1
102
RTVSPropertyOp56
 70
     1
102
RTVSPropertyOp57
 70
     1
102
RTVSPost2010Prop28
280
     0
102
RTVSPost2010PropOp28
 70
     1
102
RTVSPost2010Prop29
280
     1
102
RTVSPost2010PropOp29
 70
     1
102
RTVSPost2010Prop30
280
     1
102
RTVSPost2010PropOp30
 70
     1
102
RTVSPost2010Prop31
280
     0
102
RTVSPost2010PropOp31
 70
     1
102
RTVSPost2010Prop32
280
     0
102
RTVSPost2010PropOp32
 70
     1
102
RTVSPost2010Prop33
280
     0
102
RTVSPost2010PropOp33
 70
     1
102
RTVSPost2010Prop34
280
     0
102
RTVSPost2010PropOp34
 70
     1
102
RTVSPost2010Prop35
280
     0
102
RTVSPost2010PropOp35
 70
     1
102
RTVSPost2010Prop36
280
     0
102
RTVSPost2010PropOp36
 70
     1
102
RTVSPost2010Prop37
 90
       50
102
RTVSPost2010PropOp37
 70
     1
102
RTVSPost2010Prop38
140
0.0
102
RTVSPost2010PropOp38
 70
     1
102
RTVSPost2010Prop39
140
1.0
102
RTVSPost2010PropOp39
 70
     1
102
RTVSPost2010Prop40
 90
        0
102
RTVSPost2010PropOp40
 70
     1
102
RTVSPost2010Prop41ColorIndex
 90
       18
102
RTVSPost2010Prop41ColorRGB
 90
        0
102
RTVSPost2010PropOp41
 70
     1
102
RTVSPost2010Prop42
 90
       50
102
RTVSPost2010PropOp42
 70
     1
102
RTVSPost2010Prop43
 90
        3
102
RTVSPost2010PropOp43
 70
     1
102
RTVSPost2010Prop44ColorIndex
 90
        5
102
RTVSPost2010Prop44ColorRGB
 90
      255
102
RTVSPost2010PropOp44
 70
     1
102
RTVSPost2010Prop45
280
     0
102
RTVSPost2010PropOp45
 70
     1
102
RTVSPost2010Prop46
 90
       50
102
RTVSPost2010PropOp46
 70
     1
102
RTVSPost2010Prop47
 90
       50
102
RTVSPost2010PropOp47
 70
     1
102
RTVSPost2010Prop48
 90
       50
102
RTVSPost2010PropOp48
 70
     1
102
RTVSPost2010Prop49
280
     0
102
RTVSPost2010PropOp49
 70
     1
102
RTVSPost2010Prop50
 90
       50
102
RTVSPost2010PropOp50
 70
     1
102
RTVSPost2010Prop51ColorIndex
 90
      256
102
RTVSPost2010Prop51ColorRGB
 90
-16777216
102
RTVSPost2010PropOp51
 70
     0
102
RTVSPost2010Prop52
140
1.0
102
RTVSPost2010PropOp52
 70
     0
102
RTVSPost2010Prop53
 90
        2
102
RTVSPost2010PropOp53
 70
     1
102
RTVSPost2010Prop54
  1
strokes_ogs.tif
102
RTVSPost2010PropOp54
 70
     1
102
RTVSPost2010Prop55
280
     0
102
RTVSPost2010PropOp55
 70
     1
102
RTVSPost2010Prop56
140
1.0
102
RTVSPost2010PropOp56
 70
     1
102
RTVSPost2010Prop57
140
1.0
102
RTVSPost2010PropOp57
 70
     1
  0
XRECORD
  5
45E
102
{ACAD_REACTORS
330
45D
102
}
330
45D
100
AcDbXrecord
280
     1
102
RTVSPropertyOp0
 70
     1
102
RTVSPropertyOp1
 70
     1
102
RTVSPropertyOp2
 70
     1
102
RTVSPropertyOp3
 70
     1
102
RTVSPropertyOp4
 70
     1
102
RTVSPropertyOp5
 70
     1
102
RTVSPropertyOp6
 70
     1
102
RTVSPropertyOp7
 70
     1
102
RTVSPropertyOp8
 70
     1
102
RTVSPropertyOp9
 70
     1
102
RTVSPropertyOp10
 70
     1
102
RTVSPropertyOp11
 70
     1
102
RTVSPropertyOp12
 70
     1
102
RTVSPropertyOp13
 70
     1
102
RTVSPropertyOp14
 70
     1
102
RTVSPropertyOp15
 70
     1
102
RTVSPropertyOp16
 70
     1
102
RTVSPropertyOp17
 70
     1
102
RTVSPropertyOp18
 70
     1
102
RTVSPropertyOp19
 70
     1
102
RTVSPropertyOp20
 70
     1
102
RTVSPropertyOp21
 70
     1
102
RTVSPropertyOp22
 70
     1
102
RTVSPropertyOp23
 70
     1
102
RTVSPropertyOp24
 70
     1
102
RTVSPropertyOp25
 70
     1
102
RTVSPropertyOp26
 70
     1
102
RTVSPropertyOp27
 70
     1
102
RTVSPropertyOp28
 70
     1
102
RTVSPropertyOp29
 70
     1
102
RTVSPropertyOp30
 70
     1
102
RTVSPropertyOp31
 70
     1
102
RTVSPropertyOp32
 70
     1
102
RTVSPropertyOp33
 70
     1
102
RTVSPropertyOp34
 70
     1
102
RTVSPropertyOp35
 70
     1
102
RTVSPropertyOp36
 70
     1
102
RTVSPropertyOp37
 70
     1
102
RTVSPropertyOp38
 70
     1
102
RTVSPropertyOp39
 70
     1
102
RTVSPropertyOp40
 70
     1
102
RTVSPropertyOp41
 70
     1
102
RTVSPropertyOp42
 70
     1
102
RTVSPropertyOp43
 70
     1
102
RTVSPropertyOp44
 70
     1
102
RTVSPropertyOp45
 70
     1
102
RTVSPropertyOp46
 70
     1
102
RTVSPropertyOp47
 70
     1
102
RTVSPropertyOp48
 70
     1
102
RTVSPropertyOp49
 70
     1
102
RTVSPropertyOp50
 70
     1
102
RTVSPropertyOp51
 70
     0
102
RTVSPropertyOp52
 70
     0
102
RTVSPropertyOp53
 70
     1
102
RTVSPropertyOp54
 70
     1
102
RTVSPropertyOp55
 70
     1
102
RTVSPropertyOp56
 70
     1
102
RTVSPropertyOp57
 70
     1
102
RTVSPost2010Prop28
280
     0
102
RTVSPost2010PropOp28
 70
     1
102
RTVSPost2010Prop29
280
     1
102
RTVSPost2010PropOp29
 70
     1
102
RTVSPost2010Prop30
280
     1
102
RTVSPost2010PropOp30
 70
     1
102
RTVSPost2010Prop31
280
     0
102
RTVSPost2010PropOp31
 70
     1
102
RTVSPost2010Prop32
280
     0
102
RTVSPost2010PropOp32
 70
     1
102
RTVSPost2010Prop33
280
     0
102
RTVSPost2010PropOp33
 70
     1
102
RTVSPost2010Prop34
280
     0
102
RTVSPost2010PropOp34
 70
     1
102
RTVSPost2010Prop35
280
     0
102
RTVSPost2010PropOp35
 70
     1
102
RTVSPost2010Prop36
280
     0
102
RTVSPost2010PropOp36
 70
     1
102
RTVSPost2010Prop37
 90
       50
102
RTVSPost2010PropOp37
 70
     1
102
RTVSPost2010Prop38
140
0.0
102
RTVSPost2010PropOp38
 70
     1
102
RTVSPost2010Prop39
140
1.0
102
RTVSPost2010PropOp39
 70
     1
102
RTVSPost2010Prop40
 90
        0
102
RTVSPost2010PropOp40
 70
     1
102
RTVSPost2010Prop41ColorIndex
 90
       18
102
RTVSPost2010Prop41ColorRGB
 90
        0
102
RTVSPost2010PropOp41
 70
     1
102
RTVSPost2010Prop42
 90
       50
102
RTVSPost2010PropOp42
 70
     1
102
RTVSPost2010Prop43
 90
        3
102
RTVSPost2010PropOp43
 70
     1
102
RTVSPost2010Prop44ColorIndex
 90
        5
102
RTVSPost2010Prop44ColorRGB
 90
      255
102
RTVSPost2010PropOp44
 70
     1
102
RTVSPost2010Prop45
280
     0
102
RTVSPost2010PropOp45
 70
     1
102
RTVSPost2010Prop46
 90
       50
102
RTVSPost2010PropOp46
 70
     1
102
RTVSPost2010Prop47
 90
       50
102
RTVSPost2010PropOp47
 70
     1
102
RTVSPost2010Prop48
 90
       50
102
RTVSPost2010PropOp48
 70
     1
102
RTVSPost2010Prop49
280
     0
102
RTVSPost2010PropOp49
 70
     1
102
RTVSPost2010Prop50
 90
       50
102
RTVSPost2010PropOp50
 70
     1
102
RTVSPost2010Prop51ColorIndex
 90
      256
102
RTVSPost2010Prop51ColorRGB
 90
-16777216
102
RTVSPost2010PropOp51
 70
     0
102
RTVSPost2010Prop52
140
1.0
102
RTVSPost2010PropOp52
 70
     0
102
RTVSPost2010Prop53
 90
        2
102
RTVSPost2010PropOp53
 70
     1
102
RTVSPost2010Prop54
  1
strokes_ogs.tif
102
RTVSPost2010PropOp54
 70
     1
102
RTVSPost2010Prop55
280
     0
102
RTVSPost2010PropOp55
 70
     1
102
RTVSPost2010Prop56
140
1.0
102
RTVSPost2010PropOp56
 70
     1
102
RTVSPost2010Prop57
140
1.0
102
RTVSPost2010PropOp57
 70
     1
  0
XRECORD
  5
460
102
{ACAD_REACTORS
330
45F
102
}
330
45F
100
AcDbXrecord
280
     1
102
RTVSPropertyOp0
 70
     1
102
RTVSPropertyOp1
 70
     1
102
RTVSPropertyOp2
 70
     1
102
RTVSPropertyOp3
 70
     1
102
RTVSPropertyOp4
 70
     1
102
RTVSPropertyOp5
 70
     1
102
RTVSPropertyOp6
 70
     1
102
RTVSPropertyOp7
 70
     1
102
RTVSPropertyOp8
 70
     1
102
RTVSPropertyOp9
 70
     1
102
RTVSPropertyOp10
 70
     1
102
RTVSPropertyOp11
 70
     1
102
RTVSPropertyOp12
 70
     1
102
RTVSPropertyOp13
 70
     1
102
RTVSPropertyOp14
 70
     1
102
RTVSPropertyOp15
 70
     1
102
RTVSPropertyOp16
 70
     1
102
RTVSPropertyOp17
 70
     1
102
RTVSPropertyOp18
 70
     1
102
RTVSPropertyOp19
 70
     1
102
RTVSPropertyOp20
 70
     1
102
RTVSPropertyOp21
 70
     1
102
RTVSPropertyOp22
 70
     1
102
RTVSPropertyOp23
 70
     1
102
RTVSPropertyOp24
 70
     1
102
RTVSPropertyOp25
 70
     1
102
RTVSPropertyOp26
 70
     1
102
RTVSPropertyOp27
 70
     1
102
RTVSPropertyOp28
 70
     1
102
RTVSPropertyOp29
 70
     1
102
RTVSPropertyOp30
 70
     1
102
RTVSPropertyOp31
 70
     1
102
RTVSPropertyOp32
 70
     1
102
RTVSPropertyOp33
 70
     1
102
RTVSPropertyOp34
 70
     1
102
RTVSPropertyOp35
 70
     1
102
RTVSPropertyOp36
 70
     1
102
RTVSPropertyOp37
 70
     1
102
RTVSPropertyOp38
 70
     1
102
RTVSPropertyOp39
 70
     1
102
RTVSPropertyOp40
 70
     1
102
RTVSPropertyOp41
 70
     1
102
RTVSPropertyOp42
 70
     1
102
RTVSPropertyOp43
 70
     1
102
RTVSPropertyOp44
 70
     1
102
RTVSPropertyOp45
 70
     1
102
RTVSPropertyOp46
 70
     1
102
RTVSPropertyOp47
 70
     1
102
RTVSPropertyOp48
 70
     1
102
RTVSPropertyOp49
 70
     1
102
RTVSPropertyOp50
 70
     1
102
RTVSPropertyOp51
 70
     0
102
RTVSPropertyOp52
 70
     0
102
RTVSPropertyOp53
 70
     1
102
RTVSPropertyOp54
 70
     1
102
RTVSPropertyOp55
 70
     1
102
RTVSPropertyOp56
 70
     1
102
RTVSPropertyOp57
 70
     1
102
RTVSPost2010Prop28
280
     0
102
RTVSPost2010PropOp28
 70
     1
102
RTVSPost2010Prop29
280
     1
102
RTVSPost2010PropOp29
 70
     1
102
RTVSPost2010Prop30
280
     1
102
RTVSPost2010PropOp30
 70
     1
102
RTVSPost2010Prop31
280
     0
102
RTVSPost2010PropOp31
 70
     1
102
RTVSPost2010Prop32
280
     0
102
RTVSPost2010PropOp32
 70
     1
102
RTVSPost2010Prop33
280
     0
102
RTVSPost2010PropOp33
 70
     1
102
RTVSPost2010Prop34
280
     0
102
RTVSPost2010PropOp34
 70
     1
102
RTVSPost2010Prop35
280
     0
102
RTVSPost2010PropOp35
 70
     1
102
RTVSPost2010Prop36
280
     0
102
RTVSPost2010PropOp36
 70
     1
102
RTVSPost2010Prop37
 90
       50
102
RTVSPost2010PropOp37
 70
     1
102
RTVSPost2010Prop38
140
0.0
102
RTVSPost2010PropOp38
 70
     1
102
RTVSPost2010Prop39
140
1.0
102
RTVSPost2010PropOp39
 70
     1
102
RTVSPost2010Prop40
 90
        0
102
RTVSPost2010PropOp40
 70
     1
102
RTVSPost2010Prop41ColorIndex
 90
       18
102
RTVSPost2010Prop41ColorRGB
 90
        0
102
RTVSPost2010PropOp41
 70
     1
102
RTVSPost2010Prop42
 90
       50
102
RTVSPost2010PropOp42
 70
     1
102
RTVSPost2010Prop43
 90
        3
102
RTVSPost2010PropOp43
 70
     1
102
RTVSPost2010Prop44ColorIndex
 90
        5
102
RTVSPost2010Prop44ColorRGB
 90
      255
102
RTVSPost2010PropOp44
 70
     1
102
RTVSPost2010Prop45
280
     0
102
RTVSPost2010PropOp45
 70
     1
102
RTVSPost2010Prop46
 90
       50
102
RTVSPost2010PropOp46
 70
     1
102
RTVSPost2010Prop47
 90
       50
102
RTVSPost2010PropOp47
 70
     1
102
RTVSPost2010Prop48
 90
       50
102
RTVSPost2010PropOp48
 70
     1
102
RTVSPost2010Prop49
280
     0
102
RTVSPost2010PropOp49
 70
     1
102
RTVSPost2010Prop50
 90
       50
102
RTVSPost2010PropOp50
 70
     1
102
RTVSPost2010Prop51ColorIndex
 90
      256
102
RTVSPost2010Prop51ColorRGB
 90
-16777216
102
RTVSPost2010PropOp51
 70
     0
102
RTVSPost2010Prop52
140
1.0
102
RTVSPost2010PropOp52
 70
     0
102
RTVSPost2010Prop53
 90
        2
102
RTVSPost2010PropOp53
 70
     1
102
RTVSPost2010Prop54
  1
strokes_ogs.tif
102
RTVSPost2010PropOp54
 70
     1
102
RTVSPost2010Prop55
280
     0
102
RTVSPost2010PropOp55
 70
     1
102
RTVSPost2010Prop56
140
1.0
102
RTVSPost2010PropOp56
 70
     1
102
RTVSPost2010Prop57
140
1.0
102
RTVSPost2010PropOp57
 70
     1
  0
XRECORD
  5
462
102
{ACAD_REACTORS
330
461
102
}
330
461
100
AcDbXrecord
280
     1
102
RTVSPropertyOp0
 70
     1
102
RTVSPropertyOp1
 70
     1
102
RTVSPropertyOp2
 70
     1
102
RTVSPropertyOp3
 70
     1
102
RTVSPropertyOp4
 70
     1
102
RTVSPropertyOp5
 70
     1
102
RTVSPropertyOp6
 70
     1
102
RTVSPropertyOp7
 70
     1
102
RTVSPropertyOp8
 70
     1
102
RTVSPropertyOp9
 70
     1
102
RTVSPropertyOp10
 70
     1
102
RTVSPropertyOp11
 70
     1
102
RTVSPropertyOp12
 70
     1
102
RTVSPropertyOp13
 70
     1
102
RTVSPropertyOp14
 70
     1
102
RTVSPropertyOp15
 70
     1
102
RTVSPropertyOp16
 70
     1
102
RTVSPropertyOp17
 70
     1
102
RTVSPropertyOp18
 70
     1
102
RTVSPropertyOp19
 70
     1
102
RTVSPropertyOp20
 70
     1
102
RTVSPropertyOp21
 70
     1
102
RTVSPropertyOp22
 70
     1
102
RTVSPropertyOp23
 70
     1
102
RTVSPropertyOp24
 70
     1
102
RTVSPropertyOp25
 70
     1
102
RTVSPropertyOp26
 70
     1
102
RTVSPropertyOp27
 70
     1
102
RTVSPropertyOp28
 70
     1
102
RTVSPropertyOp29
 70
     1
102
RTVSPropertyOp30
 70
     1
102
RTVSPropertyOp31
 70
     1
102
RTVSPropertyOp32
 70
     1
102
RTVSPropertyOp33
 70
     1
102
RTVSPropertyOp34
 70
     1
102
RTVSPropertyOp35
 70
     1
102
RTVSPropertyOp36
 70
     1
102
RTVSPropertyOp37
 70
     1
102
RTVSPropertyOp38
 70
     1
102
RTVSPropertyOp39
 70
     1
102
RTVSPropertyOp40
 70
     1
102
RTVSPropertyOp41
 70
     1
102
RTVSPropertyOp42
 70
     1
102
RTVSPropertyOp43
 70
     1
102
RTVSPropertyOp44
 70
     1
102
RTVSPropertyOp45
 70
     1
102
RTVSPropertyOp46
 70
     1
102
RTVSPropertyOp47
 70
     1
102
RTVSPropertyOp48
 70
     1
102
RTVSPropertyOp49
 70
     1
102
RTVSPropertyOp50
 70
     1
102
RTVSPropertyOp51
 70
     0
102
RTVSPropertyOp52
 70
     0
102
RTVSPropertyOp53
 70
     1
102
RTVSPropertyOp54
 70
     1
102
RTVSPropertyOp55
 70
     1
102
RTVSPropertyOp56
 70
     1
102
RTVSPropertyOp57
 70
     1
102
RTVSPost2010Prop28
280
     0
102
RTVSPost2010PropOp28
 70
     1
102
RTVSPost2010Prop29
280
     1
102
RTVSPost2010PropOp29
 70
     1
102
RTVSPost2010Prop30
280
     1
102
RTVSPost2010PropOp30
 70
     1
102
RTVSPost2010Prop31
280
     0
102
RTVSPost2010PropOp31
 70
     1
102
RTVSPost2010Prop32
280
     0
102
RTVSPost2010PropOp32
 70
     1
102
RTVSPost2010Prop33
280
     0
102
RTVSPost2010PropOp33
 70
     1
102
RTVSPost2010Prop34
280
     0
102
RTVSPost2010PropOp34
 70
     1
102
RTVSPost2010Prop35
280
     0
102
RTVSPost2010PropOp35
 70
     1
102
RTVSPost2010Prop36
280
     0
102
RTVSPost2010PropOp36
 70
     1
102
RTVSPost2010Prop37
 90
       50
102
RTVSPost2010PropOp37
 70
     1
102
RTVSPost2010Prop38
140
0.0
102
RTVSPost2010PropOp38
 70
     1
102
RTVSPost2010Prop39
140
1.0
102
RTVSPost2010PropOp39
 70
     1
102
RTVSPost2010Prop40
 90
        0
102
RTVSPost2010PropOp40
 70
     1
102
RTVSPost2010Prop41ColorIndex
 90
       18
102
RTVSPost2010Prop41ColorRGB
 90
        0
102
RTVSPost2010PropOp41
 70
     1
102
RTVSPost2010Prop42
 90
       50
102
RTVSPost2010PropOp42
 70
     1
102
RTVSPost2010Prop43
 90
        3
102
RTVSPost2010PropOp43
 70
     1
102
RTVSPost2010Prop44ColorIndex
 90
        5
102
RTVSPost2010Prop44ColorRGB
 90
      255
102
RTVSPost2010PropOp44
 70
     1
102
RTVSPost2010Prop45
280
     0
102
RTVSPost2010PropOp45
 70
     1
102
RTVSPost2010Prop46
 90
       50
102
RTVSPost2010PropOp46
 70
     1
102
RTVSPost2010Prop47
 90
       50
102
RTVSPost2010PropOp47
 70
     1
102
RTVSPost2010Prop48
 90
       50
102
RTVSPost2010PropOp48
 70
     1
102
RTVSPost2010Prop49
280
     0
102
RTVSPost2010PropOp49
 70
     1
102
RTVSPost2010Prop50
 90
       50
102
RTVSPost2010PropOp50
 70
     1
102
RTVSPost2010Prop51ColorIndex
 90
      256
102
RTVSPost2010Prop51ColorRGB
 90
-16777216
102
RTVSPost2010PropOp51
 70
     0
102
RTVSPost2010Prop52
140
1.0
102
RTVSPost2010PropOp52
 70
     0
102
RTVSPost2010Prop53
 90
        2
102
RTVSPost2010PropOp53
 70
     1
102
RTVSPost2010Prop54
  1
strokes_ogs.tif
102
RTVSPost2010PropOp54
 70
     1
102
RTVSPost2010Prop55
280
     0
102
RTVSPost2010PropOp55
 70
     1
102
RTVSPost2010Prop56
140
1.0
102
RTVSPost2010PropOp56
 70
     1
102
RTVSPost2010Prop57
140
1.0
102
RTVSPost2010PropOp57
 70
     1
  0
XRECORD
  5
464
102
{ACAD_REACTORS
330
463
102
}
330
463
100
AcDbXrecord
280
     1
102
RTVSPropertyOp0
 70
     1
102
RTVSPropertyOp1
 70
     1
102
RTVSPropertyOp2
 70
     1
102
RTVSPropertyOp3
 70
     1
102
RTVSPropertyOp4
 70
     1
102
RTVSPropertyOp5
 70
     1
102
RTVSPropertyOp6
 70
     1
102
RTVSPropertyOp7
 70
     1
102
RTVSPropertyOp8
 70
     1
102
RTVSPropertyOp9
 70
     1
102
RTVSPropertyOp10
 70
     1
102
RTVSPropertyOp11
 70
     1
102
RTVSPropertyOp12
 70
     1
102
RTVSPropertyOp13
 70
     1
102
RTVSPropertyOp14
 70
     1
102
RTVSPropertyOp15
 70
     1
102
RTVSPropertyOp16
 70
     1
102
RTVSPropertyOp17
 70
     1
102
RTVSPropertyOp18
 70
     1
102
RTVSPropertyOp19
 70
     1
102
RTVSPropertyOp20
 70
     1
102
RTVSPropertyOp21
 70
     1
102
RTVSPropertyOp22
 70
     1
102
RTVSPropertyOp23
 70
     1
102
RTVSPropertyOp24
 70
     1
102
RTVSPropertyOp25
 70
     1
102
RTVSPropertyOp26
 70
     1
102
RTVSPropertyOp27
 70
     1
102
RTVSPropertyOp28
 70
     1
102
RTVSPropertyOp29
 70
     1
102
RTVSPropertyOp30
 70
     1
102
RTVSPropertyOp31
 70
     1
102
RTVSPropertyOp32
 70
     1
102
RTVSPropertyOp33
 70
     1
102
RTVSPropertyOp34
 70
     1
102
RTVSPropertyOp35
 70
     1
102
RTVSPropertyOp36
 70
     1
102
RTVSPropertyOp37
 70
     1
102
RTVSPropertyOp38
 70
     1
102
RTVSPropertyOp39
 70
     1
102
RTVSPropertyOp40
 70
     1
102
RTVSPropertyOp41
 70
     1
102
RTVSPropertyOp42
 70
     1
102
RTVSPropertyOp43
 70
     1
102
RTVSPropertyOp44
 70
     1
102
RTVSPropertyOp45
 70
     1
102
RTVSPropertyOp46
 70
     1
102
RTVSPropertyOp47
 70
     1
102
RTVSPropertyOp48
 70
     1
102
RTVSPropertyOp49
 70
     1
102
RTVSPropertyOp50
 70
     1
102
RTVSPropertyOp51
 70
     0
102
RTVSPropertyOp52
 70
     0
102
RTVSPropertyOp53
 70
     1
102
RTVSPropertyOp54
 70
     1
102
RTVSPropertyOp55
 70
     1
102
RTVSPropertyOp56
 70
     1
102
RTVSPropertyOp57
 70
     1
102
RTVSPost2010Prop28
280
     0
102
RTVSPost2010PropOp28
 70
     1
102
RTVSPost2010Prop29
280
     1
102
RTVSPost2010PropOp29
 70
     1
102
RTVSPost2010Prop30
280
     1
102
RTVSPost2010PropOp30
 70
     1
102
RTVSPost2010Prop31
280
     0
102
RTVSPost2010PropOp31
 70
     1
102
RTVSPost2010Prop32
280
     0
102
RTVSPost2010PropOp32
 70
     1
102
RTVSPost2010Prop33
280
     0
102
RTVSPost2010PropOp33
 70
     1
102
RTVSPost2010Prop34
280
     0
102
RTVSPost2010PropOp34
 70
     1
102
RTVSPost2010Prop35
280
     0
102
RTVSPost2010PropOp35
 70
     1
102
RTVSPost2010Prop36
280
     0
102
RTVSPost2010PropOp36
 70
     1
102
RTVSPost2010Prop37
 90
       50
102
RTVSPost2010PropOp37
 70
     1
102
RTVSPost2010Prop38
140
0.0
102
RTVSPost2010PropOp38
 70
     1
102
RTVSPost2010Prop39
140
1.0
102
RTVSPost2010PropOp39
 70
     1
102
RTVSPost2010Prop40
 90
        0
102
RTVSPost2010PropOp40
 70
     1
102
RTVSPost2010Prop41ColorIndex
 90
       18
102
RTVSPost2010Prop41ColorRGB
 90
        0
102
RTVSPost2010PropOp41
 70
     1
102
RTVSPost2010Prop42
 90
       50
102
RTVSPost2010PropOp42
 70
     1
102
RTVSPost2010Prop43
 90
        3
102
RTVSPost2010PropOp43
 70
     1
102
RTVSPost2010Prop44ColorIndex
 90
        5
102
RTVSPost2010Prop44ColorRGB
 90
      255
102
RTVSPost2010PropOp44
 70
     1
102
RTVSPost2010Prop45
280
     0
102
RTVSPost2010PropOp45
 70
     1
102
RTVSPost2010Prop46
 90
       50
102
RTVSPost2010PropOp46
 70
     1
102
RTVSPost2010Prop47
 90
       50
102
RTVSPost2010PropOp47
 70
     1
102
RTVSPost2010Prop48
 90
       50
102
RTVSPost2010PropOp48
 70
     1
102
RTVSPost2010Prop49
280
     0
102
RTVSPost2010PropOp49
 70
     1
102
RTVSPost2010Prop50
 90
       50
102
RTVSPost2010PropOp50
 70
     1
102
RTVSPost2010Prop51ColorIndex
 90
      256
102
RTVSPost2010Prop51ColorRGB
 90
-16777216
102
RTVSPost2010PropOp51
 70
     0
102
RTVSPost2010Prop52
140
1.0
102
RTVSPost2010PropOp52
 70
     0
102
RTVSPost2010Prop53
 90
        2
102
RTVSPost2010PropOp53
 70
     1
102
RTVSPost2010Prop54
  1
strokes_ogs.tif
102
RTVSPost2010PropOp54
 70
     1
102
RTVSPost2010Prop55
280
     0
102
RTVSPost2010PropOp55
 70
     1
102
RTVSPost2010Prop56
140
1.0
102
RTVSPost2010PropOp56
 70
     1
102
RTVSPost2010Prop57
140
1.0
102
RTVSPost2010PropOp57
 70
     1
  0
XRECORD
  5
466
102
{ACAD_REACTORS
330
465
102
}
330
465
100
AcDbXrecord
280
     1
102
RTVSPropertyOp0
 70
     0
102
RTVSPropertyOp1
 70
     0
102
RTVSPropertyOp2
 70
     0
102
RTVSPropertyOp3
 70
     0
102
RTVSPropertyOp4
 70
     0
102
RTVSPropertyOp5
 70
     0
102
RTVSPropertyOp6
 70
     0
102
RTVSPropertyOp7
 70
     0
102
RTVSPropertyOp8
 70
     0
102
RTVSPropertyOp9
 70
     0
102
RTVSPropertyOp10
 70
     0
102
RTVSPropertyOp11
 70
     0
102
RTVSPropertyOp12
 70
     0
102
RTVSPropertyOp13
 70
     0
102
RTVSPropertyOp14
 70
     2
102
RTVSPropertyOp15
 70
     0
102
RTVSPropertyOp16
 70
     0
102
RTVSPropertyOp17
 70
     0
102
RTVSPropertyOp18
 70
     0
102
RTVSPropertyOp19
 70
     0
102
RTVSPropertyOp20
 70
     0
102
RTVSPropertyOp21
 70
     0
102
RTVSPropertyOp22
 70
     0
102
RTVSPropertyOp23
 70
     0
102
RTVSPropertyOp24
 70
     0
102
RTVSPropertyOp25
 70
     0
102
RTVSPropertyOp26
 70
     0
102
RTVSPropertyOp27
 70
     0
102
RTVSPropertyOp28
 70
     1
102
RTVSPropertyOp29
 70
     1
102
RTVSPropertyOp30
 70
     1
102
RTVSPropertyOp31
 70
     1
102
RTVSPropertyOp32
 70
     1
102
RTVSPropertyOp33
 70
     1
102
RTVSPropertyOp34
 70
     1
102
RTVSPropertyOp35
 70
     1
102
RTVSPropertyOp36
 70
     1
102
RTVSPropertyOp37
 70
     0
102
RTVSPropertyOp38
 70
     0
102
RTVSPropertyOp39
 70
     0
102
RTVSPropertyOp40
 70
     0
102
RTVSPropertyOp41
 70
     0
102
RTVSPropertyOp42
 70
     0
102
RTVSPropertyOp43
 70
     0
102
RTVSPropertyOp44
 70
     0
102
RTVSPropertyOp45
 70
     1
102
RTVSPropertyOp46
 70
     0
102
RTVSPropertyOp47
 70
     0
102
RTVSPropertyOp48
 70
     0
102
RTVSPropertyOp49
 70
     1
102
RTVSPropertyOp50
 70
     0
102
RTVSPropertyOp51
 70
     0
102
RTVSPropertyOp52
 70
     0
102
RTVSPropertyOp53
 70
     0
102
RTVSPropertyOp54
 70
     0
102
RTVSPropertyOp55
 70
     1
102
RTVSPropertyOp56
 70
     0
102
RTVSPropertyOp57
 70
     0
102
RTVSPost2010Prop28
280
     0
102
RTVSPost2010PropOp28
 70
     1
102
RTVSPost2010Prop29
280
     1
102
RTVSPost2010PropOp29
 70
     1
102
RTVSPost2010Prop30
280
     1
102
RTVSPost2010PropOp30
 70
     1
102
RTVSPost2010Prop31
280
     0
102
RTVSPost2010PropOp31
 70
     1
102
RTVSPost2010Prop32
280
     0
102
RTVSPost2010PropOp32
 70
     1
102
RTVSPost2010Prop33
280
     0
102
RTVSPost2010PropOp33
 70
     1
102
RTVSPost2010Prop34
280
     0
102
RTVSPost2010PropOp34
 70
     1
102
RTVSPost2010Prop35
280
     0
102
RTVSPost2010PropOp35
 70
     1
102
RTVSPost2010Prop36
280
     0
102
RTVSPost2010PropOp36
 70
     1
102
RTVSPost2010Prop37
 90
       50
102
RTVSPost2010PropOp37
 70
     0
102
RTVSPost2010Prop38
140
0.0
102
RTVSPost2010PropOp38
 70
     0
102
RTVSPost2010Prop39
140
1.0
102
RTVSPost2010PropOp39
 70
     0
102
RTVSPost2010Prop40
 90
        0
102
RTVSPost2010PropOp40
 70
     0
102
RTVSPost2010Prop41ColorIndex
 90
       18
102
RTVSPost2010Prop41ColorRGB
 90
        0
102
RTVSPost2010PropOp41
 70
     0
102
RTVSPost2010Prop42
 90
       50
102
RTVSPost2010PropOp42
 70
     0
102
RTVSPost2010Prop43
 90
        3
102
RTVSPost2010PropOp43
 70
     0
102
RTVSPost2010Prop44ColorIndex
 90
        5
102
RTVSPost2010Prop44ColorRGB
 90
      255
102
RTVSPost2010PropOp44
 70
     0
102
RTVSPost2010Prop45
280
     0
102
RTVSPost2010PropOp45
 70
     1
102
RTVSPost2010Prop46
 90
       50
102
RTVSPost2010PropOp46
 70
     0
102
RTVSPost2010Prop47
 90
       50
102
RTVSPost2010PropOp47
 70
     0
102
RTVSPost2010Prop48
 90
       50
102
RTVSPost2010PropOp48
 70
     0
102
RTVSPost2010Prop49
280
     0
102
RTVSPost2010PropOp49
 70
     1
102
RTVSPost2010Prop50
 90
       50
102
RTVSPost2010PropOp50
 70
     0
102
RTVSPost2010Prop51ColorIndex
 90
      256
102
RTVSPost2010Prop51ColorRGB
 90
-16777216
102
RTVSPost2010PropOp51
 70
     0
102
RTVSPost2010Prop52
140
1.0
102
RTVSPost2010PropOp52
 70
     0
102
RTVSPost2010Prop53
 90
        2
102
RTVSPost2010PropOp53
 70
     0
102
RTVSPost2010Prop54
  1
strokes_ogs.tif
102
RTVSPost2010PropOp54
 70
     0
102
RTVSPost2010Prop55
280
     0
102
RTVSPost2010PropOp55
 70
     1
102
RTVSPost2010Prop56
140
1.0
102
RTVSPost2010PropOp56
 70
     0
102
RTVSPost2010Prop57
140
1.0
102
RTVSPost2010PropOp57
 70
     0
  0
XRECORD
  5
468
102
{ACAD_REACTORS
330
467
102
}
330
467
100
AcDbXrecord
280
     1
102
RTVSPropertyOp0
 70
     1
102
RTVSPropertyOp1
 70
     1
102
RTVSPropertyOp2
 70
     1
102
RTVSPropertyOp3
 70
     1
102
RTVSPropertyOp4
 70
     1
102
RTVSPropertyOp5
 70
     1
102
RTVSPropertyOp6
 70
     1
102
RTVSPropertyOp7
 70
     1
102
RTVSPropertyOp8
 70
     1
102
RTVSPropertyOp9
 70
     1
102
RTVSPropertyOp10
 70
     1
102
RTVSPropertyOp11
 70
     1
102
RTVSPropertyOp12
 70
     1
102
RTVSPropertyOp13
 70
     1
102
RTVSPropertyOp14
 70
     1
102
RTVSPropertyOp15
 70
     1
102
RTVSPropertyOp16
 70
     1
102
RTVSPropertyOp17
 70
     1
102
RTVSPropertyOp18
 70
     1
102
RTVSPropertyOp19
 70
     1
102
RTVSPropertyOp20
 70
     1
102
RTVSPropertyOp21
 70
     1
102
RTVSPropertyOp22
 70
     1
102
RTVSPropertyOp23
 70
     1
102
RTVSPropertyOp24
 70
     1
102
RTVSPropertyOp25
 70
     1
102
RTVSPropertyOp26
 70
     1
102
RTVSPropertyOp27
 70
     1
102
RTVSPropertyOp28
 70
     1
102
RTVSPropertyOp29
 70
     1
102
RTVSPropertyOp30
 70
     1
102
RTVSPropertyOp31
 70
     1
102
RTVSPropertyOp32
 70
     1
102
RTVSPropertyOp33
 70
     1
102
RTVSPropertyOp34
 70
     1
102
RTVSPropertyOp35
 70
     1
102
RTVSPropertyOp36
 70
     1
102
RTVSPropertyOp37
 70
     1
102
RTVSPropertyOp38
 70
     1
102
RTVSPropertyOp39
 70
     1
102
RTVSPropertyOp40
 70
     1
102
RTVSPropertyOp41
 70
     1
102
RTVSPropertyOp42
 70
     1
102
RTVSPropertyOp43
 70
     1
102
RTVSPropertyOp44
 70
     1
102
RTVSPropertyOp45
 70
     1
102
RTVSPropertyOp46
 70
     1
102
RTVSPropertyOp47
 70
     1
102
RTVSPropertyOp48
 70
     1
102
RTVSPropertyOp49
 70
     1
102
RTVSPropertyOp50
 70
     1
102
RTVSPropertyOp51
 70
     0
102
RTVSPropertyOp52
 70
     0
102
RTVSPropertyOp53
 70
     1
102
RTVSPropertyOp54
 70
     1
102
RTVSPropertyOp55
 70
     1
102
RTVSPropertyOp56
 70
     1
102
RTVSPropertyOp57
 70
     1
102
RTVSPost2010Prop28
280
     0
102
RTVSPost2010PropOp28
 70
     1
102
RTVSPost2010Prop29
280
     1
102
RTVSPost2010PropOp29
 70
     1
102
RTVSPost2010Prop30
280
     1
102
RTVSPost2010PropOp30
 70
     1
102
RTVSPost2010Prop31
280
     0
102
RTVSPost2010PropOp31
 70
     1
102
RTVSPost2010Prop32
280
     0
102
RTVSPost2010PropOp32
 70
     1
102
RTVSPost2010Prop33
280
     0
102
RTVSPost2010PropOp33
 70
     1
102
RTVSPost2010Prop34
280
     0
102
RTVSPost2010PropOp34
 70
     1
102
RTVSPost2010Prop35
280
     0
102
RTVSPost2010PropOp35
 70
     1
102
RTVSPost2010Prop36
280
     0
102
RTVSPost2010PropOp36
 70
     1
102
RTVSPost2010Prop37
 90
       50
102
RTVSPost2010PropOp37
 70
     1
102
RTVSPost2010Prop38
140
0.0
102
RTVSPost2010PropOp38
 70
     1
102
RTVSPost2010Prop39
140
1.0
102
RTVSPost2010PropOp39
 70
     1
102
RTVSPost2010Prop40
 90
        0
102
RTVSPost2010PropOp40
 70
     1
102
RTVSPost2010Prop41ColorIndex
 90
       18
102
RTVSPost2010Prop41ColorRGB
 90
        0
102
RTVSPost2010PropOp41
 70
     1
102
RTVSPost2010Prop42
 90
       50
102
RTVSPost2010PropOp42
 70
     1
102
RTVSPost2010Prop43
 90
        3
102
RTVSPost2010PropOp43
 70
     1
102
RTVSPost2010Prop44ColorIndex
 90
        5
102
RTVSPost2010Prop44ColorRGB
 90
      255
102
RTVSPost2010PropOp44
 70
     1
102
RTVSPost2010Prop45
280
     0
102
RTVSPost2010PropOp45
 70
     1
102
RTVSPost2010Prop46
 90
       50
102
RTVSPost2010PropOp46
 70
     1
102
RTVSPost2010Prop47
 90
       50
102
RTVSPost2010PropOp47
 70
     1
102
RTVSPost2010Prop48
 90
       50
102
RTVSPost2010PropOp48
 70
     1
102
RTVSPost2010Prop49
280
     0
102
RTVSPost2010PropOp49
 70
     1
102
RTVSPost2010Prop50
 90
       50
102
RTVSPost2010PropOp50
 70
     1
102
RTVSPost2010Prop51ColorIndex
 90
      256
102
RTVSPost2010Prop51ColorRGB
 90
-16777216
102
RTVSPost2010PropOp51
 70
     0
102
RTVSPost2010Prop52
140
1.0
102
RTVSPost2010PropOp52
 70
     0
102
RTVSPost2010Prop53
 90
        2
102
RTVSPost2010PropOp53
 70
     1
102
RTVSPost2010Prop54
  1
strokes_ogs.tif
102
RTVSPost2010PropOp54
 70
     1
102
RTVSPost2010Prop55
280
     0
102
RTVSPost2010PropOp55
 70
     1
102
RTVSPost2010Prop56
140
1.0
102
RTVSPost2010PropOp56
 70
     1
102
RTVSPost2010Prop57
140
1.0
102
RTVSPost2010PropOp57
 70
     1
  0
XRECORD
  5
46A
102
{ACAD_REACTORS
330
469
102
}
330
469
100
AcDbXrecord
280
     1
102
RTVSPropertyOp0
 70
     0
102
RTVSPropertyOp1
 70
     0
102
RTVSPropertyOp2
 70
     0
102
RTVSPropertyOp3
 70
     0
102
RTVSPropertyOp4
 70
     0
102
RTVSPropertyOp5
 70
     0
102
RTVSPropertyOp6
 70
     0
102
RTVSPropertyOp7
 70
     0
102
RTVSPropertyOp8
 70
     0
102
RTVSPropertyOp9
 70
     0
102
RTVSPropertyOp10
 70
     0
102
RTVSPropertyOp11
 70
     0
102
RTVSPropertyOp12
 70
     0
102
RTVSPropertyOp13
 70
     0
102
RTVSPropertyOp14
 70
     2
102
RTVSPropertyOp15
 70
     0
102
RTVSPropertyOp16
 70
     0
102
RTVSPropertyOp17
 70
     0
102
RTVSPropertyOp18
 70
     0
102
RTVSPropertyOp19
 70
     0
102
RTVSPropertyOp20
 70
     0
102
RTVSPropertyOp21
 70
     0
102
RTVSPropertyOp22
 70
     0
102
RTVSPropertyOp23
 70
     0
102
RTVSPropertyOp24
 70
     0
102
RTVSPropertyOp25
 70
     0
102
RTVSPropertyOp26
 70
     0
102
RTVSPropertyOp27
 70
     0
102
RTVSPropertyOp28
 70
     1
102
RTVSPropertyOp29
 70
     1
102
RTVSPropertyOp30
 70
     1
102
RTVSPropertyOp31
 70
     1
102
RTVSPropertyOp32
 70
     1
102
RTVSPropertyOp33
 70
     1
102
RTVSPropertyOp34
 70
     1
102
RTVSPropertyOp35
 70
     1
102
RTVSPropertyOp36
 70
     1
102
RTVSPropertyOp37
 70
     0
102
RTVSPropertyOp38
 70
     0
102
RTVSPropertyOp39
 70
     0
102
RTVSPropertyOp40
 70
     0
102
RTVSPropertyOp41
 70
     0
102
RTVSPropertyOp42
 70
     0
102
RTVSPropertyOp43
 70
     0
102
RTVSPropertyOp44
 70
     0
102
RTVSPropertyOp45
 70
     1
102
RTVSPropertyOp46
 70
     0
102
RTVSPropertyOp47
 70
     0
102
RTVSPropertyOp48
 70
     0
102
RTVSPropertyOp49
 70
     1
102
RTVSPropertyOp50
 70
     0
102
RTVSPropertyOp51
 70
     0
102
RTVSPropertyOp52
 70
     0
102
RTVSPropertyOp53
 70
     0
102
RTVSPropertyOp54
 70
     0
102
RTVSPropertyOp55
 70
     1
102
RTVSPropertyOp56
 70
     0
102
RTVSPropertyOp57
 70
     0
102
RTVSPost2010Prop28
280
     0
102
RTVSPost2010PropOp28
 70
     1
102
RTVSPost2010Prop29
280
     1
102
RTVSPost2010PropOp29
 70
     1
102
RTVSPost2010Prop30
280
     1
102
RTVSPost2010PropOp30
 70
     1
102
RTVSPost2010Prop31
280
     0
102
RTVSPost2010PropOp31
 70
     1
102
RTVSPost2010Prop32
280
     0
102
RTVSPost2010PropOp32
 70
     1
102
RTVSPost2010Prop33
280
     0
102
RTVSPost2010PropOp33
 70
     1
102
RTVSPost2010Prop34
280
     0
102
RTVSPost2010PropOp34
 70
     1
102
RTVSPost2010Prop35
280
     0
102
RTVSPost2010PropOp35
 70
     1
102
RTVSPost2010Prop36
280
     0
102
RTVSPost2010PropOp36
 70
     1
102
RTVSPost2010Prop37
 90
       50
102
RTVSPost2010PropOp37
 70
     0
102
RTVSPost2010Prop38
140
0.0
102
RTVSPost2010PropOp38
 70
     0
102
RTVSPost2010Prop39
140
1.0
102
RTVSPost2010PropOp39
 70
     0
102
RTVSPost2010Prop40
 90
        0
102
RTVSPost2010PropOp40
 70
     0
102
RTVSPost2010Prop41ColorIndex
 90
       18
102
RTVSPost2010Prop41ColorRGB
 90
        0
102
RTVSPost2010PropOp41
 70
     0
102
RTVSPost2010Prop42
 90
       50
102
RTVSPost2010PropOp42
 70
     0
102
RTVSPost2010Prop43
 90
        3
102
RTVSPost2010PropOp43
 70
     0
102
RTVSPost2010Prop44ColorIndex
 90
        5
102
RTVSPost2010Prop44ColorRGB
 90
      255
102
RTVSPost2010PropOp44
 70
     0
102
RTVSPost2010Prop45
280
     0
102
RTVSPost2010PropOp45
 70
     1
102
RTVSPost2010Prop46
 90
       50
102
RTVSPost2010PropOp46
 70
     0
102
RTVSPost2010Prop47
 90
       50
102
RTVSPost2010PropOp47
 70
     0
102
RTVSPost2010Prop48
 90
       50
102
RTVSPost2010PropOp48
 70
     0
102
RTVSPost2010Prop49
280
     0
102
RTVSPost2010PropOp49
 70
     1
102
RTVSPost2010Prop50
 90
       50
102
RTVSPost2010PropOp50
 70
     0
102
RTVSPost2010Prop51ColorIndex
 90
      256
102
RTVSPost2010Prop51ColorRGB
 90
-16777216
102
RTVSPost2010PropOp51
 70
     0
102
RTVSPost2010Prop52
140
1.0
102
RTVSPost2010PropOp52
 70
     0
102
RTVSPost2010Prop53
 90
        2
102
RTVSPost2010PropOp53
 70
     0
102
RTVSPost2010Prop54
  1
strokes_ogs.tif
102
RTVSPost2010PropOp54
 70
     0
102
RTVSPost2010Prop55
280
     0
102
RTVSPost2010PropOp55
 70
     1
102
RTVSPost2010Prop56
140
1.0
102
RTVSPost2010PropOp56
 70
     0
102
RTVSPost2010Prop57
140
1.0
102
RTVSPost2010PropOp57
 70
     0
  0
XRECORD
  5
46C
102
{ACAD_REACTORS
330
46B
102
}
330
46B
100
AcDbXrecord
280
     1
102
RTVSPropertyOp0
 70
     1
102
RTVSPropertyOp1
 70
     1
102
RTVSPropertyOp2
 70
     1
102
RTVSPropertyOp3
 70
     1
102
RTVSPropertyOp4
 70
     1
102
RTVSPropertyOp5
 70
     1
102
RTVSPropertyOp6
 70
     1
102
RTVSPropertyOp7
 70
     1
102
RTVSPropertyOp8
 70
     1
102
RTVSPropertyOp9
 70
     1
102
RTVSPropertyOp10
 70
     1
102
RTVSPropertyOp11
 70
     1
102
RTVSPropertyOp12
 70
     1
102
RTVSPropertyOp13
 70
     1
102
RTVSPropertyOp14
 70
     1
102
RTVSPropertyOp15
 70
     1
102
RTVSPropertyOp16
 70
     1
102
RTVSPropertyOp17
 70
     1
102
RTVSPropertyOp18
 70
     1
102
RTVSPropertyOp19
 70
     1
102
RTVSPropertyOp20
 70
     1
102
RTVSPropertyOp21
 70
     1
102
RTVSPropertyOp22
 70
     1
102
RTVSPropertyOp23
 70
     1
102
RTVSPropertyOp24
 70
     1
102
RTVSPropertyOp25
 70
     1
102
RTVSPropertyOp26
 70
     1
102
RTVSPropertyOp27
 70
     1
102
RTVSPropertyOp28
 70
     1
102
RTVSPropertyOp29
 70
     1
102
RTVSPropertyOp30
 70
     1
102
RTVSPropertyOp31
 70
     1
102
RTVSPropertyOp32
 70
     1
102
RTVSPropertyOp33
 70
     1
102
RTVSPropertyOp34
 70
     1
102
RTVSPropertyOp35
 70
     1
102
RTVSPropertyOp36
 70
     1
102
RTVSPropertyOp37
 70
     1
102
RTVSPropertyOp38
 70
     1
102
RTVSPropertyOp39
 70
     1
102
RTVSPropertyOp40
 70
     1
102
RTVSPropertyOp41
 70
     1
102
RTVSPropertyOp42
 70
     1
102
RTVSPropertyOp43
 70
     1
102
RTVSPropertyOp44
 70
     1
102
RTVSPropertyOp45
 70
     1
102
RTVSPropertyOp46
 70
     1
102
RTVSPropertyOp47
 70
     1
102
RTVSPropertyOp48
 70
     1
102
RTVSPropertyOp49
 70
     1
102
RTVSPropertyOp50
 70
     1
102
RTVSPropertyOp51
 70
     0
102
RTVSPropertyOp52
 70
     0
102
RTVSPropertyOp53
 70
     1
102
RTVSPropertyOp54
 70
     1
102
RTVSPropertyOp55
 70
     1
102
RTVSPropertyOp56
 70
     1
102
RTVSPropertyOp57
 70
     1
102
RTVSPost2010Prop28
280
     0
102
RTVSPost2010PropOp28
 70
     1
102
RTVSPost2010Prop29
280
     1
102
RTVSPost2010PropOp29
 70
     1
102
RTVSPost2010Prop30
280
     1
102
RTVSPost2010PropOp30
 70
     1
102
RTVSPost2010Prop31
280
     0
102
RTVSPost2010PropOp31
 70
     1
102
RTVSPost2010Prop32
280
     0
102
RTVSPost2010PropOp32
 70
     1
102
RTVSPost2010Prop33
280
     0
102
RTVSPost2010PropOp33
 70
     1
102
RTVSPost2010Prop34
280
     0
102
RTVSPost2010PropOp34
 70
     1
102
RTVSPost2010Prop35
280
     0
102
RTVSPost2010PropOp35
 70
     1
102
RTVSPost2010Prop36
280
     0
102
RTVSPost2010PropOp36
 70
     1
102
RTVSPost2010Prop37
 90
       50
102
RTVSPost2010PropOp37
 70
     1
102
RTVSPost2010Prop38
140
0.0
102
RTVSPost2010PropOp38
 70
     1
102
RTVSPost2010Prop39
140
1.0
102
RTVSPost2010PropOp39
 70
     1
102
RTVSPost2010Prop40
 90
        0
102
RTVSPost2010PropOp40
 70
     1
102
RTVSPost2010Prop41ColorIndex
 90
       18
102
RTVSPost2010Prop41ColorRGB
 90
        0
102
RTVSPost2010PropOp41
 70
     1
102
RTVSPost2010Prop42
 90
       50
102
RTVSPost2010PropOp42
 70
     1
102
RTVSPost2010Prop43
 90
        3
102
RTVSPost2010PropOp43
 70
     1
102
RTVSPost2010Prop44ColorIndex
 90
        5
102
RTVSPost2010Prop44ColorRGB
 90
      255
102
RTVSPost2010PropOp44
 70
     1
102
RTVSPost2010Prop45
280
     0
102
RTVSPost2010PropOp45
 70
     1
102
RTVSPost2010Prop46
 90
       50
102
RTVSPost2010PropOp46
 70
     1
102
RTVSPost2010Prop47
 90
       50
102
RTVSPost2010PropOp47
 70
     1
102
RTVSPost2010Prop48
 90
       50
102
RTVSPost2010PropOp48
 70
     1
102
RTVSPost2010Prop49
280
     0
102
RTVSPost2010PropOp49
 70
     1
102
RTVSPost2010Prop50
 90
       50
102
RTVSPost2010PropOp50
 70
     1
102
RTVSPost2010Prop51ColorIndex
 90
      256
102
RTVSPost2010Prop51ColorRGB
 90
-16777216
102
RTVSPost2010PropOp51
 70
     0
102
RTVSPost2010Prop52
140
1.0
102
RTVSPost2010PropOp52
 70
     0
102
RTVSPost2010Prop53
 90
        2
102
RTVSPost2010PropOp53
 70
     1
102
RTVSPost2010Prop54
  1
strokes_ogs.tif
102
RTVSPost2010PropOp54
 70
     1
102
RTVSPost2010Prop55
280
     0
102
RTVSPost2010PropOp55
 70
     1
102
RTVSPost2010Prop56
140
1.0
102
RTVSPost2010PropOp56
 70
     1
102
RTVSPost2010Prop57
140
1.0
102
RTVSPost2010PropOp57
 70
     1
  0
XRECORD
  5
46E
102
{ACAD_REACTORS
330
46D
102
}
330
46D
100
AcDbXrecord
280
     1
102
RTVSPropertyOp0
 70
     1
102
RTVSPropertyOp1
 70
     1
102
RTVSPropertyOp2
 70
     1
102
RTVSPropertyOp3
 70
     1
102
RTVSPropertyOp4
 70
     1
102
RTVSPropertyOp5
 70
     1
102
RTVSPropertyOp6
 70
     1
102
RTVSPropertyOp7
 70
     1
102
RTVSPropertyOp8
 70
     1
102
RTVSPropertyOp9
 70
     1
102
RTVSPropertyOp10
 70
     1
102
RTVSPropertyOp11
 70
     1
102
RTVSPropertyOp12
 70
     1
102
RTVSPropertyOp13
 70
     1
102
RTVSPropertyOp14
 70
     1
102
RTVSPropertyOp15
 70
     1
102
RTVSPropertyOp16
 70
     1
102
RTVSPropertyOp17
 70
     1
102
RTVSPropertyOp18
 70
     1
102
RTVSPropertyOp19
 70
     1
102
RTVSPropertyOp20
 70
     1
102
RTVSPropertyOp21
 70
     1
102
RTVSPropertyOp22
 70
     1
102
RTVSPropertyOp23
 70
     1
102
RTVSPropertyOp24
 70
     1
102
RTVSPropertyOp25
 70
     1
102
RTVSPropertyOp26
 70
     1
102
RTVSPropertyOp27
 70
     1
102
RTVSPropertyOp28
 70
     1
102
RTVSPropertyOp29
 70
     1
102
RTVSPropertyOp30
 70
     1
102
RTVSPropertyOp31
 70
     1
102
RTVSPropertyOp32
 70
     1
102
RTVSPropertyOp33
 70
     1
102
RTVSPropertyOp34
 70
     1
102
RTVSPropertyOp35
 70
     1
102
RTVSPropertyOp36
 70
     1
102
RTVSPropertyOp37
 70
     1
102
RTVSPropertyOp38
 70
     1
102
RTVSPropertyOp39
 70
     1
102
RTVSPropertyOp40
 70
     1
102
RTVSPropertyOp41
 70
     1
102
RTVSPropertyOp42
 70
     1
102
RTVSPropertyOp43
 70
     1
102
RTVSPropertyOp44
 70
     1
102
RTVSPropertyOp45
 70
     1
102
RTVSPropertyOp46
 70
     1
102
RTVSPropertyOp47
 70
     1
102
RTVSPropertyOp48
 70
     1
102
RTVSPropertyOp49
 70
     1
102
RTVSPropertyOp50
 70
     1
102
RTVSPropertyOp51
 70
     0
102
RTVSPropertyOp52
 70
     0
102
RTVSPropertyOp53
 70
     1
102
RTVSPropertyOp54
 70
     1
102
RTVSPropertyOp55
 70
     1
102
RTVSPropertyOp56
 70
     1
102
RTVSPropertyOp57
 70
     1
102
RTVSPost2010Prop28
280
     0
102
RTVSPost2010PropOp28
 70
     1
102
RTVSPost2010Prop29
280
     1
102
RTVSPost2010PropOp29
 70
     1
102
RTVSPost2010Prop30
280
     1
102
RTVSPost2010PropOp30
 70
     1
102
RTVSPost2010Prop31
280
     0
102
RTVSPost2010PropOp31
 70
     1
102
RTVSPost2010Prop32
280
     0
102
RTVSPost2010PropOp32
 70
     1
102
RTVSPost2010Prop33
280
     0
102
RTVSPost2010PropOp33
 70
     1
102
RTVSPost2010Prop34
280
     0
102
RTVSPost2010PropOp34
 70
     1
102
RTVSPost2010Prop35
280
     0
102
RTVSPost2010PropOp35
 70
     1
102
RTVSPost2010Prop36
280
     0
102
RTVSPost2010PropOp36
 70
     1
102
RTVSPost2010Prop37
 90
       50
102
RTVSPost2010PropOp37
 70
     1
102
RTVSPost2010Prop38
140
0.0
102
RTVSPost2010PropOp38
 70
     1
102
RTVSPost2010Prop39
140
1.0
102
RTVSPost2010PropOp39
 70
     1
102
RTVSPost2010Prop40
 90
        0
102
RTVSPost2010PropOp40
 70
     1
102
RTVSPost2010Prop41ColorIndex
 90
       18
102
RTVSPost2010Prop41ColorRGB
 90
        0
102
RTVSPost2010PropOp41
 70
     1
102
RTVSPost2010Prop42
 90
       50
102
RTVSPost2010PropOp42
 70
     1
102
RTVSPost2010Prop43
 90
        3
102
RTVSPost2010PropOp43
 70
     1
102
RTVSPost2010Prop44ColorIndex
 90
        5
102
RTVSPost2010Prop44ColorRGB
 90
      255
102
RTVSPost2010PropOp44
 70
     1
102
RTVSPost2010Prop45
280
     0
102
RTVSPost2010PropOp45
 70
     1
102
RTVSPost2010Prop46
 90
       50
102
RTVSPost2010PropOp46
 70
     1
102
RTVSPost2010Prop47
 90
       50
102
RTVSPost2010PropOp47
 70
     1
102
RTVSPost2010Prop48
 90
       50
102
RTVSPost2010PropOp48
 70
     1
102
RTVSPost2010Prop49
280
     0
102
RTVSPost2010PropOp49
 70
     1
102
RTVSPost2010Prop50
 90
       50
102
RTVSPost2010PropOp50
 70
     1
102
RTVSPost2010Prop51ColorIndex
 90
      256
102
RTVSPost2010Prop51ColorRGB
 90
-16777216
102
RTVSPost2010PropOp51
 70
     0
102
RTVSPost2010Prop52
140
1.0
102
RTVSPost2010PropOp52
 70
     0
102
RTVSPost2010Prop53
 90
        2
102
RTVSPost2010PropOp53
 70
     1
102
RTVSPost2010Prop54
  1
strokes_ogs.tif
102
RTVSPost2010PropOp54
 70
     1
102
RTVSPost2010Prop55
280
     0
102
RTVSPost2010PropOp55
 70
     1
102
RTVSPost2010Prop56
140
1.0
102
RTVSPost2010PropOp56
 70
     1
102
RTVSPost2010Prop57
140
1.0
102
RTVSPost2010PropOp57
 70
     1
  0
XRECORD
  5
470
102
{ACAD_REACTORS
330
46F
102
}
330
46F
100
AcDbXrecord
280
     1
102
RTVSPropertyOp0
 70
     1
102
RTVSPropertyOp1
 70
     1
102
RTVSPropertyOp2
 70
     1
102
RTVSPropertyOp3
 70
     1
102
RTVSPropertyOp4
 70
     1
102
RTVSPropertyOp5
 70
     1
102
RTVSPropertyOp6
 70
     1
102
RTVSPropertyOp7
 70
     1
102
RTVSPropertyOp8
 70
     1
102
RTVSPropertyOp9
 70
     1
102
RTVSPropertyOp10
 70
     1
102
RTVSPropertyOp11
 70
     1
102
RTVSPropertyOp12
 70
     1
102
RTVSPropertyOp13
 70
     1
102
RTVSPropertyOp14
 70
     1
102
RTVSPropertyOp15
 70
     1
102
RTVSPropertyOp16
 70
     1
102
RTVSPropertyOp17
 70
     1
102
RTVSPropertyOp18
 70
     1
102
RTVSPropertyOp19
 70
     1
102
RTVSPropertyOp20
 70
     1
102
RTVSPropertyOp21
 70
     1
102
RTVSPropertyOp22
 70
     1
102
RTVSPropertyOp23
 70
     1
102
RTVSPropertyOp24
 70
     1
102
RTVSPropertyOp25
 70
     1
102
RTVSPropertyOp26
 70
     1
102
RTVSPropertyOp27
 70
     1
102
RTVSPropertyOp28
 70
     1
102
RTVSPropertyOp29
 70
     1
102
RTVSPropertyOp30
 70
     1
102
RTVSPropertyOp31
 70
     1
102
RTVSPropertyOp32
 70
     1
102
RTVSPropertyOp33
 70
     1
102
RTVSPropertyOp34
 70
     1
102
RTVSPropertyOp35
 70
     1
102
RTVSPropertyOp36
 70
     1
102
RTVSPropertyOp37
 70
     1
102
RTVSPropertyOp38
 70
     1
102
RTVSPropertyOp39
 70
     1
102
RTVSPropertyOp40
 70
     1
102
RTVSPropertyOp41
 70
     1
102
RTVSPropertyOp42
 70
     1
102
RTVSPropertyOp43
 70
     1
102
RTVSPropertyOp44
 70
     1
102
RTVSPropertyOp45
 70
     1
102
RTVSPropertyOp46
 70
     1
102
RTVSPropertyOp47
 70
     1
102
RTVSPropertyOp48
 70
     1
102
RTVSPropertyOp49
 70
     1
102
RTVSPropertyOp50
 70
     1
102
RTVSPropertyOp51
 70
     0
102
RTVSPropertyOp52
 70
     0
102
RTVSPropertyOp53
 70
     1
102
RTVSPropertyOp54
 70
     1
102
RTVSPropertyOp55
 70
     1
102
RTVSPropertyOp56
 70
     1
102
RTVSPropertyOp57
 70
     1
102
RTVSPost2010Prop28
280
     0
102
RTVSPost2010PropOp28
 70
     1
102
RTVSPost2010Prop29
280
     1
102
RTVSPost2010PropOp29
 70
     1
102
RTVSPost2010Prop30
280
     1
102
RTVSPost2010PropOp30
 70
     1
102
RTVSPost2010Prop31
280
     0
102
RTVSPost2010PropOp31
 70
     1
102
RTVSPost2010Prop32
280
     0
102
RTVSPost2010PropOp32
 70
     1
102
RTVSPost2010Prop33
280
     0
102
RTVSPost2010PropOp33
 70
     1
102
RTVSPost2010Prop34
280
     0
102
RTVSPost2010PropOp34
 70
     1
102
RTVSPost2010Prop35
280
     0
102
RTVSPost2010PropOp35
 70
     1
102
RTVSPost2010Prop36
280
     0
102
RTVSPost2010PropOp36
 70
     1
102
RTVSPost2010Prop37
 90
       50
102
RTVSPost2010PropOp37
 70
     1
102
RTVSPost2010Prop38
140
0.0
102
RTVSPost2010PropOp38
 70
     1
102
RTVSPost2010Prop39
140
1.0
102
RTVSPost2010PropOp39
 70
     1
102
RTVSPost2010Prop40
 90
        0
102
RTVSPost2010PropOp40
 70
     1
102
RTVSPost2010Prop41ColorIndex
 90
       18
102
RTVSPost2010Prop41ColorRGB
 90
        0
102
RTVSPost2010PropOp41
 70
     1
102
RTVSPost2010Prop42
 90
       50
102
RTVSPost2010PropOp42
 70
     1
102
RTVSPost2010Prop43
 90
        3
102
RTVSPost2010PropOp43
 70
     1
102
RTVSPost2010Prop44ColorIndex
 90
        5
102
RTVSPost2010Prop44ColorRGB
 90
      255
102
RTVSPost2010PropOp44
 70
     1
102
RTVSPost2010Prop45
280
     0
102
RTVSPost2010PropOp45
 70
     1
102
RTVSPost2010Prop46
 90
       50
102
RTVSPost2010PropOp46
 70
     1
102
RTVSPost2010Prop47
 90
       50
102
RTVSPost2010PropOp47
 70
     1
102
RTVSPost2010Prop48
 90
       50
102
RTVSPost2010PropOp48
 70
     1
102
RTVSPost2010Prop49
280
     0
102
RTVSPost2010PropOp49
 70
     1
102
RTVSPost2010Prop50
 90
       50
102
RTVSPost2010PropOp50
 70
     1
102
RTVSPost2010Prop51ColorIndex
 90
      256
102
RTVSPost2010Prop51ColorRGB
 90
-16777216
102
RTVSPost2010PropOp51
 70
     0
102
RTVSPost2010Prop52
140
1.0
102
RTVSPost2010PropOp52
 70
     0
102
RTVSPost2010Prop53
 90
        2
102
RTVSPost2010PropOp53
 70
     1
102
RTVSPost2010Prop54
  1
strokes_ogs.tif
102
RTVSPost2010PropOp54
 70
     1
102
RTVSPost2010Prop55
280
     0
102
RTVSPost2010PropOp55
 70
     1
102
RTVSPost2010Prop56
140
1.0
102
RTVSPost2010PropOp56
 70
     1
102
RTVSPost2010Prop57
140
1.0
102
RTVSPost2010PropOp57
 70
     1
  0
XRECORD
  5
472
102
{ACAD_REACTORS
330
471
102
}
330
471
100
AcDbXrecord
280
     1
102
RTVSPropertyOp0
 70
     1
102
RTVSPropertyOp1
 70
     1
102
RTVSPropertyOp2
 70
     1
102
RTVSPropertyOp3
 70
     1
102
RTVSPropertyOp4
 70
     1
102
RTVSPropertyOp5
 70
     1
102
RTVSPropertyOp6
 70
     1
102
RTVSPropertyOp7
 70
     1
102
RTVSPropertyOp8
 70
     1
102
RTVSPropertyOp9
 70
     1
102
RTVSPropertyOp10
 70
     1
102
RTVSPropertyOp11
 70
     1
102
RTVSPropertyOp12
 70
     1
102
RTVSPropertyOp13
 70
     1
102
RTVSPropertyOp14
 70
     1
102
RTVSPropertyOp15
 70
     1
102
RTVSPropertyOp16
 70
     1
102
RTVSPropertyOp17
 70
     1
102
RTVSPropertyOp18
 70
     1
102
RTVSPropertyOp19
 70
     1
102
RTVSPropertyOp20
 70
     1
102
RTVSPropertyOp21
 70
     1
102
RTVSPropertyOp22
 70
     1
102
RTVSPropertyOp23
 70
     1
102
RTVSPropertyOp24
 70
     1
102
RTVSPropertyOp25
 70
     1
102
RTVSPropertyOp26
 70
     1
102
RTVSPropertyOp27
 70
     1
102
RTVSPropertyOp28
 70
     1
102
RTVSPropertyOp29
 70
     1
102
RTVSPropertyOp30
 70
     1
102
RTVSPropertyOp31
 70
     1
102
RTVSPropertyOp32
 70
     1
102
RTVSPropertyOp33
 70
     1
102
RTVSPropertyOp34
 70
     1
102
RTVSPropertyOp35
 70
     1
102
RTVSPropertyOp36
 70
     1
102
RTVSPropertyOp37
 70
     1
102
RTVSPropertyOp38
 70
     1
102
RTVSPropertyOp39
 70
     1
102
RTVSPropertyOp40
 70
     1
102
RTVSPropertyOp41
 70
     1
102
RTVSPropertyOp42
 70
     1
102
RTVSPropertyOp43
 70
     1
102
RTVSPropertyOp44
 70
     1
102
RTVSPropertyOp45
 70
     1
102
RTVSPropertyOp46
 70
     1
102
RTVSPropertyOp47
 70
     1
102
RTVSPropertyOp48
 70
     1
102
RTVSPropertyOp49
 70
     1
102
RTVSPropertyOp50
 70
     1
102
RTVSPropertyOp51
 70
     0
102
RTVSPropertyOp52
 70
     0
102
RTVSPropertyOp53
 70
     1
102
RTVSPropertyOp54
 70
     1
102
RTVSPropertyOp55
 70
     1
102
RTVSPropertyOp56
 70
     1
102
RTVSPropertyOp57
 70
     1
102
RTVSPost2010Prop28
280
     0
102
RTVSPost2010PropOp28
 70
     1
102
RTVSPost2010Prop29
280
     1
102
RTVSPost2010PropOp29
 70
     1
102
RTVSPost2010Prop30
280
     1
102
RTVSPost2010PropOp30
 70
     1
102
RTVSPost2010Prop31
280
     0
102
RTVSPost2010PropOp31
 70
     1
102
RTVSPost2010Prop32
280
     0
102
RTVSPost2010PropOp32
 70
     1
102
RTVSPost2010Prop33
280
     0
102
RTVSPost2010PropOp33
 70
     1
102
RTVSPost2010Prop34
280
     0
102
RTVSPost2010PropOp34
 70
     1
102
RTVSPost2010Prop35
280
     0
102
RTVSPost2010PropOp35
 70
     1
102
RTVSPost2010Prop36
280
     0
102
RTVSPost2010PropOp36
 70
     1
102
RTVSPost2010Prop37
 90
       50
102
RTVSPost2010PropOp37
 70
     1
102
RTVSPost2010Prop38
140
0.0
102
RTVSPost2010PropOp38
 70
     1
102
RTVSPost2010Prop39
140
1.0
102
RTVSPost2010PropOp39
 70
     1
102
RTVSPost2010Prop40
 90
        0
102
RTVSPost2010PropOp40
 70
     1
102
RTVSPost2010Prop41ColorIndex
 90
       18
102
RTVSPost2010Prop41ColorRGB
 90
        0
102
RTVSPost2010PropOp41
 70
     1
102
RTVSPost2010Prop42
 90
       50
102
RTVSPost2010PropOp42
 70
     1
102
RTVSPost2010Prop43
 90
        3
102
RTVSPost2010PropOp43
 70
     1
102
RTVSPost2010Prop44ColorIndex
 90
        5
102
RTVSPost2010Prop44ColorRGB
 90
      255
102
RTVSPost2010PropOp44
 70
     1
102
RTVSPost2010Prop45
280
     0
102
RTVSPost2010PropOp45
 70
     1
102
RTVSPost2010Prop46
 90
       50
102
RTVSPost2010PropOp46
 70
     1
102
RTVSPost2010Prop47
 90
       50
102
RTVSPost2010PropOp47
 70
     1
102
RTVSPost2010Prop48
 90
       50
102
RTVSPost2010PropOp48
 70
     1
102
RTVSPost2010Prop49
280
     0
102
RTVSPost2010PropOp49
 70
     1
102
RTVSPost2010Prop50
 90
       50
102
RTVSPost2010PropOp50
 70
     1
102
RTVSPost2010Prop51ColorIndex
 90
      256
102
RTVSPost2010Prop51ColorRGB
 90
-16777216
102
RTVSPost2010PropOp51
 70
     0
102
RTVSPost2010Prop52
140
1.0
102
RTVSPost2010PropOp52
 70
     0
102
RTVSPost2010Prop53
 90
        2
102
RTVSPost2010PropOp53
 70
     1
102
RTVSPost2010Prop54
  1
strokes_ogs.tif
102
RTVSPost2010PropOp54
 70
     1
102
RTVSPost2010Prop55
280
     0
102
RTVSPost2010PropOp55
 70
     1
102
RTVSPost2010Prop56
140
1.0
102
RTVSPost2010PropOp56
 70
     1
102
RTVSPost2010Prop57
140
1.0
102
RTVSPost2010PropOp57
 70
     1
  0
XRECORD
  5
474
102
{ACAD_REACTORS
330
473
102
}
330
473
100
AcDbXrecord
280
     1
102
RTVSPropertyOp0
 70
     1
102
RTVSPropertyOp1
 70
     1
102
RTVSPropertyOp2
 70
     1
102
RTVSPropertyOp3
 70
     1
102
RTVSPropertyOp4
 70
     1
102
RTVSPropertyOp5
 70
     1
102
RTVSPropertyOp6
 70
     1
102
RTVSPropertyOp7
 70
     1
102
RTVSPropertyOp8
 70
     1
102
RTVSPropertyOp9
 70
     1
102
RTVSPropertyOp10
 70
     1
102
RTVSPropertyOp11
 70
     1
102
RTVSPropertyOp12
 70
     1
102
RTVSPropertyOp13
 70
     1
102
RTVSPropertyOp14
 70
     1
102
RTVSPropertyOp15
 70
     1
102
RTVSPropertyOp16
 70
     1
102
RTVSPropertyOp17
 70
     1
102
RTVSPropertyOp18
 70
     1
102
RTVSPropertyOp19
 70
     1
102
RTVSPropertyOp20
 70
     1
102
RTVSPropertyOp21
 70
     1
102
RTVSPropertyOp22
 70
     1
102
RTVSPropertyOp23
 70
     1
102
RTVSPropertyOp24
 70
     1
102
RTVSPropertyOp25
 70
     1
102
RTVSPropertyOp26
 70
     1
102
RTVSPropertyOp27
 70
     1
102
RTVSPropertyOp28
 70
     1
102
RTVSPropertyOp29
 70
     1
102
RTVSPropertyOp30
 70
     1
102
RTVSPropertyOp31
 70
     1
102
RTVSPropertyOp32
 70
     1
102
RTVSPropertyOp33
 70
     1
102
RTVSPropertyOp34
 70
     1
102
RTVSPropertyOp35
 70
     1
102
RTVSPropertyOp36
 70
     1
102
RTVSPropertyOp37
 70
     1
102
RTVSPropertyOp38
 70
     1
102
RTVSPropertyOp39
 70
     1
102
RTVSPropertyOp40
 70
     1
102
RTVSPropertyOp41
 70
     1
102
RTVSPropertyOp42
 70
     1
102
RTVSPropertyOp43
 70
     1
102
RTVSPropertyOp44
 70
     1
102
RTVSPropertyOp45
 70
     1
102
RTVSPropertyOp46
 70
     1
102
RTVSPropertyOp47
 70
     1
102
RTVSPropertyOp48
 70
     1
102
RTVSPropertyOp49
 70
     1
102
RTVSPropertyOp50
 70
     1
102
RTVSPropertyOp51
 70
     0
102
RTVSPropertyOp52
 70
     0
102
RTVSPropertyOp53
 70
     1
102
RTVSPropertyOp54
 70
     1
102
RTVSPropertyOp55
 70
     1
102
RTVSPropertyOp56
 70
     1
102
RTVSPropertyOp57
 70
     1
102
RTVSPost2010Prop28
280
     0
102
RTVSPost2010PropOp28
 70
     1
102
RTVSPost2010Prop29
280
     1
102
RTVSPost2010PropOp29
 70
     1
102
RTVSPost2010Prop30
280
     1
102
RTVSPost2010PropOp30
 70
     1
102
RTVSPost2010Prop31
280
     0
102
RTVSPost2010PropOp31
 70
     1
102
RTVSPost2010Prop32
280
     0
102
RTVSPost2010PropOp32
 70
     1
102
RTVSPost2010Prop33
280
     0
102
RTVSPost2010PropOp33
 70
     1
102
RTVSPost2010Prop34
280
     0
102
RTVSPost2010PropOp34
 70
     1
102
RTVSPost2010Prop35
280
     0
102
RTVSPost2010PropOp35
 70
     1
102
RTVSPost2010Prop36
280
     0
102
RTVSPost2010PropOp36
 70
     1
102
RTVSPost2010Prop37
 90
       50
102
RTVSPost2010PropOp37
 70
     1
102
RTVSPost2010Prop38
140
0.0
102
RTVSPost2010PropOp38
 70
     1
102
RTVSPost2010Prop39
140
1.0
102
RTVSPost2010PropOp39
 70
     1
102
RTVSPost2010Prop40
 90
        0
102
RTVSPost2010PropOp40
 70
     1
102
RTVSPost2010Prop41ColorIndex
 90
       18
102
RTVSPost2010Prop41ColorRGB
 90
        0
102
RTVSPost2010PropOp41
 70
     1
102
RTVSPost2010Prop42
 90
       50
102
RTVSPost2010PropOp42
 70
     1
102
RTVSPost2010Prop43
 90
        3
102
RTVSPost2010PropOp43
 70
     1
102
RTVSPost2010Prop44ColorIndex
 90
        5
102
RTVSPost2010Prop44ColorRGB
 90
      255
102
RTVSPost2010PropOp44
 70
     1
102
RTVSPost2010Prop45
280
     0
102
RTVSPost2010PropOp45
 70
     1
102
RTVSPost2010Prop46
 90
       50
102
RTVSPost2010PropOp46
 70
     1
102
RTVSPost2010Prop47
 90
       50
102
RTVSPost2010PropOp47
 70
     1
102
RTVSPost2010Prop48
 90
       50
102
RTVSPost2010PropOp48
 70
     1
102
RTVSPost2010Prop49
280
     0
102
RTVSPost2010PropOp49
 70
     1
102
RTVSPost2010Prop50
 90
       50
102
RTVSPost2010PropOp50
 70
     1
102
RTVSPost2010Prop51ColorIndex
 90
      256
102
RTVSPost2010Prop51ColorRGB
 90
-16777216
102
RTVSPost2010PropOp51
 70
     0
102
RTVSPost2010Prop52
140
1.0
102
RTVSPost2010PropOp52
 70
     0
102
RTVSPost2010Prop53
 90
        2
102
RTVSPost2010PropOp53
 70
     1
102
RTVSPost2010Prop54
  1
strokes_ogs.tif
102
RTVSPost2010PropOp54
 70
     1
102
RTVSPost2010Prop55
280
     0
102
RTVSPost2010PropOp55
 70
     1
102
RTVSPost2010Prop56
140
1.0
102
RTVSPost2010PropOp56
 70
     1
102
RTVSPost2010Prop57
140
1.0
102
RTVSPost2010PropOp57
 70
     1
  0
XRECORD
  5
476
102
{ACAD_REACTORS
330
475
102
}
330
475
100
AcDbXrecord
280
     1
102
RTVSPropertyOp0
 70
     1
102
RTVSPropertyOp1
 70
     1
102
RTVSPropertyOp2
 70
     1
102
RTVSPropertyOp3
 70
     1
102
RTVSPropertyOp4
 70
     1
102
RTVSPropertyOp5
 70
     1
102
RTVSPropertyOp6
 70
     1
102
RTVSPropertyOp7
 70
     1
102
RTVSPropertyOp8
 70
     1
102
RTVSPropertyOp9
 70
     1
102
RTVSPropertyOp10
 70
     1
102
RTVSPropertyOp11
 70
     1
102
RTVSPropertyOp12
 70
     1
102
RTVSPropertyOp13
 70
     1
102
RTVSPropertyOp14
 70
     1
102
RTVSPropertyOp15
 70
     1
102
RTVSPropertyOp16
 70
     1
102
RTVSPropertyOp17
 70
     1
102
RTVSPropertyOp18
 70
     1
102
RTVSPropertyOp19
 70
     1
102
RTVSPropertyOp20
 70
     1
102
RTVSPropertyOp21
 70
     1
102
RTVSPropertyOp22
 70
     1
102
RTVSPropertyOp23
 70
     1
102
RTVSPropertyOp24
 70
     1
102
RTVSPropertyOp25
 70
     1
102
RTVSPropertyOp26
 70
     1
102
RTVSPropertyOp27
 70
     1
102
RTVSPropertyOp28
 70
     1
102
RTVSPropertyOp29
 70
     1
102
RTVSPropertyOp30
 70
     1
102
RTVSPropertyOp31
 70
     1
102
RTVSPropertyOp32
 70
     1
102
RTVSPropertyOp33
 70
     1
102
RTVSPropertyOp34
 70
     1
102
RTVSPropertyOp35
 70
     1
102
RTVSPropertyOp36
 70
     1
102
RTVSPropertyOp37
 70
     1
102
RTVSPropertyOp38
 70
     1
102
RTVSPropertyOp39
 70
     1
102
RTVSPropertyOp40
 70
     1
102
RTVSPropertyOp41
 70
     1
102
RTVSPropertyOp42
 70
     1
102
RTVSPropertyOp43
 70
     1
102
RTVSPropertyOp44
 70
     1
102
RTVSPropertyOp45
 70
     1
102
RTVSPropertyOp46
 70
     1
102
RTVSPropertyOp47
 70
     1
102
RTVSPropertyOp48
 70
     1
102
RTVSPropertyOp49
 70
     1
102
RTVSPropertyOp50
 70
     1
102
RTVSPropertyOp51
 70
     0
102
RTVSPropertyOp52
 70
     0
102
RTVSPropertyOp53
 70
     1
102
RTVSPropertyOp54
 70
     1
102
RTVSPropertyOp55
 70
     1
102
RTVSPropertyOp56
 70
     1
102
RTVSPropertyOp57
 70
     1
102
RTVSPost2010Prop28
280
     0
102
RTVSPost2010PropOp28
 70
     1
102
RTVSPost2010Prop29
280
     1
102
RTVSPost2010PropOp29
 70
     1
102
RTVSPost2010Prop30
280
     1
102
RTVSPost2010PropOp30
 70
     1
102
RTVSPost2010Prop31
280
     0
102
RTVSPost2010PropOp31
 70
     1
102
RTVSPost2010Prop32
280
     0
102
RTVSPost2010PropOp32
 70
     1
102
RTVSPost2010Prop33
280
     0
102
RTVSPost2010PropOp33
 70
     1
102
RTVSPost2010Prop34
280
     0
102
RTVSPost2010PropOp34
 70
     1
102
RTVSPost2010Prop35
280
     0
102
RTVSPost2010PropOp35
 70
     1
102
RTVSPost2010Prop36
280
     0
102
RTVSPost2010PropOp36
 70
     1
102
RTVSPost2010Prop37
 90
       50
102
RTVSPost2010PropOp37
 70
     1
102
RTVSPost2010Prop38
140
0.0
102
RTVSPost2010PropOp38
 70
     1
102
RTVSPost2010Prop39
140
1.0
102
RTVSPost2010PropOp39
 70
     1
102
RTVSPost2010Prop40
 90
        0
102
RTVSPost2010PropOp40
 70
     1
102
RTVSPost2010Prop41ColorIndex
 90
       18
102
RTVSPost2010Prop41ColorRGB
 90
        0
102
RTVSPost2010PropOp41
 70
     1
102
RTVSPost2010Prop42
 90
       50
102
RTVSPost2010PropOp42
 70
     1
102
RTVSPost2010Prop43
 90
        3
102
RTVSPost2010PropOp43
 70
     1
102
RTVSPost2010Prop44ColorIndex
 90
        5
102
RTVSPost2010Prop44ColorRGB
 90
      255
102
RTVSPost2010PropOp44
 70
     1
102
RTVSPost2010Prop45
280
     0
102
RTVSPost2010PropOp45
 70
     1
102
RTVSPost2010Prop46
 90
       50
102
RTVSPost2010PropOp46
 70
     1
102
RTVSPost2010Prop47
 90
       50
102
RTVSPost2010PropOp47
 70
     1
102
RTVSPost2010Prop48
 90
       50
102
RTVSPost2010PropOp48
 70
     1
102
RTVSPost2010Prop49
280
     0
102
RTVSPost2010PropOp49
 70
     1
102
RTVSPost2010Prop50
 90
       50
102
RTVSPost2010PropOp50
 70
     1
102
RTVSPost2010Prop51ColorIndex
 90
      256
102
RTVSPost2010Prop51ColorRGB
 90
-16777216
102
RTVSPost2010PropOp51
 70
     0
102
RTVSPost2010Prop52
140
1.0
102
RTVSPost2010PropOp52
 70
     0
102
RTVSPost2010Prop53
 90
        2
102
RTVSPost2010PropOp53
 70
     1
102
RTVSPost2010Prop54
  1
strokes_ogs.tif
102
RTVSPost2010PropOp54
 70
     1
102
RTVSPost2010Prop55
280
     0
102
RTVSPost2010PropOp55
 70
     1
102
RTVSPost2010Prop56
140
1.0
102
RTVSPost2010PropOp56
 70
     1
102
RTVSPost2010Prop57
140
1.0
102
RTVSPost2010PropOp57
 70
     1
  0
XRECORD
  5
478
102
{ACAD_REACTORS
330
477
102
}
330
477
100
AcDbXrecord
280
     1
102
RTVSPropertyOp0
 70
     1
102
RTVSPropertyOp1
 70
     1
102
RTVSPropertyOp2
 70
     1
102
RTVSPropertyOp3
 70
     1
102
RTVSPropertyOp4
 70
     1
102
RTVSPropertyOp5
 70
     1
102
RTVSPropertyOp6
 70
     1
102
RTVSPropertyOp7
 70
     1
102
RTVSPropertyOp8
 70
     1
102
RTVSPropertyOp9
 70
     1
102
RTVSPropertyOp10
 70
     1
102
RTVSPropertyOp11
 70
     1
102
RTVSPropertyOp12
 70
     1
102
RTVSPropertyOp13
 70
     1
102
RTVSPropertyOp14
 70
     1
102
RTVSPropertyOp15
 70
     1
102
RTVSPropertyOp16
 70
     1
102
RTVSPropertyOp17
 70
     1
102
RTVSPropertyOp18
 70
     1
102
RTVSPropertyOp19
 70
     1
102
RTVSPropertyOp20
 70
     1
102
RTVSPropertyOp21
 70
     1
102
RTVSPropertyOp22
 70
     1
102
RTVSPropertyOp23
 70
     1
102
RTVSPropertyOp24
 70
     1
102
RTVSPropertyOp25
 70
     1
102
RTVSPropertyOp26
 70
     1
102
RTVSPropertyOp27
 70
     1
102
RTVSPropertyOp28
 70
     1
102
RTVSPropertyOp29
 70
     1
102
RTVSPropertyOp30
 70
     1
102
RTVSPropertyOp31
 70
     1
102
RTVSPropertyOp32
 70
     1
102
RTVSPropertyOp33
 70
     1
102
RTVSPropertyOp34
 70
     1
102
RTVSPropertyOp35
 70
     1
102
RTVSPropertyOp36
 70
     1
102
RTVSPropertyOp37
 70
     1
102
RTVSPropertyOp38
 70
     1
102
RTVSPropertyOp39
 70
     1
102
RTVSPropertyOp40
 70
     1
102
RTVSPropertyOp41
 70
     1
102
RTVSPropertyOp42
 70
     1
102
RTVSPropertyOp43
 70
     1
102
RTVSPropertyOp44
 70
     1
102
RTVSPropertyOp45
 70
     1
102
RTVSPropertyOp46
 70
     1
102
RTVSPropertyOp47
 70
     1
102
RTVSPropertyOp48
 70
     1
102
RTVSPropertyOp49
 70
     1
102
RTVSPropertyOp50
 70
     1
102
RTVSPropertyOp51
 70
     0
102
RTVSPropertyOp52
 70
     0
102
RTVSPropertyOp53
 70
     1
102
RTVSPropertyOp54
 70
     1
102
RTVSPropertyOp55
 70
     1
102
RTVSPropertyOp56
 70
     1
102
RTVSPropertyOp57
 70
     1
102
RTVSPost2010Prop28
280
     0
102
RTVSPost2010PropOp28
 70
     1
102
RTVSPost2010Prop29
280
     1
102
RTVSPost2010PropOp29
 70
     1
102
RTVSPost2010Prop30
280
     1
102
RTVSPost2010PropOp30
 70
     1
102
RTVSPost2010Prop31
280
     0
102
RTVSPost2010PropOp31
 70
     1
102
RTVSPost2010Prop32
280
     0
102
RTVSPost2010PropOp32
 70
     1
102
RTVSPost2010Prop33
280
     0
102
RTVSPost2010PropOp33
 70
     1
102
RTVSPost2010Prop34
280
     0
102
RTVSPost2010PropOp34
 70
     1
102
RTVSPost2010Prop35
280
     0
102
RTVSPost2010PropOp35
 70
     1
102
RTVSPost2010Prop36
280
     0
102
RTVSPost2010PropOp36
 70
     1
102
RTVSPost2010Prop37
 90
       50
102
RTVSPost2010PropOp37
 70
     1
102
RTVSPost2010Prop38
140
0.0
102
RTVSPost2010PropOp38
 70
     1
102
RTVSPost2010Prop39
140
1.0
102
RTVSPost2010PropOp39
 70
     1
102
RTVSPost2010Prop40
 90
        0
102
RTVSPost2010PropOp40
 70
     1
102
RTVSPost2010Prop41ColorIndex
 90
       18
102
RTVSPost2010Prop41ColorRGB
 90
        0
102
RTVSPost2010PropOp41
 70
     1
102
RTVSPost2010Prop42
 90
       50
102
RTVSPost2010PropOp42
 70
     1
102
RTVSPost2010Prop43
 90
        3
102
RTVSPost2010PropOp43
 70
     1
102
RTVSPost2010Prop44ColorIndex
 90
        5
102
RTVSPost2010Prop44ColorRGB
 90
      255
102
RTVSPost2010PropOp44
 70
     1
102
RTVSPost2010Prop45
280
     0
102
RTVSPost2010PropOp45
 70
     1
102
RTVSPost2010Prop46
 90
       50
102
RTVSPost2010PropOp46
 70
     1
102
RTVSPost2010Prop47
 90
       50
102
RTVSPost2010PropOp47
 70
     1
102
RTVSPost2010Prop48
 90
       50
102
RTVSPost2010PropOp48
 70
     1
102
RTVSPost2010Prop49
280
     0
102
RTVSPost2010PropOp49
 70
     1
102
RTVSPost2010Prop50
 90
       50
102
RTVSPost2010PropOp50
 70
     1
102
RTVSPost2010Prop51ColorIndex
 90
      256
102
RTVSPost2010Prop51ColorRGB
 90
-16777216
102
RTVSPost2010PropOp51
 70
     0
102
RTVSPost2010Prop52
140
1.0
102
RTVSPost2010PropOp52
 70
     0
102
RTVSPost2010Prop53
 90
        2
102
RTVSPost2010PropOp53
 70
     1
102
RTVSPost2010Prop54
  1
strokes_ogs.tif
102
RTVSPost2010PropOp54
 70
     1
102
RTVSPost2010Prop55
280
     0
102
RTVSPost2010PropOp55
 70
     1
102
RTVSPost2010Prop56
140
1.0
102
RTVSPost2010PropOp56
 70
     1
102
RTVSPost2010Prop57
140
1.0
102
RTVSPost2010PropOp57
 70
     1
  0
XRECORD
  5
47A
102
{ACAD_REACTORS
330
479
102
}
330
479
100
AcDbXrecord
280
     1
102
RTVSPropertyOp0
 70
     1
102
RTVSPropertyOp1
 70
     1
102
RTVSPropertyOp2
 70
     1
102
RTVSPropertyOp3
 70
     1
102
RTVSPropertyOp4
 70
     1
102
RTVSPropertyOp5
 70
     1
102
RTVSPropertyOp6
 70
     1
102
RTVSPropertyOp7
 70
     1
102
RTVSPropertyOp8
 70
     1
102
RTVSPropertyOp9
 70
     1
102
RTVSPropertyOp10
 70
     1
102
RTVSPropertyOp11
 70
     1
102
RTVSPropertyOp12
 70
     1
102
RTVSPropertyOp13
 70
     1
102
RTVSPropertyOp14
 70
     1
102
RTVSPropertyOp15
 70
     1
102
RTVSPropertyOp16
 70
     1
102
RTVSPropertyOp17
 70
     1
102
RTVSPropertyOp18
 70
     1
102
RTVSPropertyOp19
 70
     1
102
RTVSPropertyOp20
 70
     1
102
RTVSPropertyOp21
 70
     1
102
RTVSPropertyOp22
 70
     1
102
RTVSPropertyOp23
 70
     1
102
RTVSPropertyOp24
 70
     1
102
RTVSPropertyOp25
 70
     1
102
RTVSPropertyOp26
 70
     1
102
RTVSPropertyOp27
 70
     1
102
RTVSPropertyOp28
 70
     1
102
RTVSPropertyOp29
 70
     1
102
RTVSPropertyOp30
 70
     1
102
RTVSPropertyOp31
 70
     1
102
RTVSPropertyOp32
 70
     1
102
RTVSPropertyOp33
 70
     1
102
RTVSPropertyOp34
 70
     1
102
RTVSPropertyOp35
 70
     1
102
RTVSPropertyOp36
 70
     1
102
RTVSPropertyOp37
 70
     1
102
RTVSPropertyOp38
 70
     1
102
RTVSPropertyOp39
 70
     1
102
RTVSPropertyOp40
 70
     1
102
RTVSPropertyOp41
 70
     1
102
RTVSPropertyOp42
 70
     1
102
RTVSPropertyOp43
 70
     1
102
RTVSPropertyOp44
 70
     1
102
RTVSPropertyOp45
 70
     1
102
RTVSPropertyOp46
 70
     1
102
RTVSPropertyOp47
 70
     1
102
RTVSPropertyOp48
 70
     1
102
RTVSPropertyOp49
 70
     1
102
RTVSPropertyOp50
 70
     1
102
RTVSPropertyOp51
 70
     0
102
RTVSPropertyOp52
 70
     0
102
RTVSPropertyOp53
 70
     1
102
RTVSPropertyOp54
 70
     1
102
RTVSPropertyOp55
 70
     1
102
RTVSPropertyOp56
 70
     1
102
RTVSPropertyOp57
 70
     1
102
RTVSPost2010Prop28
280
     0
102
RTVSPost2010PropOp28
 70
     1
102
RTVSPost2010Prop29
280
     1
102
RTVSPost2010PropOp29
 70
     1
102
RTVSPost2010Prop30
280
     1
102
RTVSPost2010PropOp30
 70
     1
102
RTVSPost2010Prop31
280
     0
102
RTVSPost2010PropOp31
 70
     1
102
RTVSPost2010Prop32
280
     0
102
RTVSPost2010PropOp32
 70
     1
102
RTVSPost2010Prop33
280
     0
102
RTVSPost2010PropOp33
 70
     1
102
RTVSPost2010Prop34
280
     0
102
RTVSPost2010PropOp34
 70
     1
102
RTVSPost2010Prop35
280
     0
102
RTVSPost2010PropOp35
 70
     1
102
RTVSPost2010Prop36
280
     0
102
RTVSPost2010PropOp36
 70
     1
102
RTVSPost2010Prop37
 90
       50
102
RTVSPost2010PropOp37
 70
     1
102
RTVSPost2010Prop38
140
0.0
102
RTVSPost2010PropOp38
 70
     1
102
RTVSPost2010Prop39
140
1.0
102
RTVSPost2010PropOp39
 70
     1
102
RTVSPost2010Prop40
 90
        0
102
RTVSPost2010PropOp40
 70
     1
102
RTVSPost2010Prop41ColorIndex
 90
       18
102
RTVSPost2010Prop41ColorRGB
 90
        0
102
RTVSPost2010PropOp41
 70
     1
102
RTVSPost2010Prop42
 90
       50
102
RTVSPost2010PropOp42
 70
     1
102
RTVSPost2010Prop43
 90
        3
102
RTVSPost2010PropOp43
 70
     1
102
RTVSPost2010Prop44ColorIndex
 90
        5
102
RTVSPost2010Prop44ColorRGB
 90
      255
102
RTVSPost2010PropOp44
 70
     1
102
RTVSPost2010Prop45
280
     0
102
RTVSPost2010PropOp45
 70
     1
102
RTVSPost2010Prop46
 90
       50
102
RTVSPost2010PropOp46
 70
     1
102
RTVSPost2010Prop47
 90
       50
102
RTVSPost2010PropOp47
 70
     1
102
RTVSPost2010Prop48
 90
       50
102
RTVSPost2010PropOp48
 70
     1
102
RTVSPost2010Prop49
280
     0
102
RTVSPost2010PropOp49
 70
     1
102
RTVSPost2010Prop50
 90
       50
102
RTVSPost2010PropOp50
 70
     1
102
RTVSPost2010Prop51ColorIndex
 90
      256
102
RTVSPost2010Prop51ColorRGB
 90
-16777216
102
RTVSPost2010PropOp51
 70
     0
102
RTVSPost2010Prop52
140
1.0
102
RTVSPost2010PropOp52
 70
     0
102
RTVSPost2010Prop53
 90
        2
102
RTVSPost2010PropOp53
 70
     1
102
RTVSPost2010Prop54
  1
strokes_ogs.tif
102
RTVSPost2010PropOp54
 70
     1
102
RTVSPost2010Prop55
280
     0
102
RTVSPost2010PropOp55
 70
     1
102
RTVSPost2010Prop56
140
1.0
102
RTVSPost2010PropOp56
 70
     1
102
RTVSPost2010Prop57
140
1.0
102
RTVSPost2010PropOp57
 70
     1
  0
ENDSEC
  0
SECTION
  2
THUMBNAILIMAGE
 90
    21304
310
28000000B80000006E0000000100080000000000104F00000100000001000000000100000000000000000066FFFFFF520000005600000050000000730000003200000031000000500000006F0000004F00000032330000466600006699000052CC000056FF00005000330073333300326633003199330050CC33006FFF3300
310
3200660018336600006666000099660000CC660000FF66000000990000339900006699000099990000CC990000FF99000000CC000033CC000066CC000099CC0000CCCC0000FFCC000000FF000033FF000066FF000099FF0000CCFF0000FFFF00010000331433003354660033539900336FCC003374FF003330003333303333
310
33726633337099333370CC333330FF3333010066331233663354666633539966336FCC663374FF66333000993330339933726699337099993331CC993300FF99330000CC330033CC330066CC330099CC3300CCCC3300FFCC330000FF330033FF330066FF330099FF3300CCFF3300FFFF330000006600330066006600660099
310
006600CC006600FF00660000336600333366006633660099336666CC336652FF33665600666650336666736666663299666631CC666650FF66666F0099664F339966336699664699996666CC996652FF99665600CC665033CC667366CC663299CC6631CCCC6650FFCC666F00FF663333FF661866FF660099FF6600CCFF6600
310
FFFF660000009900330099006600990099009900CC009900FF00990000339900333399006633990099339900CC339900FF33990000669900336699006666990099669900CC669900FF66990000999901339999146699995499999953CC99996FFF99997400CC993033CC993066CC997299CC9970CCCC9970FFCC993400FF99
310
0133FF991266FF995499FF9953CCFF996FFFFF99740000CC303300CC306600CC729900CC70CC00CC35FF00CC000033CC003333CC006633CC009933CC00CC33CC00FF33CC000066CC003366CC006666CC009966CC00CC66CC00FF66CC000099CC003399CC006699CC009999CC00CC99CC00FF99CC0000CCCC0033CCCC0066CC
310
CC0099CCCC00CCCCCC66FFCCCC5200FFCC5633FFCC5066FFCC7399FFCC32CCFFCC31FFFFCC500000FF6F3300FF4F6600FF339900FF46CC00FF66FF00FF520033FF563333FF506633FF739933FF32CC33FF31FF33FF500066FF6F3366FF336666FF5A9966FF00CC66FF14FF66FF540099FF533399FF6F6699FF749999FF30CC
310
99FF30FF99FF7200CCFF7033CCFF7066CCFF3799CCFF00CCCCFF12FFCCFF5400FFFF5333FFFF6F66FFFF7499FFFF30CCFFFF30FFFFFF72000000700D0D0D381A1A1A00282828003535356643434352505050565D5D5D506B6B6B73787878328686863193939350A1A1A16FAEAEAE4FBBBBBB33C9C9C946D6D6D666E4E4E452
310
F1F1F156FFFFFF50000000730000003200000031000000500000006F000000330000008C00000000000000F0000000FF00000000000000000000000000000000000000000000000000000000000000000000000000000000000000000000000000000000000000000000000000000000000000000000000000000000000000
310
0000000000000000000000F500000000000000000000000000000000000000000000000000000000000000000000000000000000000000000000000000000000000000000000000000000000000000000000000000000000000000000000000000000000000000000000000000000000000000000000000000000000000000
310
0000000000000000000000000000000000000000000000000000000000000000000000000000000000000000000000000000000000000000000000000000000000000000F500000000000000000000000000000000000000000000000000000000000000000000000000000000000000000000000000000000000000000000
310
0000000000000000000000000000000000000000000000000000000000000000000000000000000000000000000000000000000000000000000000000000000000000000000000000000000000000000000000000000000000000000000000000000000000000000000000000000000000000000000000000000000000F500
310
00000000000000000000000000000000000000000000000000000000000000000000000000000000000000000000000000000000000000000000000000000000000000000000000000000000000000000000000000000000000000000000000000000000000000000000000000000000000000000000000000000000000000
310
00000000000000000000000000000000000000000000000000000000000000000000000000000000000000000000000000000000000000F50000000000000000000000000000000000000000000000000000000000000000000000000000000000000000000000000000000000000000000000000000000000000000000000
310
00000000000000000000000000000000000000000000000000000000000000000000000000000000000000000000000000000000000000000000000000000000000000000000000000000000000000000000000000000000000000000000000000000000000000000000000000000000F50000000000000000000000000000
310
00000000000000000000000000000000000000000000000000000000000000000000000000000000000000000000000000000000000000000000000000000000000000000000000000000000000000000000000000000000000000000000000000000000000000000000000000000000000000000000000000000000000000
310
000000000000000000000000000000000000000000000000000000000000000000000000000000000000F500000000000000000000000000000000000000000000000000000000000000000000000000000000000000000000000000000000000000000000000000000000000000F5F5000000000000000000000000000000
310
000000000000000000000000000000000000000000000000000000000000000000000000000000000000000000000000000000000000000000000000000000000000000000000000000000000000000000000000000000000000000000000000000000F5000000000000000000000000000000000000000000000000000000
310
00000000000000000000000000000000000000000000000000000000000000000000000000000000F5F50000000000000000000000000000000000000000000000000000000000000000000000000000000000000000F5F5F5F5F5F5F5F5F5F5F5F5F5F5F5F5F5F5F5F5F5F5F5F5F5F5F5F5F5F5F5F5F5F5F5F5F5F5F5F5F5
310
F5F5F5F5F5F5F5F5F5F5F5F5F5F5F5F5F5F5F5F5F5F5F5F5F5F5F5F5F5F5F5F5F5F5F5F5F5F5F5F5F5F5F5F5F5F5F5F5F5F5F5F5F5F5F5F5F5F5F5F5F5F5F5F5F5F5F5F5F5F5F5F5F5F5F5F5F5F5F5F5F5F5F5F5F5F5F5F5F5F5F5F5F5F5F5F5F5F5F500000000000000000000000000000000000000000000000000000000
310
00000000000000000000000000000000F500000000000000000000000000000000000000000000000000000000000000000000000000000000000000000000000000000000000000000000000000000000000000000000000000000000F5000000F5F5F5F5F5F5F5F5F5F5000000000000000000000000000000000000F500
310
0000000000000000000000F5F5F5F5F5F50000000000000000000000F50000000000000000000000000000000000000000000000000000000000000000000000000000000000000000F50000000000000000000000000000000000000000000000000000000000000000000000000000000000000000000000000000000000
310
0000000000000000000000000000000000000000000000F5000000F5F5F5F5F5F5F5F5F5F5000000000000000000000000000000000000F5F5F5000000000000000000F5F5F5F5F5F5F50000000000000000000000F50000000000000000000000000000000000000000000000000000000000000000000000000000000000
310
000000F500000000000000000000000000000000000000000000000000000000000000000000000000000000000000000000000000000000000000000000000000000000000000000000000000000000F5F5F500F5F5F5F5F5F5F5F5F5F5000000000000000000000000000000000000F5F5F5F5F5F5F5F5F5F5F5F5F5F5F5
310
F5F5F5F5F5F5F5F5F5F5F5F5F5F5F5F50000000000000000000000000000000000000000000000000000000000000000000000000000000000000000F5000000000000000000000000000000000000000000000000000000000000000000000000000000000000000000000000000000000000000000000000000000000000
310
00000000000000000000F5F5F5F5F5F5F5F5F5F5F5F5F5F5F5F5F5F5F5F5F5F5F5F5F5F5F5F5F5F5F5F5F5000000000000000000000000F5F5F5F5F5F50000000000000000000000F50000000000000000000000000000000000000000000000000000000000000000000000000000000000000000F5000000000000000000
310
0000000000000000F5F5F5F5F5F5F500000000000000000000000000000000000000000000000000000000000000000000000000000000000000000000000000000000F500000000F5000000000000000000000000F5000000000000F5000000000000F5F5F500000000000000000000F5F5F5F5F5F5000000000000000000
310
0000F50000000000000000000000000000000000000000000000000000000000000000000000000000000000000000F50000000000000000000000000000000000F5F5F5F500F5F500000000000000000000000000000000000000000000000000000000000000000000000000000000000000000000000000000000F500F5
310
F500F5000000F5F500000000000000F5F5F5F5F5F500F50000F5F5F500F5F5F5000000000000000000F5F5F5F5F5F5F50000000000000000000000F50000000000000000000000000000000000000000000000000000000000000000000000000000000000000000F50000000000000000000000000000000000F5F5F5F500
310
F50000000000000000000000000000000000000000000000000000000000000000000000000000000000000000000000000000000000F500F5F500F5000000F5F500000000000000F5F5F5F5F5F500F50000F5F5F500F5F5F5F5F5F5F5F5F5F5F5F5F5F5F5F5F5F5F5F5F5F5F5F5F5F5F5F5F5F5F500000000000000000000
310
00000000000000000000000000000000000000000000000000000000000000000000F50000000000000000000000000000000000000000F5F5F500000000000000000000000000000000000000000000000000000000000000F5F50000000000000000000000000000000000000000F5F5F50000F5F5000000000000000000
310
0000F5F5F500000000F5F5F500000000F50000000000000000000000000000000000000000000000000000000000F50000000000000000000000000000000000000000000000000000000000000000000000000000000000000000F500000000000000000000000000000000000000F5F5F5F5F5F5F5F5F500000000000000
310
000000000000000000000000000000000000F5F5F5F500000000000000000000000000000000000000F5F5F50000F5F50000000000000000000000F5F5F500000000F5F5F500000000F50000000000000000000000000000000000000000000000000000000000F50000000000000000000000000000000000000000000000
310
000000000000000000000000000000000000000000F50000000000000000000000000000000000000000F5F5F5000000F5000000000000000000000000000000000000000000000000000000F5F50000000000000000000000000000000000000000F5F5F5F5F5F5F5F5F5F5F5F5F5F5F5F5F5F5F5F5F5F5F5F5F5F5F5F5F5
310
F5F5F5F500F5F5F5F5F5F500000000000000000000000000000000000000000000F50000000000000000000000000000000000000000000000000000000000000000000000000000000000000000F50000000000000000000000000000000000000000F5F5F5000000F5000000000000000000000000000000000000000000
310
000000000000F5F50000000000000000000000000000000000000000F5000000F5F5F5F500F5F5F5F5F5F5F5F5F5F500F500F5F5F5F50000F5F50000F500F5F5F5F5F5F500000000000000000000000000000000000000000000F5000000000000000000000000000000000000000000000000000000000000000000000000
310
0000000000000000F5000000000000000000000000000000000000000000F5F5000000F5000000000000000000000000000000000000000000000000000000F5F50000000000000000000000000000000000000000F5000000F5F5F5F5F5F5F5F5F5F5F5F5F5F5F5F5F5F5F5F5F5F50000F5F50000F5000000000000000000
310
0000000000000000000000000000000000000000F50000000000000000000000000000000000000000000000000000000000000000000000000000000000000000F5000000000000000000000000000000000000000000F5F5000000F5000000000000000000000000000000000000000000000000000000F5F50000000000
310
000000000000000000000000000000F5000000F5F5F5F500F5F5F5F5F5F5F5F500F500F50000F5F5F5F5F500000000F5F5F5000000000000000000000000000000000000000000000000000000F50000000000000000000000000000000000000000000000000000000000000000000000000000000000000000F500000000
310
0000000000000000000000000000000000F5F5000000F5000000000000000000000000000000000000000000000000000000F5F50000000000000000000000000000000000000000F5F5F5F5F5F5F5F5F5F5F5F5F5F5F5F5F5F5F5F5F5F5F5F5F5F5F5F5F5F5F5F5F5F5F5F5F5F5F5F5F5F5F5F5F5F5F5F5F5F5F5F5F5F5F5
310
F5F5F5F5F5F5F5F50000000000000000000000000000000000000000000000000000000000000000000000000000000000000000F5000000000000000000000000000000000000000000F5F5000000F5000000000000000000000000000000000000000000000000000000F5F5000000000000000000000000000000000000
310
00000000000000000000000000000000000000000000000000000000000000000000000000000000000000000000000000000000000000000000000000000000F50000000000000000000000000000000000000000000000000000000000000000000000000000000000000000F50000000000000000000000000000000000
310
00000000F5F5000000F5000000000000000000000000000000000000000000000000000000F5F50000000000000000000000000000000000000000F5F5F5F5F5F5F5F5F5F5F5F5F5F5F5F5F5F5F5F5F5F5F5F5F5F5F5F5F5F5F5F5F5F5F5F5F5F5F5F5F5F5F5F5F5F5F5F5F5F5F5F5F5F5F5F5F5F5F5F5F5F5F50000000000
310
000000000000000000000000000000000000000000000000000000000000000000000000000000F5000000000000000000000000000000000000000000F5F5000000F5000000000000000000000000000000000000000000000000000000F5F50000000000000000000000000000000000000000F500000000000000000000
310
00000000F5F5F5F5F5F5F5F5F5F5F5F5F5F5F5F5F5F5F5F5F5F5F5F5F5F5F5F5F5F5F5F5F5F5000000000000000000000000F5F50000000000000000000000000000000000000000000000000000000000000000000000000000000000000000F5000000000000000000000000000000000000000000F5F5000000F5000000
310
000000000000000000000000000000000000000000000000F5F50000000000000000000000000000000000000000F50000000000000000000000000000F5F5F5F5F5F5F5F5F5F5F5F5F5F5F5F5F5F5F5F5F5F5F5F5F5F5F5F5F5F5F5F5F500000000000000000000000000F5F5000000000000000000000000000000000000
310
0000000000000000000000000000000000000000000000000000F5000000000000000000000000000000000000000000F5F5000000F5000000000000000000000000000000000000000000000000000000F5F50000000000000000000000000000000000000000F500F5F5F5F5F50000000000000000F5F5F5F5F500000000
310
00000000000000000000000000000000000000000000000000000000000000000000000000F5F50000000000000000000000000000000000000000000000000000000000000000000000000000000000000000F5000000000000000000000000000000000000000000F5F5000000F500000000000000000000000000000000
310
0000000000000000000000F5F50000000000000000000000000000000000000000F5F5F5F5F5F5F50000000000000000F5F5F5F5F50000000000000000000000000000000000000000000000000000000000000000000000000000000000F5F500000000000000000000000000000000000000000000000000000000000000
310
00000000000000000000000000F5000000000000000000000000000000000000000000F5F5000000F5000000000000000000000000000000000000000000000000000000F5F50000000000000000000000000000000000000000F5F5F5F5F5F5F5F5F5F5F5F5F5F5F5F5F5F5F5F5F5F5F5F5F5F5F5F5F5F5F5F5F5F5F5F5F5
310
F5F5F5F5F5F5F5F5F5F5F5F5F5F5F5F5F5F5F5F5F5F5F5F5F5F50000000000000000000000000000000000000000000000000000000000000000000000000000000000000000F5000000000000000000000000000000000000000000F5F5000000F5000000000000000000000000000000000000000000000000000000F5F5
310
0000000000000000000000000000000000000000F5F5F5F5F5F5F50000000000000000F5F5F5F5F50000000000000000000000000000000000000000000000000000000000000000000000000000000000F5F50000000000000000000000000000000000000000000000000000000000000000000000000000000000000000
310
F5000000000000000000000000000000000000000000F5F5000000F5000000000000000000000000000000000000000000000000000000F5F50000000000000000000000000000000000000000F500F5F5F5F5F50000000000000000F5F5F5F5F5000000000000000000000000000000000000000000000000000000000000
310
0000000000000000000000F5F50000000000000000000000000000000000000000000000000000000000000000000000000000000000000000F5000000000000000000000000000000000000000000F5F5000000F5000000000000000000000000000000000000000000000000000000F5F500000000000000000000000000
310
00000000000000F5F5F5F5F5F5F5F5F5F5F5F5F5F5F5F5F5F5F5F5F5F5F5F5F5F5F5F5F5F5F5F5F5F5F5F5F5F5F5F5F5F5F5F5F5F5F5F5F5F5F5F5F5F5F5F5F5F5F5F5F5F5F50000000000000000000000000000000000000000000000000000000000000000000000000000000000000000F5000000000000000000000000
310
000000000000000000F5F5000000F5000000000000000000000000000000000000000000000000000000F5F50000000000000000000000000000000000000000F5000000000000F500000000000000F5F5F5F5F5F5F5F5F5F5F5F5F5F5F5F5F5F5F5F5F5F5F5F5F5F5F5F5F5F5F5F5F5F5000000000000000000000000F5F5
310
0000000000000000000000000000000000000000000000000000000000000000000000000000000000000000F5000000000000000000000000000000000000000000F5F5000000F5000000000000000000000000000000000000000000000000000000F5F50000000000000000000000000000000000000000F50000000000
310
00F500000000000000F5F5F5F5F5F5F5F5F5F5F5F5F5F5F5F5F5F5F5F5F5F5F5F5F5F5F5F5F5F5F5F5F500000000000000000000000000F5F50000000000000000000000000000000000000000000000000000000000000000000000000000000000000000F5000000000000000000000000000000000000000000F5F50000
310
00F5000000000000000000000000000000000000000000000000000000F5F50000000000000000000000000000000000000000F5000000000000F5F5F5F5F5000000F5F5F5F5F5F5F5F5F5F5000000000000000000000000000000000000000000000000000000000000000000000000F5F500000000000000000000000000
310
00000000000000000000000000000000000000000000000000000000000000F5000000000000000000000000000000000000000000F5F5000000F5000000000000000000000000000000000000000000000000000000F5F50000000000000000000000000000000000000000F5000000000000F5F5F5F5F5000000F5F5F5F5
310
F5F5F5F5F5F5000000000000000000000000000000000000000000000000000000000000000000000000F5F50000000000000000000000000000000000000000000000000000000000000000000000000000000000000000F5000000000000000000000000000000000000000000F5F50000F5F50000000000000000000000
310
00000000000000000000000000000000F5F50000000000000000000000000000000000000000F5F5F5F5F5F500F5F5F5F5F5F5F5F5F5F5F5F5F5F5F5F5F5F5F5F5F5F5F5F5F5F5F5F5F5F5F5F5F5F5F5F5F5F5F5F5F5F5F5F5F5F5F5F5F5F5F5F5F5F5F5F50000000000000000000000000000000000000000000000000000
310
000000000000000000000000000000000000F5000000000000000000000000000000000000000000F5F50000F5F5000000000000000000000000000000000000000000000000000000F5F50000000000000000000000000000000000000000F5F5F5F5F5F500F5F5F5F5F5F5F500F5F5F5F5F5F5F5F5F50000000000000000
310
0000000000000000000000000000000000000000000000000000000000F5F50000000000000000000000000000000000000000000000000000000000000000000000000000000000000000F5000000000000000000000000000000000000000000F5F5000000F5000000000000000000000000000000000000000000000000
310
000000F5F50000000000000000000000000000000000000000F5F5F5F5F5F5F5F5F5F5F5F5F5F5F5F5F5F5F5F5F5F5F5F5F5F5F5F5F5F5F5F5F5F5F5F5F5F5F5F5F5F5F5F5F5F5F5F5F5F5F5F5F5F5F5F5F5F5F5F5F5F5F5000000000000000000000000000000000000000000000000000000000000000000000000000000
310
0000000000F5000000000000000000000000000000000000000000F5F5000000F5000000000000000000000000000000000000000000000000000000F5F50000000000000000000000000000000000000000F5F5F5F50000000000000000000000F500F5F5F5F5F5F5F5F50000000000000000000000000000000000000000
310
00000000000000000000000000000000F5F50000000000000000000000000000000000000000000000000000000000000000000000000000000000000000F5000000000000000000000000000000000000000000F5F5000000F5000000000000000000000000000000000000000000000000000000F5F50000000000000000
310
000000000000000000000000F500F5F50000000000000000000000F5F5F5F5F5F5F5F5F5F5000000000000000000000000000000000000000000000000000000000000000000000000F5F50000000000000000000000000000000000000000000000000000000000000000000000000000000000000000F500000000000000
310
0000000000000000000000000000F5F5000000F5000000000000000000000000000000000000000000000000000000F5F50000000000000000000000000000000000000000F5F5F5F5F5F5F5F5F5F5F5F5F5F5F5F5F5F5F5F5F5F5F5F5F5F5F5F5F5F5F5F5F5F5F5F5F5F5F5F5F5F5F5F5F5F5F5F5F5F5F5F5F5F5F5F5F5F5
310
F5F5F5F5F50000000000000000000000000000000000000000000000000000000000000000000000000000000000000000F5000000000000000000000000000000000000000000F5F5000000F5000000000000000000000000000000000000000000000000000000F5F5000000000000000000000000000000000000000000
310
00000000000000000000000000000000000000000000000000000000000000000000000000000000000000000000000000000000000000000000000000F50000000000000000000000000000000000000000000000000000000000000000000000000000000000000000F50000000000000000000000000000000000000000
310
00F5F5000000F5000000000000000000000000000000000000000000000000000000F5F500000000000000000000000000000000000000000000000000000000000000000000000000000000000000000000000000000000000000000000000000000000000000000000000000000000000000000000F50000000000000000
310
000000000000000000000000000000000000000000000000000000000000000000000000F5000000000000000000000000000000000000000000F5F5000000F5000000000000000000000000000000000000000000000000000000F5F500000000000000000000000000000000000000000000000000000000000000000000
310
000000000000000000000000000000000000000000000000000000000000000000000000000000000000000000000000F50000000000000000000000000000000000000000000000000000000000000000000000000000000000000000F5000000000000000000000000000000000000000000F5F5000000F5000000000000
310
000000000000000000000000000000000000000000F5F500000000000000000000000000000000000000000000000000000000000000000000000000000000000000000000000000000000000000000000000000000000000000000000000000000000000000000000F5000000000000000000000000000000000000000000
310
0000000000000000000000000000000000000000000000F5000000000000000000000000000000000000000000F5F5000000F5000000000000000000000000000000000000000000000000000000F5F50000000000000000000000000000000000000000000000000000000000000000000000000000000000000000000000
310
0000000000000000000000000000000000000000000000000000000000000000000000F50000000000000000000000000000000000000000000000000000000000000000000000000000000000000000F5000000000000000000000000000000000000000000F5F5000000F500000000000000000000000000000000000000
310
0000000000000000F5F500000000000000000000000000000000000000000000000000000000000000000000000000000000000000000000000000000000000000000000000000000000000000000000000000000000000000000000F500000000000000000000000000000000000000000000000000000000000000000000
310
00000000000000000000F5000000000000000000000000000000000000000000F5F5000000F5000000000000000000000000000000000000000000000000000000F5F5000000000000000000000000000000000000000000000000000000000000000000000000000000000000000000000000000000000000000000000000
310
00000000000000000000000000000000000000000000F50000000000000000000000000000000000000000000000000000000000000000000000000000000000000000F5000000000000000000000000000000000000000000F5F5000000F5000000000000000000000000000000000000000000000000000000F5F5000000
310
00000000000000000000000000000000000000000000000000000000000000000000000000000000000000000000000000000000000000000000000000000000000000000000000000000000000000F50000000000000000000000000000000000000000000000000000000000000000000000000000000000000000F50000
310
00000000000000000000000000000000000000F5F5000000F5000000000000000000000000000000000000000000000000000000F5F500000000000000000000000000000000000000000000000000000000000000000000000000000000000000000000000000000000000000000000000000000000000000000000000000
310
000000000000000000F50000000000000000000000000000000000000000000000000000000000000000000000000000000000000000F5000000000000000000000000000000000000000000F5F5000000F5000000000000000000000000000000000000000000000000000000F5F500000000000000000000000000000000
310
000000000000000000000000000000000000000000000000000000000000000000000000000000000000000000000000000000000000000000000000000000000000F50000000000000000000000000000000000000000000000000000000000000000000000000000000000000000F50000000000000000000000000000F5
310
F5F5F5F5F5F5F5F5F50000F50000000000000000000000000000000000000000000000000000F5F5F5F5000000000000000000000000000000000000000000000000000000000000000000000000000000000000000000000000000000000000000000000000000000000000000000000000000000000000000000F5000000
310
0000000000000000000000000000000000000000000000000000000000000000000000000000000000F50000000000000000000000000000F5F5000000F5F5F5F5F50000F500000000000000000000000000000000000000000000000000F5F5F5F5F5F5000000000000000000000000000000000000000000000000000000
310
0000000000000000000000000000000000000000000000000000000000000000000000000000000000000000000000000000000000F5000000000000000000000000000000000000000000000000000000000000000000000000F5F5F5F5F5F5F5F5F50000000000000000000000000000F5F5F5F5F5F5F5F5F5F50000F500
310
000000000000000000000000000000000000000000000000F5F5F5F5F5F50000000000000000000000000000000000000000000000000000000000000000000000000000000000000000000000000000000000000000000000000000000000000000000000000000000000000000F5F5F5F5F5F5F5F5F50000000000000000
310
00000000000000000000000000000000000000000000000000000000F500000000000000000000000000F5F5F5F5F500F5F5F5F5F50000F500000000000000000000000000000000F5F5F5F5000000000000F5F5F5F50000000000000000000000000000000000000000000000000000000000000000000000000000000000
310
00000000000000000000000000000000000000000000000000000000000000000000000000000000F50000000000000000000000000000000000000000000000000000000000000000000000000000000000000000F5000000000000000000000000000000F5F5F50000F5F5F5F50000F50000000000000000000000000000
310
F5F5F5F5F500000000000000F5F5F5F5000000000000000000000000000000000000000000000000000000000000000000000000000000000000000000000000000000000000000000000000000000000000000000000000000000000000000000F50000000000000000000000000000000000000000000000000000000000
310
000000000000000000000000000000F50000000000000000000000000000F5F5F5F50000F5F5F5F50000F5F5000000000000000000000000F500F5F5F50000000000000000F5F5F5F5000000000000000000000000000000000000000000000000000000000000000000000000000000000000000000000000000000000000
310
000000000000000000000000000000000000000000000000000000F50000000000000000000000000000000000000000000000000000000000000000000000000000000000000000F50000000000000000000000000000F5F5F5F5F5F5F5F5F5F5F5F5F5F5000000000000000000000000F5F5F5F5F5F5F5F5F5F5F5F5F5F5
310
F5F5F5F50000000000000000000000000000000000000000000000000000000000000000000000000000000000000000000000000000000000000000000000000000000000000000000000000000000000000000F5000000000000000000000000000000000000000000000000000000000000000000000000000000000000
310
0000F500000000000000000000000000000000000000F500F5F5F50000F5000000000000000000000000F5F5F500F5F50000F5F5F5000000F5F500F500000000000000000000000000000000000000000000000000000000000000000000000000000000000000000000000000000000000000000000000000000000000000
310
0000000000000000000000000000F50000000000000000000000000000000000000000000000000000000000000000000000000000000000000000F500000000000000000000000000000000000000F5F5F5F5F50000F500000000000000000000000000F5F5F5F5F5F5F5F5F5F5000000F5F500F500000000000000000000
310
0000000000000000000000000000000000000000000000000000000000000000000000000000000000000000000000000000000000000000000000000000000000000000000000F50000000000000000000000000000000000000000000000000000000000000000000000000000000000000000F500000000000000000000
310
000000000000000000F5F5F5F5F50000F500000000000000000000000000000000F5F5F5F5000000000000F5F5F5F50000000000000000000000000000000000000000000000000000000000000000000000000000000000000000000000000000000000000000000000000000000000000000000000000000000000000000
310
00F50000000000000000000000000000000000000000000000000000000000000000000000000000000000000000F500000000000000000000000000000000000000F5F5F5F5F500F5F50000000000000000000000000000000000F5F5F5F5F5F5F5F5F5F5F5F5F50000000000000000000000000000000000000000000000
310
00000000000000000000000000000000000000000000000000000000000000000000000000000000000000000000000000000000000000000000F50000000000000000000000000000000000000000000000000000000000000000000000000000000000000000F500000000000000000000000000000000000000F5F5F5F5
310
F500F5F50000000000000000000000000000000000F500F5F5F5F5F5F5F5F5F500F5000000000000000000000000000000000000000000000000000000000000000000000000000000000000000000000000000000000000000000000000000000000000000000000000000000000000000000F50000000000000000000000
310
000000000000000000000000000000000000000000000000000000000000000000F500000000000000000000000000000000000000F500F500F500F5F50000000000000000000000000000000000F5000000F5F5F5F5F5F5F500F5000000000000000000000000000000000000000000000000000000000000000000000000
310
000000000000000000000000000000000000000000000000000000000000000000000000000000000000000000F50000000000000000000000000000000000000000000000000000000000000000000000000000000000000000F500000000000000000000000000000000000000F5F5F5F5F50000F5000000000000000000
310
0000000000000000F50000000000000000F5F5F5F5000000000000000000000000000000000000000000000000000000000000000000000000000000000000000000000000000000000000000000000000000000000000000000000000000000000000000000F5000000000000000000000000000000000000000000000000
310
0000000000000000000000000000000000000000F500000000000000000000000000000000000000F500F500F50000F50000000000000000000000000000000000F50000000000000000F5F500F500000000000000000000000000000000000000000000000000000000000000000000000000000000000000000000000000
310
0000000000000000000000000000000000000000000000000000000000000000F50000000000000000000000000000000000000000000000000000000000000000000000000000000000000000F500000000000000000000000000000000000000F500F500F50000F50000000000000000000000000000000000F500000000
310
000000F5F5F500F5000000000000000000000000000000000000000000000000000000000000000000000000000000000000000000000000000000000000000000000000000000000000000000000000000000000000000000F500000000000000000000000000000000000000000000000000000000000000000000000000
310
00000000000000F500000000000000000000000000000000000000F5F5F5F5F50000F5F500000000000000000000000000000000F50000000000F5F5F5F5F500F50000000000000000000000000000000000000000000000000000000000000000000000000000000000000000000000000000000000000000000000000000
310
00000000000000000000000000000000000000F50000000000000000000000000000000000000000000000000000000000000000000000000000000000000000F500000000000000000000000000000000000000F5F5F5F5F5F5F5F5F500000000000000000000000000000000F500000000000000F5F5F5F5F50000000000
310
00000000000000000000000000000000000000000000000000000000000000000000000000000000000000000000000000000000000000000000000000000000000000000000000000000000F50000000000000000000000000000000000000000000000000000000000000000000000000000000000000000F50000000000
310
00000000000000000000000000000000F500000000000000000000000000000000000000000000F5000000000000000000F50000000000000000000000000000000000000000000000000000000000000000000000000000000000000000000000000000000000000000000000000000000000000000000000000000000000
310
000000000000F50000000000000000000000000000000000000000000000000000000000000000000000000000000000000000F50000000000000000000000000000000000000000000000000000000000000000000000000000000000000000F5F5F5F5F5F5F5F5F5F5F50000000000000000000000000000000000000000
310
000000000000000000000000000000000000000000000000000000000000000000000000000000000000000000000000000000000000000000000000000000F50000000000000000000000000000000000000000000000000000000000000000000000000000000000000000F5000000000000000000000000000000000000
310
0000000000000000000000000000000000000000000000000000F5F5000000F5F5000000F50000000000000000000000000000000000000000000000000000000000000000000000000000000000000000000000000000000000000000000000000000000000000000000000000000000000000000000000F5000000000000
310
0000000000000000000000000000000000000000000000000000000000000000000000000000F500000000000000000000000000000000000000000000000000000000000000000000000000000000000000000000000000F5F500000000000000000000000000000000000000000000000000000000000000000000000000
310
0000000000000000000000000000000000000000000000000000000000000000000000000000000000000000000000000000F50000000000000000000000000000000000000000000000000000000000000000000000000000000000000000F500000000000000000000000000000000000000000000000000000000000000
310
0000000000000000000000000000000000000000000000000000000000000000000000000000000000000000000000000000000000000000000000000000000000000000000000000000000000000000000000000000000000000000000000000000000000000000000000F500000000000000000000000000000000000000
310
00000000000000000000000000000000000000000000000000F50000000000000000000000000000000000000000000000000000000000000000000000000000000000000000000000000000000000000000000000000000000000000000000000000000000000000000000000000000000000000000000000000000000000
310
00000000000000000000000000000000000000000000000000000000000000000000000000F50000000000000000000000000000000000000000000000000000000000000000000000000000000000000000F50000000000000000000000000000000000000000000000000000000000000000000000000000000000000000
310
00000000000000000000000000000000000000000000000000000000000000000000000000000000000000000000000000000000000000000000000000000000000000000000000000000000000000000000000000000000000000000000F50000000000000000000000000000000000000000000000000000000000000000
310
000000000000000000000000F5000000000000000000000000000000000000000000000000000000000000000000000000000000000000000000000000000000000000000000000000000000000000000000000000000000000000000000000000000000000000000000000000000000000000000000000000000000000000
310
000000000000000000000000000000000000000000000000F50000000000000000000000000000000000000000000000000000000000000000000000000000000000000000F5000000000000000000000000000000000000000000000000000000000000000000000000000000000000000000000000000000000000000000
310
000000000000000000000000000000000000000000000000000000000000000000000000000000000000000000000000000000000000000000000000000000000000000000000000000000000000000000F50000000000000000000000000000000000000000000000000000000000000000000000000000000000000000F5
310
00000000000000000000000000000000000000000000000000000000000000000000000000000000000000000000000000000000000000000000000000000000000000000000000000000000000000000000000000000000000000000000000000000000000000000000000000000000000000000000000000000000000000
310
0000000000000000000000F50000000000000000000000000000000000000000000000000000000000000000000000000000000000000000F5000000000000000000000000000000000000000000F5000000000000000000000000000000000000000000000000000000000000000000000000000000000000000000000000
310
0000000000000000000000000000000000000000000000000000000000000000000000000000000000000000000000000000000000000000000000000000000000000000F50000000000000000000000000000000000000000000000000000000000000000000000000000000000000000F500000000000000000000000000
310
00000000000000F5F5F500000000000000000000000000000000000000000000000000000000000000000000000000000000000000000000000000000000000000000000000000000000000000000000000000000000000000000000000000000000000000000000000000000000000000000000000000000000000000F500
310
00000000000000000000000000000000000000000000000000000000000000000000000000000000000000F50000000000000000000000000000000000000000F5F5F5000000000000000000000000000000000000000000000000000000000000000000000000000000000000000000000000000000000000000000000000
310
00000000000000000000000000000000000000000000000000000000000000000000000000000000000000000000000000000000000000F50000000000000000000000000000000000000000000000000000000000000000000000000000000000000000F50000000000000000000000000000000000000000F5F5F5000000
310
00000000000000000000000000000000000000000000000000000000000000000000000000000000000000000000000000000000000000000000000000000000000000000000000000000000000000000000000000000000000000000000000000000000000000000000000000000000F50000000000000000000000000000
310
000000000000000000000000000000000000000000000000000000000000F50000000000000000000000000000000000000000F5F5F500000000000000000000000000000000000000000000000000000000000000000000000000000000000000000000000000000000000000000000000000000000000000000000000000
310
000000000000000000000000000000000000000000000000000000000000000000000000000000000000F50000000000000000000000000000000000000000000000000000000000000000000000000000000000000000F50000000000000000000000000000000000000000F5F5F500000000000000000000000000000000
310
000000000000000000000000000000000000000000000000000000000000000000000000000000000000000000000000000000000000000000000000000000000000000000000000000000000000000000000000000000000000000000000000000000F5000000000000000000000000000000000000000000000000000000
310
0000000000000000000000000000000000F500000000000000000000000000000000000000F5F5F5F50000000000000000000000000000000000000000000000000000000000000000000000000000000000000000000000000000000000000000000000000000000000000000000000000000000000000000000000000000
310
0000000000000000000000000000000000000000000000000000000000F50000000000000000000000000000000000000000000000000000000000000000000000000000000000000000F500000000000000000000000000000000000000F5F5F5F50000000000000000000000000000000000000000000000000000000000
310
00F5F5F5F5000000000000000000000000000000000000000000000000000000000000000000000000000000000000000000000000000000000000000000000000000000000000000000000000000000000000000000F500000000000000000000000000000000000000000000000000000000000000000000000000000000
310
00000000F50000000000000000000000000000000000000000F5F5F5000000000000000000000000000000000000000000000000000000000000F5F5F5F50000000000000000000000000000000000000000000000000000000000000000000000000000000000000000000000000000000000000000000000000000000000
310
00000000000000000000000000000000F50000000000000000000000000000000000000000000000000000000000000000000000000000000000000000F50000000000000000000000000000000000000000F5F5F5F5F5F500000000000000000000000000000000000000000000000000000000000000F5F5F5F5F5000000
310
00000000000000000000000000000000000000000000000000000000000000000000000000000000000000000000000000000000000000000000000000000000000000000000000000F50000000000000000000000000000000000000000000000000000000000000000000000000000000000000000F50000000000000000
310
000000000000000000000000F5F5F50000F500000000000000000000000000000000000000000000000000000000F500F5F5F5F5F5F500000000000000000000000000000000000000000000000000000000000000000000000000000000000000000000000000000000000000000000000000000000000000000000000000
310
000000F50000000000000000000000000000000000000000000000000000000000000000000000000000000000000000F5000000000000000000000000000000000000000000F500F5F5F5F5F50000000000000000000000000000000000000000000000000000F500F500F5F5F5F500000000000000000000000000000000
310
000000000000000000000000000000000000000000000000000000000000000000000000000000000000000000000000000000000000000000000000F50000000000000000000000000000000000000000000000000000000000000000000000000000000000000000F5000000000000000000000000000000000000F5F5F5
310
F5F5F5F5F5F5F500000000000000000000000000000000000000000000000000F5F5F5F5000000000000000000000000000000000000000000000000000000000000000000000000000000000000000000000000000000000000000000000000000000000000000000000000000000000000000000F5000000000000000000
310
0000000000000000000000000000000000000000000000000000000000000000000000F5000000000000000000000000000000000000000000F500000000000000000000000000000000000000000000000000000000000000F5F5000000000000000000000000000000000000000000000000000000000000000000000000
310
0000000000000000000000000000000000000000000000000000000000000000000000000000000000000000000000F50000000000000000000000000000000000000000000000000000000000000000000000000000000000000000F5000000000000000000000000000000000000000000F5000000000000000000000000
310
00000000000000000000000000000000000000F5F50000000000000000000000000000000000000000000000000000000000000000000000000000000000000000000000000000000000000000000000000000000000000000000000000000000000000000000000F500000000000000000000000000000000000000000000
310
00000000000000000000000000000000000000000000F50000000000000000000000000000000000000000000000000000000000000000000000000000000000000000000000000000000000000000000000000000000000000000000000000000000000000000000000000000000000000000000000000000000000000000
310
00000000000000000000000000000000000000000000000000000000000000000000F50000000000000000000000000000000000000000000000000000000000000000000000000000000000000000F50000000000000000000000000000000000000000000000000000000000000000000000000000000000000000000000
310
00000000000000000000000000000000000000000000000000000000000000000000000000000000000000000000000000000000000000000000000000000000000000000000000000000000000000000000000000000000000000F50000000000000000000000000000000000000000000000000000000000000000000000
310
000000000000000000F5000000000000000000000000000000000000000000000000000000000000000000000000000000000000000000000000000000000000000000000000000000000000000000000000000000000000000000000000000000000000000000000000000000000000000000000000000000000000000000
310
000000000000000000000000000000000000000000F50000000000000000000000000000000000000000000000000000000000000000000000000000000000000000F5000000000000000000000000000000000000000000000000000000000000000000000000000000000000000000000000000000000000000000000000
310
000000000000000000000000000000000000000000000000000000000000000000000000000000000000000000000000000000000000000000000000000000000000000000000000000000000000F50000000000000000000000000000000000000000000000000000000000000000000000000000000000000000F5000000
310
00000000000000000000000000000000000000000000000000000000000000000000000000000000000000000000000000000000000000000000000000000000000000000000000000000000000000000000000000000000000000000000000000000000000000000000000000000000000000000000F5F5F5F5F5F5F5F5F5
310
F5F5F5F5F5F5F5F5F5F500000000000000000000000000000000000000000000000000000000000000000000000000000000000000F500000000000000000000000000000000000000000000000000000000000000000000000000000000000000000000000000000000000000000000000000000000000000000000000000
310
000000000000000000000000000000000000000000000000000000000000000000000000000000000000000000000000F5F5F5F5F5F5F5F5F5F5F5F5F5F5F5F5F5F50000000000000000000000000000000000000000000000000000000000000000000000000000000000000000F500000000000000000000000000000000
310
0000000000000000000000000000000000000000000000000000000000000000000000000000000000000000000000000000000000000000000000000000000000000000000000000000000000000000000000000000000000000000000000000000000000000000000000000000000000000000000000000000F500000000
310
00000000000000000000000000000000000000000000000000000000000000000000000000000000F5F5F5F5F5F5F5F5F5F5F5F5F5F5F5F5F5F5F5F5F5F5F5F5F5F5F5F5F5F5F5F5F5F5F5F5F5F5F5F5F5F5F5F5F5F5F5F5F5F5F5F5F5F5F5F5F5F5F5F5F5F5F5F5F5F5F5F5F5F5F5F5F5F5F5F5F5F5F5F5F5F5F5F5F5F5F5
310
F5F5F5F5F5F5F5F5F5F5F5F5F5F5F5F5F5F5F5F5F5F5F5F5F5F5F5F5F5F5F5F5F5F5F5F5F5F5F5F5F5F5F5F5F5F5F5F5F5F5F5F5F50000000000000000000000000000000000000000000000000000000000000000000000000000000000000000000000000000000000000000000000000000000000000000000000000000
310
00000000000000000000000000000000000000000000000000000000000000000000000000000000F50000000000000000000000000000000000000000000000000000000000000000000000000000000000000000000000000000000000000000000000000000000000000000000000000000000000000000000000000000
310
00000000000000000000000000000000000000000000000000000000000000000000000000000000000000000000000000000000000000000000000000000000000000000000000000000000000000000000000000000000000000000000000000F50000000000000000000000000000000000000000000000000000000000
310
00000000000000000000000000000000000000000000000000000000000000000000000000000000000000000000000000000000000000000000000000000000000000000000000000000000000000000000000000000000000000000000000000000000000000000000000000000000000000000000000000000000000000
310
000000000000000000000000000000000000000000000000000000F5000000000000000000000000000000000000000000000000000000000000000000000000000000000000000000000000000000000000000000000000000000000000000000000000000000000000000000000000000000000000000000000000000000
310
000000000000000000000000000000000000000000000000000000000000000000000000000000000000000000000000000000000000000000000000000000000000000000000000000000000000000000000000F5000000000000000000000000000000000000000000000000000000000000000000000000000000000000
310
00000000000000000000000000000000000000000000000000000000000000000000000000000000000000000000000000000000000000000000000000000000000000000000000000000000000000000000000000000000000000000000000000000000000000000000000000000000000000000000000000000000000000
310
0000000000000000000000000000F500000000000000000000000000000000000000000000000000000000000000000000000000000000000000000000000000000000000000000000000000000000000000000000000000000000000000000000000000000000000000000000000000000000000000000000000000000000
310
0000000000000000000000000000000000000000000000000000000000000000000000000000000000000000000000000000000000000000000000000000000000000000000000F500000000000000000000000000000000000000000000000000000000000000000000000000000000000000000000000000000000000000
310
00000000000000000000000000000000000000000000000000000000000000000000000000000000000000000000000000000000000000000000000000000000000000000000000000000000000000000000000000000000000000000000000000000000000000000000000000000000000000000000000000000000000000
310
00F5000000000000000000000000000000000000000000000000000000000000000000000000000000000000000000000000000000000000000000000000000000000000000000000000000000000000000000000000000000000000000000
  0
ENDSEC
  0
EOF
