  0
SECTION
  2
HEADER
  9
$ACADVER
  1
AC1009
  9
$INSBASE
 10
0.0
 20
0.0
 30
0.0
  9
$EXTMIN
 10
0.238058
 20
0.4482100000000001
 30
0.0
  9
$EXTMAX
 10
210.24000000000001
 20
297.44999999999999
 30
0.0
  9
$LIMMIN
 10
0.0
 20
0.0
  9
$LIMMAX
 10
12.0
 20
9.0
  9
$ORTHOMODE
 70
     0
  9
$REGENMODE
 70
     1
  9
$FILLMODE
 70
     1
  9
$QTEXTMODE
 70
     0
  9
$MIRRTEXT
 70
     1
  9
$DRAGMODE
 70
     2
  9
$LTSCALE
 40
1.0
  9
$OSMODE
 70
    37
  9
$ATTMODE
 70
     1
  9
$TEXTSIZE
 40
0.0
  9
$TRACEWID
 40
0.05
  9
$TEXTSTYLE
  7
STANDARD
  9
$CLAYER
  8
0
  9
$CELTYPE
  6
CONTINUOUS
  9
$CECOLOR
 62
   256
  9
$DIMSCALE
 40
1.0
  9
$DIMASZ
 40
0.18
  9
$DIMEXO
 40
0.0625
  9
$DIMDLI
 40
0.38
  9
$DIMRND
 40
0.0
  9
$DIMDLE
 40
0.0
  9
$DIMEXE
 40
0.18
  9
$DIMTP
 40
0.0
  9
$DIMTM
 40
0.0
  9
$DIMTXT
 40
0.18
  9
$DIMCEN
 40
0.09
  9
$DIMTSZ
 40
0.0
  9
$DIMTOL
 70
     0
  9
$DIMLIM
 70
     0
  9
$DIMTIH
 70
     1
  9
$DIMTOH
 70
     1
  9
$DIMSE1
 70
     0
  9
$DIMSE2
 70
     0
  9
$DIMTAD
 70
     0
  9
$DIMZIN
 70
     0
  9
$DIMBLK
  1

  9
$DIMASO
 70
     1
  9
$DIMSHO
 70
     1
  9
$DIMPOST
  1

  9
$DIMAPOST
  1

  9
$DIMALT
 70
     0
  9
$DIMALTD
 70
     2
  9
$DIMALTF
 40
25.399999999999999
  9
$DIMLFAC
 40
1.0
  9
$DIMTOFL
 70
     0
  9
$DIMTVP
 40
0.0
  9
$DIMTIX
 70
     0
  9
$DIMSOXD
 70
     0
  9
$DIMSAH
 70
     0
  9
$DIMBLK1
  1

  9
$DIMBLK2
  1

  9
$DIMSTYLE
  2
STANDARD
  9
$DIMCLRD
 70
     0
  9
$DIMCLRE
 70
     0
  9
$DIMCLRT
 70
     0
  9
$DIMTFAC
 40
1.0
  9
$DIMGAP
 40
0.09
  9
$LUNITS
 70
     2
  9
$LUPREC
 70
     4
  9
$SKETCHINC
 40
0.1
  9
$FILLETRAD
 40
0.0
  9
$AUNITS
 70
     0
  9
$AUPREC
 70
     0
  9
$MENU
  1
.
  9
$ELEVATION
 40
0.0
  9
$PELEVATION
 40
0.0
  9
$THICKNESS
 40
0.0
  9
$LIMCHECK
 70
     0
  9
$BLIPMODE
 70
     0
  9
$CHAMFERA
 40
0.0
  9
$CHAMFERB
 40
0.0
  9
$SKPOLY
 70
     0
  9
$TDCREATE
 40
2444972.375
  9
$TDUPDATE
 40
2457479.276344086
  9
$TDINDWG
 40
0.0000305208
  9
$TDUSRTIMER
 40
0.0000305208
  9
$USRTIMER
 70
     1
  9
$ANGBASE
 50
0.0
  9
$ANGDIR
 70
     0
  9
$PDMODE
 70
     0
  9
$PDSIZE
 40
0.0
  9
$PLINEWID
 40
0.0
  9
$COORDS
 70
     1
  9
$SPLFRAME
 70
     0
  9
$SPLINETYPE
 70
     6
  9
$SPLINESEGS
 70
     8
  9
$ATTDIA
 70
     1
  9
$ATTREQ
 70
     1
  9
$HANDLING
 70
     1
  9
$HANDSEED
  5
611
  9
$SURFTAB1
 70
     6
  9
$SURFTAB2
 70
     6
  9
$SURFTYPE
 70
     6
  9
$SURFU
 70
     6
  9
$SURFV
 70
     6
  9
$UCSNAME
  2

  9
$UCSORG
 10
0.0
 20
0.0
 30
0.0
  9
$UCSXDIR
 10
1.0
 20
0.0
 30
0.0
  9
$UCSYDIR
 10
0.0
 20
1.0
 30
0.0
  9
$PUCSNAME
  2

  9
$PUCSORG
 10
0.0
 20
0.0
 30
0.0
  9
$PUCSXDIR
 10
1.0
 20
0.0
 30
0.0
  9
$PUCSYDIR
 10
0.0
 20
1.0
 30
0.0
  9
$USERI1
 70
     0
  9
$USERI2
 70
     0
  9
$USERI3
 70
     0
  9
$USERI4
 70
     0
  9
$USERI5
 70
     0
  9
$USERR1
 40
0.0
  9
$USERR2
 40
0.0
  9
$USERR3
 40
0.0
  9
$USERR4
 40
0.0
  9
$USERR5
 40
0.0
  9
$WORLDVIEW
 70
     1
  9
$SHADEDGE
 70
     3
  9
$SHADEDIF
 70
    70
  9
$TILEMODE
 70
     1
  9
$MAXACTVP
 70
    48
  9
$PLIMCHECK
 70
     0
  9
$PEXTMIN
 10
1.0000000000000000E+020
 20
1.0000000000000000E+020
 30
1.0000000000000000E+020
  9
$PEXTMAX
 10
-1.0000000000000000E+020
 20
-1.0000000000000000E+020
 30
-1.0000000000000000E+020
  9
$PLIMMIN
 10
0.0
 20
0.0
  9
$PLIMMAX
 10
12.0
 20
9.0
  9
$UNITMODE
 70
     0
  9
$VISRETAIN
 70
     1
  9
$PLINEGEN
 70
     0
  9
$PSLTSCALE
 70
     1
  0
ENDSEC
  0
SECTION
  2
TABLES
  0
TABLE
  2
VPORT
 70
     1
  0
VPORT
  2
*ACTIVE
 70
     0
 10
0.0
 20
0.0
 11
1.0
 21
1.0
 12
177.98836336455309
 22
148.72499999999991
 13
0.0
 23
0.0
 14
1.0
 24
1.0
 15
0.0
 25
0.0
 16
0.0
 26
0.0
 36
1.0
 17
0.0
 27
0.0
 37
0.0
 40
290.07819117582369
 41
2.1063583815028899
 42
50.0
 43
0.0
 44
0.0
 50
0.0
 51
0.0
 71
     0
 72
   100
 73
     1
 74
     1
 75
     0
 76
     0
 77
     0
 78
     0
  0
ENDTAB
  0
TABLE
  2
LTYPE
 70
     2
  0
LTYPE
  2
CONTINUOUS
 70
     0
  3
Solid line
 72
    65
 73
     0
 40
0.0
  0
LTYPE
  2
AIGENLINE001
 70
     0
  3
generate AI->DXF Converter
 72
    65
 73
     4
 40
5.8561449999999988
 49
3.5278
 49
-0.776115
 49
0.776115
 49
-0.776115
  0
ENDTAB
  0
TABLE
  2
LAYER
 70
     2
  0
LAYER
  2
0
 70
     0
 62
     7
  6
CONTINUOUS
  0
LAYER
  2
_________2
 70
     0
 62
     7
  6
CONTINUOUS
  0
ENDTAB
  0
TABLE
  2
STYLE
 70
     1
  0
STYLE
  2
STANDARD
 70
     0
 40
0.0
 41
0.0
 50
0.0
 71
     0
 42
0.0
  3
TXT
  4
EXTFONT.SHX
  0
ENDTAB
  0
TABLE
  2
VIEW
 70
     0
  0
ENDTAB
  0
TABLE
  2
UCS
 70
     0
  0
ENDTAB
  0
TABLE
  2
APPID
 70
     3
  0
APPID
  2
ACAD
 70
     0
  0
APPID
  2
ACAD_NAV_VCDISPLAY
 70
     0
  0
APPID
  2
ACAD_MLEADERVER
 70
     0
  0
ENDTAB
  0
TABLE
  2
DIMSTYLE
 70
     1
  0
DIMSTYLE
  2
STANDARD
 70
     0
  3

  4

  5

  6

  7

 40
1.0
 41
0.18
 42
0.0625
 43
0.38
 44
0.18
 45
0.0
 46
0.0
 47
0.0
 48
0.0
140
0.18
141
0.09
142
0.0
143
25.399999999999999
144
1.0
145
0.0
146
1.0
147
0.09
 71
     0
 72
     0
 73
     1
 74
     1
 75
     0
 76
     0
 77
     0
 78
     0
170
     0
171
     2
172
     0
173
     0
174
     0
175
     0
176
     0
177
     0
178
     0
  0
ENDTAB
  0
ENDSEC
  0
SECTION
  2
BLOCKS
  0
BLOCK
  8
0
  2
$MODEL_SPACE
 70
     0
 10
0.0
 20
0.0
 30
0.0
  3
$MODEL_SPACE
  1

  0
ENDBLK
  5
1A
  8
0
  0
BLOCK
 67
     1
  8
0
  2
$PAPER_SPACE
 70
     0
 10
0.0
 20
0.0
 30
0.0
  3
$PAPER_SPACE
  1

  0
ENDBLK
  5
17
 67
     1
  8
0
  0
ENDSEC
  0
SECTION
  2
ENTITIES
  0
TEXT
  5
22
  8
0
 62
     7
 10
162.03899999999999
 20
128.598525
 30
0.0
 40
3.0923400000000001
  1
45
 50
90.0
 41
0.5
 72
     1
 11
162.03899999999999
 21
129.887
 31
0.0
  0
TEXT
  5
23
  8
0
 62
     7
 10
163.05374
 20
111.015
 30
0.0
 40
3.0923400000000001
  1
（%%c6 樹脂プラグ付）
 41
0.5
 72
     2
 11
180.577
 21
111.015
 31
0.0
  0
TEXT
  5
24
  8
0
 62
     7
 10
156.341521
 20
115.77800000000001
 30
0.0
 40
3.0923400000000001
  1
%%c4\U+00D730 SUS木ねじ\U+00D74本
 41
0.5
 72
     2
 11
180.101
 21
115.77800000000001
 31
0.0
  0
TEXT
  5
25
  8
0
 62
     7
 10
106.063782
 20
121.226
 30
0.0
 40
3.0923400000000001
  1
（ダークグレー）
 41
0.5
 72
     2
 11
119.56699999999999
 21
121.226
 31
0.0
  0
TEXT
  5
26
  8
0
 62
     7
 10
106.881334
 20
126.248
 30
0.0
 40
3.0923400000000001
  1
機能部BOX
 41
0.5
 72
     1
 11
111.726
 21
126.248
 31
0.0
  0
TEXT
  5
27
  8
0
 62
     7
 10
41.101599999999991
 20
153.71100000000001
 30
0.0
 40
3.0923400000000001
  1
L＝420
 41
0.5
  0
TEXT
  5
28
  8
0
 62
     7
 10
33.693199999999997
 20
158.214
 30
0.0
 40
3.0923400000000001
  1
スパウト連結フレキホース
 41
0.5
  0
TEXT
  5
29
  8
0
 62
     7
 10
68.557164999999983
 20
75.957899999999995
 30
0.0
 40
3.0923400000000001
  1
%%c10
 41
0.5
 72
     2
 11
71.907200000000003
 21
75.957899999999995
 31
0.0
  0
TEXT
  5
2A
  8
0
 62
     7
 10
57.623325000000001
 20
124.69499999999999
 30
0.0
 40
3.0923400000000001
  1
33
 41
0.5
 72
     1
 11
58.911799999999999
 21
124.69499999999999
 31
0.0
  0
TEXT
  5
2B
  8
0
 62
     7
 10
75.336782499999998
 20
133.55500000000001
 30
0.0
 40
3.0923400000000001
  1
180
 41
0.5
 72
     1
 11
77.011799999999994
 21
133.55500000000001
 31
0.0
  0
TEXT
  5
2C
  8
0
 62
     7
 10
75.433282500000004
 20
272.517
 30
0.0
 40
3.0923400000000001
  1
160
 41
0.5
 72
     1
 11
77.1083
 21
272.517
 31
0.0
  0
TEXT
  5
2D
  8
0
 62
     7
 10
134.29400000000001
 20
171.56742249999999
 30
0.0
 40
3.0923400000000001
  1
max.50
 50
90.0
 41
0.5
 72
     1
 11
134.29400000000001
 21
175.304
 31
0.0
  0
TEXT
  5
2E
  8
0
 62
     7
 10
154.71243999999999
 20
137.994
 30
0.0
 40
3.0923400000000001
  1
16
 41
0.5
 72
     2
 11
156.774
 21
137.994
 31
0.0
  0
TEXT
  5
2F
  8
0
 62
     7
 10
151.905575
 20
174.179
 30
0.0
 40
3.0923400000000001
  1
%%c30
 41
0.5
 72
     2
 11
155.77099999999999
 21
174.179
 31
0.0
  0
TEXT
  5
30
  8
0
 62
     7
 10
114.459135
 20
183.42699999999999
 30
0.0
 40
3.0923400000000001
  1
35%%d
 41
0.5
 72
     1
 11
116.26300000000001
 21
183.42699999999999
 31
0.0
  0
TEXT
  5
31
  8
0
 62
     7
 10
130.87898250000001
 20
183.374
 30
0.0
 40
3.0923400000000001
  1
106
 41
0.5
 72
     1
 11
132.554
 21
183.374
 31
0.0
  0
TEXT
  5
32
  8
0
 62
     7
 10
143.9052874999999
 20
222.995
 30
0.0
 40
3.0923400000000001
  1
%%c40
 41
0.5
 72
     1
 11
145.83799999999999
 21
222.995
 31
0.0
  0
TEXT
  5
33
  8
0
 62
     7
 10
164.119
 20
171.0893725
 30
0.0
 40
3.0923400000000001
  1
60
 50
90.0
 41
0.5
 72
     1
 11
164.119
 21
172.249
 31
0.0
  0
TEXT
  5
34
  8
0
 62
     7
 10
127.227
 20
187.05752499999991
 30
0.0
 40
3.0923400000000001
  1
57
 50
90.0
 41
0.5
 72
     1
 11
127.227
 21
188.34599999999989
 31
0.0
  0
TEXT
  5
35
  8
0
 62
     7
 10
108.568
 20
186.19152500000001
 30
0.0
 40
3.0923400000000001
  1
62
 50
90.0
 41
0.5
 72
     1
 11
108.568
 21
187.47999999999999
 31
0.0
  0
TEXT
  5
36
  8
0
 62
     7
 10
164.119
 20
196.0749825
 30
0.0
 40
3.0923400000000001
  1
150
 50
90.0
 41
0.5
 72
     1
 11
164.119
 21
197.75
 31
0.0
  0
TEXT
  5
37
  8
0
 62
     7
 10
78.008995999999996
 20
88.197799999999987
 30
0.0
 40
3.0923400000000001
  1
L＝500
 41
0.5
 72
     2
 11
85.018299999999996
 21
88.197799999999987
 31
0.0
  0
TEXT
  5
38
  8
0
 62
     7
 10
73.898324000000002
 20
92.797700000000006
 30
0.0
 40
3.0923400000000001
  1
止水栓連結フレキホース
 41
0.5
 72
     2
 11
93.689300000000003
 21
92.797700000000006
 31
0.0
  0
TEXT
  5
39
  8
0
 62
     7
 10
152.87213600000001
 20
242.07400000000001
 30
0.0
 40
3.0923400000000001
  1
%%c32～35
 41
0.5
 72
     2
 11
161.94300000000001
 21
242.07400000000001
 31
0.0
  0
TEXT
  5
3A
  8
0
 62
     7
 10
80.135112000000007
 20
151.27000000000001
 30
0.0
 40
3.0923400000000001
  1
（L＝700）
 41
0.5
 72
     2
 11
90.030600000000007
 21
151.27000000000001
 31
0.0
  0
TEXT
  5
3B
  8
0
 62
     7
 10
80.509162000000003
 20
155.85599999999999
 30
0.0
 40
3.0923400000000001
  1
センサーコード
 41
0.5
 72
     2
 11
92.981600000000014
 21
155.85599999999999
 31
0.0
  0
TEXT
  5
3C
  8
0
 62
     7
 10
139.65652499999999
 20
103.13200000000001
 30
0.0
 40
3.0923400000000001
  1
54
 41
0.5
 72
     1
 11
140.94499999999999
 21
103.13200000000001
 31
0.0
  0
TEXT
  5
3D
  8
0
 62
     7
 10
141.40564599999999
 20
234.49600000000001
 30
0.0
 40
3.0923400000000001
  1
水栓取付穴
 41
0.5
 72
     1
 11
145.83799999999999
 21
234.49600000000001
 31
0.0
  0
TEXT
  5
3E
  8
0
 62
     7
 10
47.320099999999989
 20
128.106525
 30
0.0
 40
3.0923400000000001
  1
65
 50
90.0
 41
0.5
 72
     1
 11
47.320099999999989
 21
129.39500000000001
 31
0.0
  0
LINE
  5
3F
  8
0
 62
     7
 10
153.03299999999999
 20
121.806
 30
0.0
 11
151.84399999999999
 21
123.762
 31
0.0
  0
LINE
  5
40
  8
0
 62
     7
 10
151.84399999999999
 20
123.762
 30
0.0
 11
151.89699999999999
 21
121.473
 31
0.0
  0
LINE
  5
41
  8
0
 62
     7
 10
151.89699999999999
 20
121.473
 30
0.0
 11
153.03299999999999
 21
121.806
 31
0.0
  0
LINE
  5
42
  8
0
 62
     7
 10
151.84399999999999
 20
123.762
 30
0.0
 11
154.387
 21
115.078
 31
0.0
  0
LINE
  5
43
  8
0
 62
     7
 10
163.33099999999999
 20
133.30199999999999
 30
0.0
 11
162.739
 21
135.512
 31
0.0
  0
LINE
  5
44
  8
0
 62
     7
 10
162.739
 20
135.512
 30
0.0
 11
162.14699999999999
 21
133.30199999999999
 31
0.0
  0
LINE
  5
45
  8
0
 62
     7
 10
162.14699999999999
 20
133.30199999999999
 30
0.0
 11
163.33099999999999
 21
133.30199999999999
 31
0.0
  0
LINE
  5
46
  8
0
 62
     7
 10
162.14699999999999
 20
126.473
 30
0.0
 11
162.739
 21
124.262
 31
0.0
  0
LINE
  5
47
  8
0
 62
     7
 10
162.739
 20
124.262
 30
0.0
 11
163.33099999999999
 21
126.473
 31
0.0
  0
LINE
  5
48
  8
0
 62
     7
 10
163.33099999999999
 20
126.473
 30
0.0
 11
162.14699999999999
 21
126.473
 31
0.0
  0
LINE
  5
49
  8
0
 62
     7
 10
162.739
 20
135.512
 30
0.0
 11
162.739
 21
124.262
 31
0.0
  0
LINE
  5
4A
  8
0
 62
     7
 10
163.43899999999999
 20
135.512
 30
0.0
 11
156.422
 21
135.512
 31
0.0
  0
LINE
  5
4B
  8
0
 62
     7
 10
180.101
 20
115.078
 30
0.0
 11
154.387
 21
115.078
 31
0.0
  0
LINE
  5
4C
  8
0
 62
     7
 10
163.43899999999999
 20
124.262
 30
0.0
 11
156.422
 21
124.262
 31
0.0
  0
LINE
  5
4D
  8
0
 62
     7
 10
119.008
 20
125.355
 30
0.0
 11
104.411
 21
125.355
 31
0.0
  0
LINE
  5
4E
  8
0
 62
     7
 10
101.937
 20
127.61
 30
0.0
 11
99.749200000000002
 21
128.285
 31
0.0
  0
LINE
  5
4F
  8
0
 62
     7
 10
99.749200000000002
 20
128.285
 30
0.0
 11
101.306
 21
126.60599999999999
 31
0.0
  0
LINE
  5
50
  8
0
 62
     7
 10
101.306
 20
126.60599999999999
 30
0.0
 11
101.937
 21
127.61
 31
0.0
  0
LINE
  5
51
  8
0
 62
     7
 10
99.749200000000002
 20
128.285
 30
0.0
 11
104.411
 21
125.355
 31
0.0
  0
LINE
  5
52
  8
0
 62
     7
 10
147.01599999999999
 20
81.846999999999994
 30
0.0
 11
144.51599999999999
 21
81.846999999999994
 31
0.0
  0
LINE
  5
53
  8
0
 62
     7
 10
147.01599999999999
 20
80.096900000000005
 30
0.0
 11
144.51599999999999
 21
80.096900000000005
 31
0.0
  0
LINE
  5
54
  8
0
 62
     7
 10
144.51599999999999
 20
80.096900000000005
 30
0.0
 11
144.51599999999999
 21
87.596900000000005
 31
0.0
  0
LINE
  5
55
  8
0
 62
     7
 10
147.01599999999999
 20
80.096900000000005
 30
0.0
 11
147.01599999999999
 21
87.596900000000005
 31
0.0
  0
LINE
  5
56
  8
0
 62
     7
 10
63.081099999999999
 20
159.042
 30
0.0
 11
61.749200000000002
 21
160.374
 31
0.0
  0
LINE
  5
57
  8
0
 62
     7
 10
64.249399999999994
 20
159.874
 30
0.0
 11
63.417400000000001
 21
159.042
 31
0.0
  0
LINE
  5
58
  8
0
 62
     7
 10
64.181799999999996
 20
159.042
 30
0.0
 11
61.749200000000002
 21
161.47499999999999
 31
0.0
  0
LINE
  5
59
  8
0
 62
     7
 10
64.249399999999994
 20
160.97499999999999
 30
0.0
 11
62.316699999999997
 21
159.042
 31
0.0
  0
LINE
  5
5A
  8
0
 62
     7
 10
64.249399999999994
 20
160.07499999999999
 30
0.0
 11
61.749200000000002
 21
162.57599999999999
 31
0.0
  0
LINE
  5
5B
  8
0
 62
     7
 10
64.249399999999994
 20
162.07599999999999
 30
0.0
 11
61.749200000000002
 21
159.57599999999999
 31
0.0
  0
LINE
  5
5C
  8
0
 62
     7
 10
64.249399999999994
 20
161.17599999999999
 30
0.0
 11
61.749200000000002
 21
163.67599999999999
 31
0.0
  0
LINE
  5
5D
  8
0
 62
     7
 10
64.249399999999994
 20
163.17599999999999
 30
0.0
 11
61.749200000000002
 21
160.67599999999999
 31
0.0
  0
LINE
  5
5E
  8
0
 62
     7
 10
64.249399999999994
 20
162.27699999999999
 30
0.0
 11
61.861600000000003
 21
164.66499999999999
 31
0.0
  0
LINE
  5
5F
  8
0
 62
     7
 10
64.249399999999994
 20
164.27699999999999
 30
0.0
 11
61.749200000000002
 21
161.77699999999999
 31
0.0
  0
LINE
  5
60
  8
0
 62
     7
 10
64.249399999999994
 20
163.3779999999999
 30
0.0
 11
62.9619
 21
164.66499999999999
 31
0.0
  0
LINE
  5
61
  8
0
 62
     7
 10
63.5366
 20
164.66499999999999
 30
0.0
 11
61.749200000000002
 21
162.87799999999999
 31
0.0
  0
LINE
  5
62
  8
0
 62
     7
 10
64.249399999999994
 20
164.47800000000001
 30
0.0
 11
64.063000000000002
 21
164.66499999999999
 31
0.0
  0
LINE
  5
63
  8
0
 62
     7
 10
62.43549999999999
 20
164.66499999999999
 30
0.0
 11
61.749200000000002
 21
163.97800000000001
 31
0.0
  0
ARC
  5
64
  8
0
 62
     7
 10
65.040745999999999
 20
142.34532200000001
 30
0.0
 40
0.5839590000000001
 50
272.09296000000001
 51
357.90705000000003
  0
ARC
  5
65
  8
0
 62
     7
 10
64.906652000000008
 20
143.213166
 30
0.0
 40
0.5481350000000002
 50
90.175222000000005
 51
124.88725100000001
  0
ARC
  5
66
  8
0
 62
     7
 10
65.019431999999995
 20
143.03260599999999
 30
0.0
 40
0.760826
 50
124.076714
 51
146.595641
  0
ARC
  5
67
  8
0
 62
     7
 10
65.301307999999992
 20
142.82827700000001
 30
0.0
 40
1.1087370000000001
 50
145.80032499999999
 51
171.74597900000001
  0
ARC
  5
68
  8
0
 62
     7
 10
65.560849000000005
 20
142.76311100000001
 30
0.0
 40
1.375214999999999
 50
170.61137400000001
 51
180.066092
  0
ARC
  5
69
  8
0
 62
     7
 10
65.513869999999997
 20
142.76253399999999
 30
0.0
 40
1.3282350000000001
 50
180.043541
 51
206.82421500000001
  0
ARC
  5
6A
  8
0
 62
     7
 10
65.111986000000002
 20
142.58147600000001
 30
0.0
 40
0.8881129999999998
 50
208.10016200000001
 51
234.876992
  0
ARC
  5
6B
  8
0
 62
     7
 10
64.915331999999992
 20
142.337143
 30
0.0
 40
0.575484
 50
236.89589899999999
 51
268.96884399999999
  0
ARC
  5
6C
  8
0
 62
     7
 10
64.903300999999999
 20
142.31035900000001
 30
0.0
 40
0.548609
 50
270.17490099999998
 51
304.87171000000001
  0
ARC
  5
6D
  8
0
 62
     7
 10
64.790873000000005
 20
142.490163
 30
0.0
 40
0.7604790000000001
 50
304.07595099999998
 51
326.60382700000002
  0
ARC
  5
6E
  8
0
 62
     7
 10
64.50886899999999
 20
142.694479
 30
0.0
 40
1.108487999999999
 50
325.80996299999998
 51
351.75948399999999
  0
ARC
  5
6F
  8
0
 62
     7
 10
64.248754000000005
 20
142.759871
 30
0.0
 40
1.375562999999999
 50
350.61669000000001
 51
0.068912
  0
ARC
  5
70
  8
0
 62
     7
 10
64.295222999999993
 20
142.760514
 30
0.0
 40
1.3290939999999991
 50
0.043595
 51
26.805592000000001
  0
ARC
  5
71
  8
0
 62
     7
 10
64.698363999999998
 20
142.94191699999999
 30
0.0
 40
0.8876899999999999
 50
28.089656999999999
 51
54.877344999999991
  0
ARC
  5
72
  8
0
 62
     7
 10
64.894701999999995
 20
143.18566999999999
 30
0.0
 40
0.57572
 50
56.903146
 51
88.977492999999996
  0
LINE
  5
73
  8
0
 62
     7
 10
64.874300000000005
 20
145.012
 30
0.0
 11
65.423500000000004
 21
143.84
 31
0.0
  0
LINE
  5
74
  8
0
 62
     7
 10
65.624300000000005
 20
142.32400000000001
 30
0.0
 11
65.624300000000005
 21
143.114
 31
0.0
  0
ARC
  5
75
  8
0
 62
     7
 10
63.232222
 20
142.78248500000001
 30
0.0
 40
2.433015999999999
 50
14.536020000000001
 51
25.759139999999999
  0
ARC
  5
76
  8
0
 62
     7
 10
64.348000999999996
 20
143.08706799999999
 30
0.0
 40
1.276591
 50
1.1916439999999999
 51
13.872446
  0
LINE
  5
77
  8
0
 62
     7
 10
61.124299999999991
 20
145.012
 30
0.0
 11
60.575499999999991
 21
143.84
 31
0.0
  0
LINE
  5
78
  8
0
 62
     7
 10
60.374299999999998
 20
142.32400000000001
 30
0.0
 11
60.374299999999998
 21
143.114
 31
0.0
  0
ARC
  5
79
  8
0
 62
     7
 10
62.777456999999998
 20
142.77732800000001
 30
0.0
 40
2.4449079999999999
 50
154.24112199999999
 51
165.41135299999999
  0
ARC
  5
7A
  8
0
 62
     7
 10
61.648271999999999
 20
143.08687699999999
 30
0.0
 40
1.274251
 50
166.092737
 51
178.79759100000001
  0
LINE
  5
7B
  8
0
 62
     7
 10
60.936500000000002
 20
141.762
 30
0.0
 11
65.062100000000001
 21
141.762
 31
0.0
  0
ARC
  5
7C
  8
0
 62
     7
 10
60.958268999999987
 20
142.345719
 30
0.0
 40
0.584371
 50
182.13043300000001
 51
267.869597
  0
ARC
  5
7D
  8
0
 62
     7
 10
61.095319000000003
 20
143.213166
 30
0.0
 40
0.5481350000000002
 50
90.175222000000005
 51
124.88725100000001
  0
ARC
  5
7E
  8
0
 62
     7
 10
61.208097999999993
 20
143.03260599999999
 30
0.0
 40
0.760826
 50
124.076714
 51
146.595641
  0
ARC
  5
7F
  8
0
 62
     7
 10
61.489975000000001
 20
142.82827700000001
 30
0.0
 40
1.1087370000000001
 50
145.80032499999999
 51
171.74597900000001
  0
ARC
  5
80
  8
0
 62
     7
 10
61.749515999999993
 20
142.76311100000001
 30
0.0
 40
1.375214999999999
 50
170.61137400000001
 51
180.066092
  0
ARC
  5
81
  8
0
 62
     7
 10
61.702536999999992
 20
142.76253399999999
 30
0.0
 40
1.3282350000000001
 50
180.043541
 51
206.82421500000001
  0
ARC
  5
82
  8
0
 62
     7
 10
61.300652999999997
 20
142.58147600000001
 30
0.0
 40
0.8881129999999998
 50
208.10016200000001
 51
234.876992
  0
ARC
  5
83
  8
0
 62
     7
 10
61.103999000000002
 20
142.337143
 30
0.0
 40
0.575484
 50
236.89589899999999
 51
268.96884399999999
  0
ARC
  5
84
  8
0
 62
     7
 10
61.091965999999999
 20
142.30988500000001
 30
0.0
 40
0.5481350000000002
 50
270.17524200000003
 51
304.887271
  0
ARC
  5
85
  8
0
 62
     7
 10
60.979187000000003
 20
142.490444
 30
0.0
 40
0.760826
 50
304.07673399999999
 51
326.59566100000001
  0
ARC
  5
86
  8
0
 62
     7
 10
60.697309999999987
 20
142.694773
 30
0.0
 40
1.1087370000000001
 50
325.80034499999999
 51
351.74599899999998
  0
ARC
  5
87
  8
0
 62
     7
 10
60.437764000000001
 20
142.75994
 30
0.0
 40
1.3752200000000001
 50
350.61141300000003
 51
0.066052
  0
ARC
  5
88
  8
0
 62
     7
 10
60.484746999999992
 20
142.760516
 30
0.0
 40
1.3282369999999999
 50
0.043541
 51
26.824176000000008
  0
ARC
  5
89
  8
0
 62
     7
 10
60.886631999999992
 20
142.941575
 30
0.0
 40
0.8881129999999998
 50
28.100142000000002
 51
54.876972000000002
  0
ARC
  5
8A
  8
0
 62
     7
 10
61.083286000000001
 20
143.18590800000001
 30
0.0
 40
0.575484
 50
56.895878999999987
 51
88.968823999999998
  0
ARC
  5
8B
  8
0
 62
     7
 10
63.038106000000013
 20
142.72290100000001
 30
0.0
 40
1.039115999999999
 50
92.130204000000006
 51
177.869766
  0
ARC
  5
8C
  8
0
 62
     7
 10
63.037708999999992
 20
142.79975300000001
 30
0.0
 40
1.0387040000000001
 50
182.10914500000001
 51
267.89088500000003
  0
ARC
  5
8D
  8
0
 62
     7
 10
62.960866000000003
 20
142.800499
 30
0.0
 40
1.0394639999999991
 50
272.12901799999997
 51
357.85125199999999
  0
ARC
  5
8E
  8
0
 62
     7
 10
62.961587000000002
 20
142.72327300000001
 30
0.0
 40
1.0387159999999991
 50
2.1104620000000001
 51
87.909268000000012
  0
LINE
  5
8F
  8
0
 62
     7
 10
61.124299999999991
 20
145.012
 30
0.0
 11
64.874300000000005
 21
145.012
 31
0.0
  0
ARC
  5
90
  8
0
 62
     7
 10
62.373314000000001
 20
156.59572600000001
 30
0.0
 40
0.876279
 50
56.800250999999989
 51
89.920000000000002
  0
ARC
  5
91
  8
0
 62
     7
 10
62.553643000000001
 20
156.90134900000001
 30
0.0
 40
0.5220620000000001
 50
31.351054999999999
 51
54.994213000000002
  0
ARC
  5
92
  8
0
 62
     7
 10
62.375762000000002
 20
156.595215
 30
0.0
 40
0.8767889999999999
 50
90.080029999999994
 51
123.189781
  0
ARC
  5
93
  8
0
 62
     7
 10
62.193940000000012
 20
156.90303599999999
 30
0.0
 40
0.5199120000000002
 50
124.991432
 51
148.72217499999999
  0
ARC
  5
94
  8
0
 62
     7
 10
62.375762999999999
 20
157.74995000000001
 30
0.0
 40
0.8760190000000001
 50
236.77721299999999
 51
269.91985799999998
  0
ARC
  5
95
  8
0
 62
     7
 10
62.19464399999999
 20
157.443972
 30
0.0
 40
0.52107
 50
211.33839699999999
 51
235.003266
  0
ARC
  5
96
  8
0
 62
     7
 10
62.37331300000001
 20
157.74943999999999
 30
0.0
 40
0.8755089999999999
 50
270.08011199999999
 51
303.23276399999997
  0
ARC
  5
97
  8
0
 62
     7
 10
62.552932999999989
 20
157.44566699999999
 30
0.0
 40
0.523231
 50
305.01109600000001
 51
328.58836200000002
  0
ARC
  5
98
  8
0
 62
     7
 10
63.625650999999998
 20
157.74995000000001
 30
0.0
 40
0.8760190000000001
 50
236.77721299999999
 51
269.91985799999998
  0
ARC
  5
99
  8
0
 62
     7
 10
63.444532999999993
 20
157.443972
 30
0.0
 40
0.52107
 50
211.33839699999999
 51
235.003266
  0
ARC
  5
9A
  8
0
 62
     7
 10
63.623201999999999
 20
157.74943999999999
 30
0.0
 40
0.8755089999999999
 50
270.08011199999999
 51
303.23276399999997
  0
ARC
  5
9B
  8
0
 62
     7
 10
63.802820999999987
 20
157.44566699999999
 30
0.0
 40
0.523231
 50
305.01109600000001
 51
328.58836200000002
  0
LINE
  5
9C
  8
0
 62
     7
 10
61.749200000000002
 20
164.66499999999999
 30
0.0
 11
61.749200000000002
 21
157.173
 31
0.0
  0
LINE
  5
9D
  8
0
 62
     7
 10
64.249399999999994
 20
164.66499999999999
 30
0.0
 11
64.249399999999994
 21
157.173
 31
0.0
  0
ARC
  5
9E
  8
0
 62
     7
 10
63.625304
 20
155.797
 30
0.0
 40
0.876279
 50
236.80027100000001
 51
269.92002000000002
  0
ARC
  5
9F
  8
0
 62
     7
 10
63.444974999999999
 20
155.491377
 30
0.0
 40
0.5220620000000001
 50
211.35107500000001
 51
234.99423300000001
  0
ARC
  5
A0
  8
0
 62
     7
 10
63.622855999999999
 20
155.79751099999999
 30
0.0
 40
0.8767889999999999
 50
270.08005000000003
 51
303.18980099999999
  0
ARC
  5
A1
  8
0
 62
     7
 10
63.804678000000003
 20
155.48969
 30
0.0
 40
0.5199120000000002
 50
304.99145199999998
 51
328.722195
  0
ARC
  5
A2
  8
0
 62
     7
 10
63.622855999999999
 20
154.64200600000001
 30
0.0
 40
0.8767889999999999
 50
56.810198999999997
 51
89.919950000000014
  0
ARC
  5
A3
  8
0
 62
     7
 10
63.804678000000003
 20
154.949826
 30
0.0
 40
0.5199120000000002
 50
31.277805000000001
 51
55.00854799999999
  0
ARC
  5
A4
  8
0
 62
     7
 10
63.625304
 20
154.642517
 30
0.0
 40
0.876279
 50
90.079980000000006
 51
123.199729
  0
ARC
  5
A5
  8
0
 62
     7
 10
63.444974999999999
 20
154.94814
 30
0.0
 40
0.5220620000000001
 50
125.00576700000001
 51
148.64892499999999
  0
ARC
  5
A6
  8
0
 62
     7
 10
62.372968000000007
 20
154.64200600000001
 30
0.0
 40
0.8767889999999999
 50
56.810198999999997
 51
89.919950000000014
  0
ARC
  5
A7
  8
0
 62
     7
 10
62.554788999999992
 20
154.949826
 30
0.0
 40
0.5199120000000002
 50
31.277805000000001
 51
55.00854799999999
  0
ARC
  5
A8
  8
0
 62
     7
 10
62.375416000000001
 20
154.642517
 30
0.0
 40
0.876279
 50
90.079980000000006
 51
123.199729
  0
ARC
  5
A9
  8
0
 62
     7
 10
62.195087000000001
 20
154.94814
 30
0.0
 40
0.5220620000000001
 50
125.00576700000001
 51
148.64892499999999
  0
LINE
  5
AA
  8
0
 62
     7
 10
64.249399999999994
 20
150.10300000000001
 30
0.0
 11
64.249399999999994
 21
155.22
 31
0.0
  0
LINE
  5
AB
  8
0
 62
     7
 10
61.749200000000002
 20
150.10300000000001
 30
0.0
 11
61.749200000000002
 21
155.22
 31
0.0
  0
LINE
  5
AC
  8
0
 62
     7
 10
61.1539
 20
150.10300000000001
 30
0.0
 11
61.1539
 21
148.41399999999999
 31
0.0
  0
LINE
  5
AD
  8
0
 62
     7
 10
61.1539
 20
150.10300000000001
 30
0.0
 11
62.999499999999991
 21
150.10300000000001
 31
0.0
  0
LINE
  5
AE
  8
0
 62
     7
 10
61.427500000000002
 20
148.13999999999999
 30
0.0
 11
61.427500000000002
 21
145.91399999999999
 31
0.0
  0
LINE
  5
AF
  8
0
 62
     7
 10
61.427500000000002
 20
148.13999999999999
 30
0.0
 11
61.1539
 21
148.41399999999999
 31
0.0
  0
LINE
  5
B0
  8
0
 62
     7
 10
62.508200000000002
 20
148.13999999999999
 30
0.0
 11
62.508200000000002
 21
145.91399999999999
 31
0.0
  0
LINE
  5
B1
  8
0
 62
     7
 10
62.1175
 20
148.13999999999999
 30
0.0
 11
62.1175
 21
145.91399999999999
 31
0.0
  0
LINE
  5
B2
  8
0
 62
     7
 10
62.1175
 20
148.13999999999999
 30
0.0
 11
61.427500000000002
 21
148.13999999999999
 31
0.0
  0
LINE
  5
B3
  8
0
 62
     7
 10
62.999499999999991
 20
148.13999999999999
 30
0.0
 11
62.508200000000002
 21
148.13999999999999
 31
0.0
  0
ARC
  5
B4
  8
0
 62
     7
 10
61.427473999999997
 20
145.46284199999999
 30
0.0
 40
0.4509660000000001
 50
179.99996999999999
 51
270.00002000000001
  0
ARC
  5
B5
  8
0
 62
     7
 10
61.427473999999997
 20
145.46284199999999
 30
0.0
 40
0.4509660000000001
 50
90.0
 51
179.99996999999999
  0
LINE
  5
B6
  8
0
 62
     7
 10
62.1175
 20
145.91399999999999
 30
0.0
 11
61.427500000000002
 21
145.91399999999999
 31
0.0
  0
LINE
  5
B7
  8
0
 62
     7
 10
62.999499999999991
 20
145.91399999999999
 30
0.0
 11
62.508200000000002
 21
145.91399999999999
 31
0.0
  0
LINE
  5
B8
  8
0
 62
     7
 10
62.999499999999991
 20
145.012
 30
0.0
 11
61.427500000000002
 21
145.012
 31
0.0
  0
LINE
  5
B9
  8
0
 62
     7
 10
64.844700000000003
 20
150.10300000000001
 30
0.0
 11
64.844700000000003
 21
148.41399999999999
 31
0.0
  0
LINE
  5
BA
  8
0
 62
     7
 10
64.844700000000003
 20
150.10300000000001
 30
0.0
 11
62.999499999999991
 21
150.10300000000001
 31
0.0
  0
LINE
  5
BB
  8
0
 62
     7
 10
64.5715
 20
148.13999999999999
 30
0.0
 11
64.5715
 21
145.91399999999999
 31
0.0
  0
LINE
  5
BC
  8
0
 62
     7
 10
64.5715
 20
148.13999999999999
 30
0.0
 11
64.844700000000003
 21
148.41399999999999
 31
0.0
  0
LINE
  5
BD
  8
0
 62
     7
 10
63.4908
 20
148.13999999999999
 30
0.0
 11
63.4908
 21
145.91399999999999
 31
0.0
  0
LINE
  5
BE
  8
0
 62
     7
 10
63.881399999999992
 20
148.13999999999999
 30
0.0
 11
63.881399999999992
 21
145.91399999999999
 31
0.0
  0
LINE
  5
BF
  8
0
 62
     7
 10
63.881399999999992
 20
148.13999999999999
 30
0.0
 11
64.5715
 21
148.13999999999999
 31
0.0
  0
LINE
  5
C0
  8
0
 62
     7
 10
62.999499999999991
 20
148.13999999999999
 30
0.0
 11
63.4908
 21
148.13999999999999
 31
0.0
  0
ARC
  5
C1
  8
0
 62
     7
 10
64.554532999999992
 20
145.445887
 30
0.0
 40
0.468228
 50
2.0751939999999989
 51
87.924796999999984
  0
ARC
  5
C2
  8
0
 62
     7
 10
64.554146000000003
 20
145.48018400000001
 30
0.0
 40
0.4686290000000001
 50
272.12081499999999
 51
357.87919499999998
  0
LINE
  5
C3
  8
0
 62
     7
 10
63.881399999999992
 20
145.91399999999999
 30
0.0
 11
64.5715
 21
145.91399999999999
 31
0.0
  0
LINE
  5
C4
  8
0
 62
     7
 10
62.999499999999991
 20
145.91399999999999
 30
0.0
 11
63.4908
 21
145.91399999999999
 31
0.0
  0
LINE
  5
C5
  8
0
 62
     7
 10
62.999499999999991
 20
145.012
 30
0.0
 11
64.5715
 21
145.012
 31
0.0
  0
LINE
  5
C6
  8
0
 62
     7
 10
33.531700000000001
 20
157.34
 30
0.0
 11
58.0685
 21
157.34
 31
0.0
  0
LINE
  5
C7
  8
0
 62
     7
 10
60.854900000000001
 20
154.73599999999999
 30
0.0
 11
61.749200000000002
 21
152.62799999999999
 31
0.0
  0
LINE
  5
C8
  8
0
 62
     7
 10
61.749200000000002
 20
152.62799999999999
 30
0.0
 11
59.9206
 21
154.006
 31
0.0
  0
LINE
  5
C9
  8
0
 62
     7
 10
59.9206
 20
154.006
 30
0.0
 11
60.854900000000001
 21
154.73599999999999
 31
0.0
  0
LINE
  5
CA
  8
0
 62
     7
 10
61.749200000000002
 20
152.62799999999999
 30
0.0
 11
58.0685
 21
157.34
 31
0.0
  0
LINE
  5
CB
  8
0
 62
     7
 10
61.124299999999991
 20
141.762
 30
0.0
 11
64.874300000000005
 21
141.762
 31
0.0
  0
LINE
  5
CC
  8
0
 62
     7
 10
66.388099999999994
 20
75.546599999999998
 30
0.0
 11
64.177700000000002
 21
74.954700000000003
 31
0.0
  0
LINE
  5
CD
  8
0
 62
     7
 10
64.177700000000002
 20
74.954700000000003
 30
0.0
 11
66.388099999999994
 21
74.362200000000001
 31
0.0
  0
LINE
  5
CE
  8
0
 62
     7
 10
66.388099999999994
 20
74.362200000000001
 30
0.0
 11
66.388099999999994
 21
75.546599999999998
 31
0.0
  0
LINE
  5
CF
  8
0
 62
     7
 10
59.466900000000003
 20
74.376599999999996
 30
0.0
 11
61.677900000000001
 21
74.969200000000001
 31
0.0
  0
LINE
  5
D0
  8
0
 62
     7
 10
61.677900000000001
 20
74.969200000000001
 30
0.0
 11
59.466900000000003
 21
75.561099999999996
 31
0.0
  0
LINE
  5
D1
  8
0
 62
     7
 10
59.466900000000003
 20
75.561099999999996
 30
0.0
 11
59.466900000000003
 21
74.376599999999996
 31
0.0
  0
LINE
  5
D2
  8
0
 62
     7
 10
57.154499999999999
 20
74.961600000000004
 30
0.0
 11
72.040800000000004
 21
74.961600000000004
 31
0.0
  0
LINE
  5
D3
  8
0
 62
     7
 10
64.177700000000002
 20
79.518100000000004
 30
0.0
 11
64.177700000000002
 21
74.470299999999995
 31
0.0
  0
LINE
  5
D4
  8
0
 62
     7
 10
61.677900000000001
 20
79.518100000000004
 30
0.0
 11
61.677900000000001
 21
74.470299999999995
 31
0.0
  0
LINE
  5
D5
  8
0
 62
     7
 10
64.177700000000002
 20
81.846999999999994
 30
0.0
 11
61.677900000000001
 21
81.846999999999994
 31
0.0
  0
LINE
  5
D6
  8
0
 62
     7
 10
64.177700000000002
 20
80.096900000000005
 30
0.0
 11
61.677900000000001
 21
80.096900000000005
 31
0.0
  0
LINE
  5
D7
  8
0
 62
     7
 10
61.677900000000001
 20
80.096900000000005
 30
0.0
 11
61.677900000000001
 21
87.596900000000005
 31
0.0
  0
LINE
  5
D8
  8
0
 62
     7
 10
64.177700000000002
 20
80.096900000000005
 30
0.0
 11
64.177700000000002
 21
87.596900000000005
 31
0.0
  0
LINE
  5
D9
  8
0
 62
     7
 10
60.788400000000003
 20
123.233
 30
0.0
 11
62.999499999999991
 21
123.82599999999999
 31
0.0
  0
LINE
  5
DA
  8
0
 62
     7
 10
62.999499999999991
 20
123.82599999999999
 30
0.0
 11
60.788400000000003
 21
124.419
 31
0.0
  0
LINE
  5
DB
  8
0
 62
     7
 10
60.788400000000003
 20
124.419
 30
0.0
 11
60.788400000000003
 21
123.233
 31
0.0
  0
LINE
  5
DC
  8
0
 62
     7
 10
56.960500000000003
 20
124.404
 30
0.0
 11
54.748800000000003
 21
123.81100000000001
 31
0.0
  0
LINE
  5
DD
  8
0
 62
     7
 10
54.748800000000003
 20
123.81100000000001
 30
0.0
 11
56.960500000000003
 21
123.21899999999999
 31
0.0
  0
LINE
  5
DE
  8
0
 62
     7
 10
56.960500000000003
 20
123.21899999999999
 30
0.0
 11
56.960500000000003
 21
124.404
 31
0.0
  0
LINE
  5
DF
  8
0
 62
     7
 10
62.998800000000003
 20
123.819
 30
0.0
 11
54.75010000000001
 21
123.819
 31
0.0
  0
LINE
  5
E0
  8
0
 62
     7
 10
77.960899999999995
 20
257.077
 30
0.0
 11
76.150199999999998
 21
258.887
 31
0.0
  0
LINE
  5
E1
  8
0
 62
     7
 10
78.399500000000003
 20
257.50200000000001
 30
0.0
 11
76.471299999999999
 21
259.43000000000001
 31
0.0
  0
ARC
  5
E2
  8
0
 62
     7
 10
75.332967000000011
 20
257.922461
 30
0.0
 40
1.2647440000000001
 50
49.645643
 51
89.779948000000005
  0
ARC
  5
E3
  8
0
 62
     7
 10
75.333312000000006
 20
257.92225100000002
 30
0.0
 40
1.8898950000000001
 50
53.473153000000003
 51
89.863194999999976
  0
ARC
  5
E4
  8
0
 62
     7
 10
76.924028000000007
 20
256.35624200000001
 30
0.0
 40
1.2625679999999999
 50
0.145304
 51
34.842675
  0
ARC
  5
E5
  8
0
 62
     7
 10
76.231279000000001
 20
256.360793
 30
0.0
 40
2.5802580000000002
 50
359.970034
 51
6.8724899999999991
  0
ARC
  5
E6
  8
0
 62
     7
 10
77.239083999999991
 20
256.473094
 30
0.0
 40
1.5662819999999991
 50
7.2053820000000011
 51
28.278172999999999
  0
ARC
  5
E7
  8
0
 62
     7
 10
77.468893999999992
 20
256.56427000000002
 30
0.0
 40
1.3210120000000001
 50
29.51780200000001
 51
45.21372499999999
  0
LINE
  5
E8
  8
0
 62
     7
 10
78.998999999999995
 20
252.97200000000001
 30
0.0
 11
78.998999999999995
 21
254.97200000000001
 31
0.0
  0
ARC
  5
E9
  8
0
 62
     7
 10
78.491978000000003
 20
254.96881500000001
 30
0.0
 40
0.506983
 50
0.370677
 51
50.776144999999993
  0
ARC
  5
EA
  8
0
 62
     7
 10
78.487329000000003
 20
254.88496900000001
 30
0.0
 40
0.324433
 50
272.07295499999998
 51
357.86384900000002
  0
ARC
  5
EB
  8
0
 62
     7
 10
78.51072099999999
 20
254.88489100000001
 30
0.0
 40
0.324352
 50
182.122907
 51
267.94032800000002
  0
LINE
  5
EC
  8
0
 62
     7
 10
78.811499999999995
 20
256.35899999999998
 30
0.0
 11
78.811499999999995
 21
254.87299999999999
 31
0.0
  0
LINE
  5
ED
  8
0
 62
     7
 10
78.186599999999999
 20
256.322
 30
0.0
 11
78.186599999999999
 21
254.87299999999999
 31
0.0
  0
LINE
  5
EE
  8
0
 62
     7
 10
68.796599999999998
 20
259.81200000000001
 30
0.0
 11
75.337800000000001
 21
259.81200000000001
 31
0.0
  0
LINE
  5
EF
  8
0
 62
     7
 10
69.009500000000003
 20
259.18700000000001
 30
0.0
 11
75.337800000000001
 21
259.18700000000001
 31
0.0
  0
LINE
  5
F0
  8
0
 62
     7
 10
143.434
 20
148.16200000000001
 30
0.0
 11
147.374
 21
150.905
 31
0.0
  0
ARC
  5
F1
  8
0
 62
     7
 10
144.170466
 20
147.12530599999999
 30
0.0
 40
1.271525999999999
 50
125.374437
 51
179.51201599999999
  0
LINE
  5
F2
  8
0
 62
     7
 10
143.077
 20
148.67500000000001
 30
0.0
 11
147.285
 21
151.60400000000001
 31
0.0
  0
ARC
  5
F3
  8
0
 62
     7
 10
144.18281099999999
 20
147.11918399999999
 30
0.0
 40
1.9088459999999989
 50
125.38565
 51
179.491164
  0
LINE
  5
F4
  8
0
 62
     7
 10
147.553
 20
164.66499999999999
 30
0.0
 11
147.553
 21
152.11699999999999
 31
0.0
  0
ARC
  5
F5
  8
0
 62
     7
 10
146.915357
 20
152.12355500000001
 30
0.0
 40
0.637323
 50
305.40817900000002
 51
359.44941399999999
  0
LINE
  5
F6
  8
0
 62
     7
 10
148.178
 20
164.66499999999999
 30
0.0
 11
148.178
 21
152.44399999999999
 31
0.0
  0
ARC
  5
F7
  8
0
 62
     7
 10
146.26946699999999
 20
152.46064699999999
 30
0.0
 40
1.9082019999999991
 50
305.37569000000002
 51
359.49064199999998
  0
LINE
  5
F8
  8
0
 62
     7
 10
56.960500000000003
 20
133.09399999999999
 30
0.0
 11
54.748800000000003
 21
132.501
 31
0.0
  0
LINE
  5
F9
  8
0
 62
     7
 10
54.748800000000003
 20
132.501
 30
0.0
 11
56.960500000000003
 21
131.90899999999999
 31
0.0
  0
LINE
  5
FA
  8
0
 62
     7
 10
56.960500000000003
 20
131.90899999999999
 30
0.0
 11
56.960500000000003
 21
133.09399999999999
 31
0.0
  0
LINE
  5
FB
  8
0
 62
     7
 10
97.538799999999995
 20
131.923
 30
0.0
 11
99.750600000000006
 21
132.51599999999999
 31
0.0
  0
LINE
  5
FC
  8
0
 62
     7
 10
99.750600000000006
 20
132.51599999999999
 30
0.0
 11
97.538799999999995
 21
133.108
 31
0.0
  0
LINE
  5
FD
  8
0
 62
     7
 10
97.538799999999995
 20
133.108
 30
0.0
 11
97.538799999999995
 21
131.923
 31
0.0
  0
LINE
  5
FE
  8
0
 62
     7
 10
54.748800000000003
 20
132.50800000000001
 30
0.0
 11
99.749200000000002
 21
132.50800000000001
 31
0.0
  0
LINE
  5
FF
  8
0
 62
     7
 10
142.27500000000001
 20
147.136
 30
0.0
 11
142.27500000000001
 21
138.012
 31
0.0
  0
LINE
  5
100
  8
0
 62
     7
 10
142.90000000000001
 20
147.136
 30
0.0
 11
142.90000000000001
 21
138.012
 31
0.0
  0
LINE
  5
101
  8
0
 62
     7
 10
78.198999999999998
 20
146.345
 30
0.0
 11
78.198999999999998
 21
138.012
 31
0.0
  0
LINE
  5
102
  8
0
 62
     7
 10
78.823899999999995
 20
146.345
 30
0.0
 11
78.823899999999995
 21
138.012
 31
0.0
  0
LINE
  5
103
  8
0
 62
     7
 10
65.467200000000005
 20
155.79499999999999
 30
0.0
 11
77.663600000000002
 21
147.37100000000001
 31
0.0
  0
LINE
  5
104
  8
0
 62
     7
 10
65.556799999999996
 20
156.495
 30
0.0
 11
78.020499999999998
 21
147.88399999999999
 31
0.0
  0
ARC
  5
105
  8
0
 62
     7
 10
76.925522000000001
 20
146.33327199999999
 30
0.0
 40
1.273523999999999
 50
0.51828
 51
54.579450000000008
  0
ARC
  5
106
  8
0
 62
     7
 10
76.914521999999991
 20
146.32785200000001
 30
0.0
 40
1.9094919999999991
 50
0.508311
 51
54.604315999999997
  0
LINE
  5
107
  8
0
 62
     7
 10
65.288799999999995
 20
164.66499999999999
 30
0.0
 11
65.288799999999995
 21
157.00800000000001
 31
0.0
  0
ARC
  5
108
  8
0
 62
     7
 10
65.924727000000004
 20
157.01337699999999
 30
0.0
 40
0.6359880000000001
 50
180.489284
 51
234.65316300000001
  0
LINE
  5
109
  8
0
 62
     7
 10
64.663799999999995
 20
164.66499999999999
 30
0.0
 11
64.663799999999995
 21
157.334
 31
0.0
  0
ARC
  5
10A
  8
0
 62
     7
 10
66.571943000000005
 20
157.35116199999999
 30
0.0
 40
1.9082009999999989
 50
180.50935899999999
 51
234.624348
  0
ARC
  5
10B
  8
0
 62
     7
 10
63.828710999999998
 20
230.946181
 30
0.0
 40
1.545839999999999
 50
323.66114900000002
 51
359.840802
  0
ARC
  5
10C
  8
0
 62
     7
 10
63.447153
 20
231.19049899999999
 30
0.0
 40
1.998183
 50
302.87961200000001
 51
324.50106399999999
  0
ARC
  5
10D
  8
0
 62
     7
 10
63.080235000000002
 20
231.707964
 30
0.0
 40
2.6320879999999991
 50
274.18057099999999
 51
303.47223500000001
  0
ARC
  5
10E
  8
0
 62
     7
 10
63.00081999999999
 20
232.090981
 30
0.0
 40
3.0203109999999991
 50
269.97461900000002
 51
275.15344700000003
  0
ARC
  5
10F
  8
0
 62
     7
 10
63.001148000000001
 20
232.009141
 30
0.0
 40
2.9384709999999989
 50
244.658625
 51
269.96750700000001
  0
ARC
  5
110
  8
0
 62
     7
 10
62.755488999999997
 20
231.41770399999999
 30
0.0
 40
2.2990119999999989
 50
218.97616400000001
 51
243.883016
  0
ARC
  5
111
  8
0
 62
     7
 10
62.279924000000001
 20
230.982463
 30
0.0
 40
1.656004
 50
181.40409500000001
 51
217.61867799999999
  0
ARC
  5
112
  8
0
 62
     7
 10
63.828443000000007
 20
233.81338099999999
 30
0.0
 40
1.546108
 50
323.66440599999999
 51
359.84076499999998
  0
ARC
  5
113
  8
0
 62
     7
 10
63.442363
 20
234.06129100000001
 30
0.0
 40
2.0042189999999991
 50
302.1889220000001
 51
324.49493999999999
  0
ARC
  5
114
  8
0
 62
     7
 10
63.078276000000002
 20
234.58184199999999
 30
0.0
 40
2.638892999999999
 50
274.21241900000001
 51
302.858138
  0
ARC
  5
115
  8
0
 62
     7
 10
63.00081999999999
 20
234.95818
 30
0.0
 40
3.0203109999999991
 50
269.97461900000002
 51
275.15344700000003
  0
ARC
  5
116
  8
0
 62
     7
 10
63.001305000000002
 20
234.87320600000001
 30
0.0
 40
2.9353370000000001
 50
244.10262299999999
 51
269.964406
  0
ARC
  5
117
  8
0
 62
     7
 10
62.749884999999999
 20
234.27809999999999
 30
0.0
 40
2.2904309999999999
 50
218.93370300000001
 51
243.258398
  0
ARC
  5
118
  8
0
 62
     7
 10
62.279918999999992
 20
233.84957
 30
0.0
 40
1.655996
 50
181.400925
 51
217.61864600000001
  0
LINE
  5
119
  8
0
 62
     7
 10
65.374499999999983
 20
230.94200000000001
 30
0.0
 11
65.374499999999983
 21
253.072
 31
0.0
  0
LINE
  5
11A
  8
0
 62
     7
 10
60.624400000000001
 20
230.94200000000001
 30
0.0
 11
60.624400000000001
 21
253.072
 31
0.0
  0
ARC
  5
11B
  8
0
 62
     7
 10
62.844863000000011
 20
257.57601099999999
 30
0.0
 40
6.4055910000000003
 50
293.25414999999998
 51
359.07155399999999
  0
ARC
  5
11C
  8
0
 62
     7
 10
62.999479999999998
 20
257.472216
 30
0.0
 40
6.2501329999999991
 50
0.00001
 51
89.999980000000008
  0
ARC
  5
11D
  8
0
 62
     7
 10
62.999481999999993
 20
257.472216
 30
0.0
 40
6.2501329999999991
 50
90.0
 51
179.99996999999999
  0
ARC
  5
11E
  8
0
 62
     7
 10
63.154792999999998
 20
257.576525
 30
0.0
 40
6.4062919999999988
 50
180.93295900000001
 51
246.73511199999999
  0
ARC
  5
11F
  8
0
 62
     7
 10
62.886379000000012
 20
257.54077000000001
 30
0.0
 40
5.2385070000000002
 50
298.349242
 51
359.25018299999999
  0
ARC
  5
120
  8
0
 62
     7
 10
62.999479999999998
 20
257.472216
 30
0.0
 40
5.1249570000000002
 50
0.00001
 51
89.999980000000008
  0
ARC
  5
121
  8
0
 62
     7
 10
62.999481999999993
 20
257.472216
 30
0.0
 40
5.1249570000000002
 50
90.0
 51
179.99996999999999
  0
ARC
  5
122
  8
0
 62
     7
 10
63.111215999999999
 20
257.539537
 30
0.0
 40
5.2371239999999988
 50
180.73653999999999
 51
241.642482
  0
LINE
  5
123
  8
0
  6
AIGENLINE001
 62
     7
 10
55.097799999999999
 20
257.47199999999998
 30
0.0
 11
71.136799999999994
 21
257.47199999999998
 31
0.0
  0
ARC
  5
124
  8
0
 62
     7
 10
62.999566999999999
 20
257.47212999999999
 30
0.0
 40
5.000157999999999
 50
0.000997
 51
90.000967000000017
  0
ARC
  5
125
  8
0
 62
     7
 10
62.999395999999997
 20
257.47212999999999
 30
0.0
 40
5.000157999999999
 50
89.999013000000005
 51
179.99898300000001
  0
ARC
  5
126
  8
0
 62
     7
 10
62.999393999999988
 20
257.47230200000001
 30
0.0
 40
5.0001559999999987
 50
180.0009969999999
 51
270.00100700000002
  0
ARC
  5
127
  8
0
 62
     7
 10
62.999566999999999
 20
257.47230400000001
 30
0.0
 40
5.000157999999999
 50
269.999033
 51
359.99900300000002
  0
LINE
  5
128
  8
0
  6
AIGENLINE001
 62
     7
 10
62.999499999999991
 20
227.69999999999999
 30
0.0
 11
62.999499999999991
 21
266.06200000000001
 31
0.0
  0
LINE
  5
129
  8
0
 62
     7
 10
95.037999999999997
 20
271.05599999999998
 30
0.0
 11
97.249499999999983
 21
271.64800000000002
 31
0.0
  0
LINE
  5
12A
  8
0
 62
     7
 10
97.249499999999983
 20
271.64800000000002
 30
0.0
 11
95.037999999999997
 21
272.24099999999999
 31
0.0
  0
LINE
  5
12B
  8
0
 62
     7
 10
95.037999999999997
 20
272.24099999999999
 30
0.0
 11
95.037999999999997
 21
271.05599999999998
 31
0.0
  0
LINE
  5
12C
  8
0
 62
     7
 10
59.459299999999999
 20
272.226
 30
0.0
 11
57.247500000000002
 21
271.63400000000001
 31
0.0
  0
LINE
  5
12D
  8
0
 62
     7
 10
57.247500000000002
 20
271.63400000000001
 30
0.0
 11
59.459299999999999
 21
271.041
 31
0.0
  0
LINE
  5
12E
  8
0
 62
     7
 10
59.459299999999999
 20
271.041
 30
0.0
 11
59.459299999999999
 21
272.226
 31
0.0
  0
LINE
  5
12F
  8
0
 62
     7
 10
97.248400000000004
 20
271.64100000000002
 30
0.0
 11
57.248899999999999
 21
271.64100000000002
 31
0.0
  0
LINE
  5
130
  8
0
 62
     7
 10
57.248899999999999
 20
269.05599999999998
 30
0.0
 11
57.248899999999999
 21
272.34100000000001
 31
0.0
  0
LINE
  5
131
  8
0
 62
     7
 10
97.248400000000004
 20
269.05599999999998
 30
0.0
 11
97.248400000000004
 21
272.34100000000001
 31
0.0
  0
LINE
  5
132
  8
0
 62
     7
 10
142.90000000000001
 20
138.012
 30
0.0
 11
149.08699999999999
 21
138.012
 31
0.0
  0
LINE
  5
133
  8
0
 62
     7
 10
149.08699999999999
 20
138.012
 30
0.0
 11
149.08699999999999
 21
138.512
 31
0.0
  0
LINE
  5
134
  8
0
 62
     7
 10
149.08699999999999
 20
138.512
 30
0.0
 11
142.90000000000001
 21
138.512
 31
0.0
  0
LINE
  5
135
  8
0
 62
     7
 10
79.249099999999999
 20
252.97200000000001
 30
0.0
 11
79.249099999999999
 21
252.72200000000001
 31
0.0
  0
LINE
  5
136
  8
0
 62
     7
 10
77.748699999999985
 20
252.97200000000001
 30
0.0
 11
77.748699999999985
 21
252.72200000000001
 31
0.0
  0
LINE
  5
137
  8
0
 62
     7
 10
99.499099999999999
 20
252.97200000000001
 30
0.0
 11
99.499099999999999
 21
252.72200000000001
 31
0.0
  0
LINE
  5
138
  8
0
 62
     7
 10
54.998899999999999
 20
252.97200000000001
 30
0.0
 11
54.998899999999999
 21
252.72200000000001
 31
0.0
  0
ARC
  5
139
  8
0
 62
     7
 10
78.505552000000009
 20
254.96865399999999
 30
0.0
 40
0.5067300000000001
 50
129.15985699999999
 51
179.61083400000001
  0
LINE
  5
13A
  8
0
 62
     7
 10
77.998800000000003
 20
254.97200000000001
 30
0.0
 11
77.998800000000003
 21
252.97200000000001
 31
0.0
  0
LINE
  5
13B
  8
0
 62
     7
 10
95.249199999999988
 20
261.47199999999998
 30
0.0
 11
95.249199999999988
 21
260.97199999999998
 31
0.0
  0
LINE
  5
13C
  8
0
 62
     7
 10
94.748999999999995
 20
261.47199999999998
 30
0.0
 11
94.748999999999995
 21
260.97199999999998
 31
0.0
  0
LINE
  5
13D
  8
0
 62
     7
 10
141.08799999999999
 20
122.012
 30
0.0
 11
141.33799999999999
 21
122.012
 31
0.0
  0
LINE
  5
13E
  8
0
 62
     7
 10
141.08799999999999
 20
137.762
 30
0.0
 11
141.33799999999999
 21
137.762
 31
0.0
  0
LINE
  5
13F
  8
0
 62
     7
 10
149.83699999999999
 20
135.262
 30
0.0
 11
149.33799999999999
 21
135.262
 31
0.0
  0
LINE
  5
140
  8
0
 62
     7
 10
149.33799999999999
 20
135.262
 30
0.0
 11
149.33799999999999
 21
124.512
 31
0.0
  0
LINE
  5
141
  8
0
 62
     7
 10
149.33799999999999
 20
124.512
 30
0.0
 11
149.83699999999999
 21
124.512
 31
0.0
  0
LINE
  5
142
  8
0
 62
     7
 10
149.33799999999999
 20
134.512
 30
0.0
 11
149.83699999999999
 21
134.512
 31
0.0
  0
LINE
  5
143
  8
0
 62
     7
 10
149.83699999999999
 20
134.512
 30
0.0
 11
149.83699999999999
 21
138.012
 31
0.0
  0
LINE
  5
144
  8
0
 62
     7
 10
149.83699999999999
 20
138.012
 30
0.0
 11
141.33799999999999
 21
138.012
 31
0.0
  0
LINE
  5
145
  8
0
 62
     7
 10
141.33799999999999
 20
138.012
 30
0.0
 11
141.33799999999999
 21
121.762
 31
0.0
  0
LINE
  5
146
  8
0
 62
     7
 10
141.33799999999999
 20
121.762
 30
0.0
 11
149.83699999999999
 21
121.762
 31
0.0
  0
LINE
  5
147
  8
0
 62
     7
 10
149.83699999999999
 20
121.762
 30
0.0
 11
149.83699999999999
 21
125.262
 31
0.0
  0
LINE
  5
148
  8
0
 62
     7
 10
149.83699999999999
 20
125.262
 30
0.0
 11
149.33799999999999
 21
125.262
 31
0.0
  0
LINE
  5
149
  8
0
 62
     7
 10
141.08799999999999
 20
121.762
 30
0.0
 11
136.33699999999999
 21
121.762
 31
0.0
  0
LINE
  5
14A
  8
0
 62
     7
 10
136.33699999999999
 20
121.762
 30
0.0
 11
136.33699999999999
 21
138.012
 31
0.0
  0
LINE
  5
14B
  8
0
 62
     7
 10
136.33699999999999
 20
138.012
 30
0.0
 11
141.08799999999999
 21
138.012
 31
0.0
  0
LINE
  5
14C
  8
0
 62
     7
 10
141.08799999999999
 20
138.012
 30
0.0
 11
141.08799999999999
 21
121.762
 31
0.0
  0
LINE
  5
14D
  8
0
 62
     7
 10
78.998999999999995
 20
252.97200000000001
 30
0.0
 11
99.749200000000002
 21
252.97200000000001
 31
0.0
  0
LINE
  5
14E
  8
0
 62
     7
 10
99.749200000000002
 20
252.97200000000001
 30
0.0
 11
99.749200000000002
 21
261.47199999999998
 31
0.0
  0
LINE
  5
14F
  8
0
 62
     7
 10
99.749200000000002
 20
261.47199999999998
 30
0.0
 11
94.748999999999995
 21
261.47199999999998
 31
0.0
  0
LINE
  5
150
  8
0
 62
     7
 10
58.197299999999991
 20
261.47199999999998
 30
0.0
 11
54.748800000000003
 21
261.47199999999998
 31
0.0
  0
LINE
  5
151
  8
0
 62
     7
 10
54.748800000000003
 20
261.47199999999998
 30
0.0
 11
54.748800000000003
 21
252.97200000000001
 31
0.0
  0
LINE
  5
152
  8
0
 62
     7
 10
54.748800000000003
 20
252.97200000000001
 30
0.0
 11
58.66279999999999
 21
252.97200000000001
 31
0.0
  0
LINE
  5
153
  8
0
 62
     7
 10
67.3369
 20
252.97200000000001
 30
0.0
 11
77.998800000000003
 21
252.97200000000001
 31
0.0
  0
LINE
  5
154
  8
0
 62
     7
 10
68.178499999999985
 20
260.97199999999998
 30
0.0
 11
95.249199999999988
 21
260.97199999999998
 31
0.0
  0
LINE
  5
155
  8
0
 62
     7
 10
60.624400000000001
 20
247.97200000000001
 30
0.0
 11
54.748800000000003
 21
247.97200000000001
 31
0.0
  0
LINE
  5
156
  8
0
 62
     7
 10
54.748800000000003
 20
247.97200000000001
 30
0.0
 11
54.748800000000003
 21
252.72200000000001
 31
0.0
  0
LINE
  5
157
  8
0
 62
     7
 10
54.748800000000003
 20
252.72200000000001
 30
0.0
 11
58.939100000000003
 21
252.72200000000001
 31
0.0
  0
LINE
  5
158
  8
0
 62
     7
 10
67.059600000000003
 20
252.72200000000001
 30
0.0
 11
99.749200000000002
 21
252.72200000000001
 31
0.0
  0
LINE
  5
159
  8
0
 62
     7
 10
99.749200000000002
 20
252.72200000000001
 30
0.0
 11
99.749200000000002
 21
247.97200000000001
 31
0.0
  0
LINE
  5
15A
  8
0
 62
     7
 10
99.749200000000002
 20
247.97200000000001
 30
0.0
 11
65.374499999999983
 21
247.97200000000001
 31
0.0
  0
LINE
  5
15B
  8
0
 62
     7
 10
141.08799999999999
 20
121.762
 30
0.0
 11
141.08799999999999
 21
138.012
 31
0.0
  0
LINE
  5
15C
  8
0
 62
     7
 10
99.749200000000002
 20
121.762
 30
0.0
 11
54.748800000000003
 21
121.762
 31
0.0
  0
LINE
  5
15D
  8
0
 62
     7
 10
54.748800000000003
 20
121.762
 30
0.0
 11
54.748800000000003
 21
138.012
 31
0.0
  0
LINE
  5
15E
  8
0
 62
     7
 10
54.748800000000003
 20
138.012
 30
0.0
 11
99.749200000000002
 21
138.012
 31
0.0
  0
LINE
  5
15F
  8
0
 62
     7
 10
99.749200000000002
 20
138.012
 30
0.0
 11
99.749200000000002
 21
121.762
 31
0.0
  0
LINE
  5
160
  8
0
 62
     7
 10
155.42500000000001
 20
135.012
 30
0.0
 11
155.02199999999999
 21
136.01300000000001
 31
0.0
  0
LINE
  5
161
  8
0
 62
     7
 10
154.85499999999999
 20
135.012
 30
0.0
 11
154.452
 21
136.01300000000001
 31
0.0
  0
LINE
  5
162
  8
0
 62
     7
 10
154.28399999999999
 20
135.012
 30
0.0
 11
153.88200000000001
 21
136.01300000000001
 31
0.0
  0
LINE
  5
163
  8
0
 62
     7
 10
153.715
 20
135.012
 30
0.0
 11
153.31200000000001
 21
136.01300000000001
 31
0.0
  0
LINE
  5
164
  8
0
 62
     7
 10
153.14500000000001
 20
135.012
 30
0.0
 11
152.74199999999999
 21
136.01300000000001
 31
0.0
  0
LINE
  5
165
  8
0
 62
     7
 10
152.57499999999999
 20
135.012
 30
0.0
 11
152.172
 21
136.01300000000001
 31
0.0
  0
LINE
  5
166
  8
0
 62
     7
 10
152.00399999999999
 20
135.012
 30
0.0
 11
151.602
 21
136.01300000000001
 31
0.0
  0
LINE
  5
167
  8
0
 62
     7
 10
151.435
 20
135.012
 30
0.0
 11
151.03200000000001
 21
136.01300000000001
 31
0.0
  0
LINE
  5
168
  8
0
 62
     7
 10
150.86500000000001
 20
135.012
 30
0.0
 11
150.46199999999999
 21
136.01300000000001
 31
0.0
  0
LINE
  5
169
  8
0
 62
     7
 10
150.29499999999999
 20
135.012
 30
0.0
 11
149.892
 21
136.01300000000001
 31
0.0
  0
LINE
  5
16A
  8
0
 62
     7
 10
155.501
 20
135.273
 30
0.0
 11
156.08799999999999
 21
135.512
 31
0.0
  0
LINE
  5
16B
  8
0
 62
     7
 10
155.501
 20
135.751
 30
0.0
 11
156.08799999999999
 21
135.512
 31
0.0
  0
LINE
  5
16C
  8
0
 62
     7
 10
155.501
 20
135.751
 30
0.0
 11
149.83699999999999
 21
135.751
 31
0.0
  0
LINE
  5
16D
  8
0
 62
     7
 10
155.501
 20
135.273
 30
0.0
 11
149.83699999999999
 21
135.273
 31
0.0
  0
LINE
  5
16E
  8
0
  6
AIGENLINE001
 62
     7
 10
156.422
 20
135.512
 30
0.0
 11
149.405
 21
135.512
 31
0.0
  0
LINE
  5
16F
  8
0
 62
     7
 10
155.42500000000001
 20
123.762
 30
0.0
 11
155.02199999999999
 21
124.762
 31
0.0
  0
LINE
  5
170
  8
0
 62
     7
 10
154.85499999999999
 20
123.762
 30
0.0
 11
154.452
 21
124.762
 31
0.0
  0
LINE
  5
171
  8
0
 62
     7
 10
154.28399999999999
 20
123.762
 30
0.0
 11
153.88200000000001
 21
124.762
 31
0.0
  0
LINE
  5
172
  8
0
 62
     7
 10
153.715
 20
123.762
 30
0.0
 11
153.31200000000001
 21
124.762
 31
0.0
  0
LINE
  5
173
  8
0
 62
     7
 10
153.14500000000001
 20
123.762
 30
0.0
 11
152.74199999999999
 21
124.762
 31
0.0
  0
LINE
  5
174
  8
0
 62
     7
 10
152.57499999999999
 20
123.762
 30
0.0
 11
152.172
 21
124.762
 31
0.0
  0
LINE
  5
175
  8
0
 62
     7
 10
152.00399999999999
 20
123.762
 30
0.0
 11
151.602
 21
124.762
 31
0.0
  0
LINE
  5
176
  8
0
 62
     7
 10
151.435
 20
123.762
 30
0.0
 11
151.03200000000001
 21
124.762
 31
0.0
  0
LINE
  5
177
  8
0
 62
     7
 10
150.86500000000001
 20
123.762
 30
0.0
 11
150.46199999999999
 21
124.762
 31
0.0
  0
LINE
  5
178
  8
0
 62
     7
 10
150.29499999999999
 20
123.762
 30
0.0
 11
149.892
 21
124.762
 31
0.0
  0
LINE
  5
179
  8
0
 62
     7
 10
155.501
 20
124.023
 30
0.0
 11
156.08799999999999
 21
124.262
 31
0.0
  0
LINE
  5
17A
  8
0
 62
     7
 10
155.501
 20
124.501
 30
0.0
 11
156.08799999999999
 21
124.262
 31
0.0
  0
LINE
  5
17B
  8
0
 62
     7
 10
155.501
 20
124.501
 30
0.0
 11
149.83699999999999
 21
124.501
 31
0.0
  0
LINE
  5
17C
  8
0
 62
     7
 10
155.501
 20
124.023
 30
0.0
 11
149.83699999999999
 21
124.023
 31
0.0
  0
LINE
  5
17D
  8
0
  6
AIGENLINE001
 62
     7
 10
156.422
 20
124.262
 30
0.0
 11
149.405
 21
124.262
 31
0.0
  0
LINE
  5
17E
  8
0
 62
     7
 10
57.749099999999999
 20
267.05900000000003
 30
0.0
 11
56.748699999999999
 21
266.65600000000001
 31
0.0
  0
LINE
  5
17F
  8
0
 62
     7
 10
57.749099999999999
 20
266.48899999999998
 30
0.0
 11
56.748699999999999
 21
266.08600000000001
 31
0.0
  0
LINE
  5
180
  8
0
 62
     7
 10
57.749099999999999
 20
265.9190000000001
 30
0.0
 11
56.748699999999999
 21
265.517
 31
0.0
  0
LINE
  5
181
  8
0
 62
     7
 10
57.749099999999999
 20
265.34899999999999
 30
0.0
 11
56.748699999999999
 21
264.94600000000003
 31
0.0
  0
LINE
  5
182
  8
0
 62
     7
 10
57.749099999999999
 20
264.779
 30
0.0
 11
56.748699999999999
 21
264.37599999999998
 31
0.0
  0
LINE
  5
183
  8
0
 62
     7
 10
57.749099999999999
 20
264.209
 30
0.0
 11
56.748699999999999
 21
263.80599999999998
 31
0.0
  0
LINE
  5
184
  8
0
 62
     7
 10
57.749099999999999
 20
263.63900000000001
 30
0.0
 11
56.748699999999999
 21
263.23700000000002
 31
0.0
  0
LINE
  5
185
  8
0
 62
     7
 10
57.749099999999999
 20
263.06900000000002
 30
0.0
 11
56.748699999999999
 21
262.666
 31
0.0
  0
LINE
  5
186
  8
0
 62
     7
 10
57.749099999999999
 20
262.49900000000002
 30
0.0
 11
56.748699999999999
 21
262.096
 31
0.0
  0
LINE
  5
187
  8
0
 62
     7
 10
57.749099999999999
 20
261.93000000000001
 30
0.0
 11
56.748699999999999
 21
261.52600000000001
 31
0.0
  0
LINE
  5
188
  8
0
 62
     7
 10
57.488
 20
267.13599999999991
 30
0.0
 11
57.248899999999999
 21
267.72199999999998
 31
0.0
  0
LINE
  5
189
  8
0
 62
     7
 10
57.009799999999998
 20
267.13599999999991
 30
0.0
 11
57.248899999999999
 21
267.72199999999998
 31
0.0
  0
LINE
  5
18A
  8
0
 62
     7
 10
57.009799999999998
 20
267.13599999999991
 30
0.0
 11
57.009799999999998
 21
261.47199999999998
 31
0.0
  0
LINE
  5
18B
  8
0
 62
     7
 10
57.488
 20
267.13599999999991
 30
0.0
 11
57.488
 21
261.47199999999998
 31
0.0
  0
LINE
  5
18C
  8
0
  6
AIGENLINE001
 62
     7
 10
57.248899999999999
 20
268.05599999999998
 30
0.0
 11
57.248899999999999
 21
261.03899999999999
 31
0.0
  0
LINE
  5
18D
  8
0
 62
     7
 10
97.749300000000005
 20
267.05900000000003
 30
0.0
 11
96.748900000000006
 21
266.65600000000001
 31
0.0
  0
LINE
  5
18E
  8
0
 62
     7
 10
97.749300000000005
 20
266.48899999999998
 30
0.0
 11
96.748900000000006
 21
266.08600000000001
 31
0.0
  0
LINE
  5
18F
  8
0
 62
     7
 10
97.749300000000005
 20
265.9190000000001
 30
0.0
 11
96.748900000000006
 21
265.517
 31
0.0
  0
LINE
  5
190
  8
0
 62
     7
 10
97.749300000000005
 20
265.34899999999999
 30
0.0
 11
96.748900000000006
 21
264.94600000000003
 31
0.0
  0
LINE
  5
191
  8
0
 62
     7
 10
97.749300000000005
 20
264.779
 30
0.0
 11
96.748900000000006
 21
264.37599999999998
 31
0.0
  0
LINE
  5
192
  8
0
 62
     7
 10
97.749300000000005
 20
264.209
 30
0.0
 11
96.748900000000006
 21
263.80599999999998
 31
0.0
  0
LINE
  5
193
  8
0
 62
     7
 10
97.749300000000005
 20
263.63900000000001
 30
0.0
 11
96.748900000000006
 21
263.23700000000002
 31
0.0
  0
LINE
  5
194
  8
0
 62
     7
 10
97.749300000000005
 20
263.06900000000002
 30
0.0
 11
96.748900000000006
 21
262.666
 31
0.0
  0
LINE
  5
195
  8
0
 62
     7
 10
97.749300000000005
 20
262.49900000000002
 30
0.0
 11
96.748900000000006
 21
262.096
 31
0.0
  0
LINE
  5
196
  8
0
 62
     7
 10
97.749300000000005
 20
261.93000000000001
 30
0.0
 11
96.748900000000006
 21
261.52600000000001
 31
0.0
  0
LINE
  5
197
  8
0
 62
     7
 10
97.48820000000002
 20
267.13599999999991
 30
0.0
 11
97.249100000000013
 21
267.72199999999998
 31
0.0
  0
LINE
  5
198
  8
0
 62
     7
 10
97.010000000000005
 20
267.13599999999991
 30
0.0
 11
97.249100000000013
 21
267.72199999999998
 31
0.0
  0
LINE
  5
199
  8
0
 62
     7
 10
97.010000000000005
 20
267.13599999999991
 30
0.0
 11
97.010000000000005
 21
261.47199999999998
 31
0.0
  0
LINE
  5
19A
  8
0
 62
     7
 10
97.48820000000002
 20
267.13599999999991
 30
0.0
 11
97.48820000000002
 21
261.47199999999998
 31
0.0
  0
LINE
  5
19B
  8
0
  6
AIGENLINE001
 62
     7
 10
97.249100000000013
 20
268.05599999999998
 30
0.0
 11
97.249100000000013
 21
261.03899999999999
 31
0.0
  0
LINE
  5
19C
  8
0
 62
     7
 10
97.249100000000013
 20
130.387
 30
0.0
 11
97.681799999999996
 21
130.137
 31
0.0
  0
LINE
  5
19D
  8
0
 62
     7
 10
97.682199999999995
 20
130.137
 30
0.0
 11
97.681799999999996
 21
129.637
 31
0.0
  0
LINE
  5
19E
  8
0
 62
     7
 10
97.681799999999996
 20
129.637
 30
0.0
 11
97.248800000000003
 21
129.387
 31
0.0
  0
LINE
  5
19F
  8
0
 62
     7
 10
97.248800000000003
 20
129.387
 30
0.0
 11
96.816100000000006
 21
129.637
 31
0.0
  0
LINE
  5
1A0
  8
0
 62
     7
 10
96.815700000000007
 20
129.637
 30
0.0
 11
96.816100000000006
 21
130.137
 31
0.0
  0
LINE
  5
1A1
  8
0
 62
     7
 10
96.816100000000006
 20
130.137
 30
0.0
 11
97.248800000000003
 21
130.387
 31
0.0
  0
ARC
  5
1A2
  8
0
 62
     7
 10
97.208452000000008
 20
129.927798
 30
0.0
 40
1.1038870000000001
 50
272.09313800000001
 51
357.88829600000003
  0
ARC
  5
1A3
  8
0
 62
     7
 10
97.289431000000022
 20
129.92778300000001
 30
0.0
 40
1.1038840000000001
 50
182.110964
 51
267.88906600000001
  0
ARC
  5
1A4
  8
0
 62
     7
 10
97.289431000000022
 20
129.84646100000001
 30
0.0
 40
1.1038840000000001
 50
92.110934000000015
 51
177.889036
  0
ARC
  5
1A5
  8
0
 62
     7
 10
97.208128000000002
 20
129.84612200000001
 30
0.0
 40
1.1042229999999991
 50
2.127901
 51
87.890664000000015
  0
LINE
  5
1A6
  8
0
 62
     7
 10
57.248899999999999
 20
130.387
 30
0.0
 11
57.681600000000003
 21
130.137
 31
0.0
  0
LINE
  5
1A7
  8
0
 62
     7
 10
57.681600000000003
 20
130.137
 30
0.0
 11
57.681600000000003
 21
129.637
 31
0.0
  0
LINE
  5
1A8
  8
0
 62
     7
 10
57.681600000000003
 20
129.637
 30
0.0
 11
57.248899999999999
 21
129.387
 31
0.0
  0
LINE
  5
1A9
  8
0
 62
     7
 10
57.248499999999993
 20
129.387
 30
0.0
 11
56.8155
 21
129.637
 31
0.0
  0
LINE
  5
1AA
  8
0
 62
     7
 10
56.8155
 20
129.637
 30
0.0
 11
56.8155
 21
130.137
 31
0.0
  0
LINE
  5
1AB
  8
0
 62
     7
 10
56.8155
 20
130.137
 30
0.0
 11
57.248899999999999
 21
130.387
 31
0.0
  0
ARC
  5
1AC
  8
0
 62
     7
 10
57.208240000000004
 20
129.927774
 30
0.0
 40
1.103874
 50
272.11047200000002
 51
357.88953800000002
  0
ARC
  5
1AD
  8
0
 62
     7
 10
57.289543000000002
 20
129.927773
 30
0.0
 40
1.103874
 50
182.110465
 51
267.889565
  0
ARC
  5
1AE
  8
0
 62
     7
 10
57.289552999999998
 20
129.84646100000001
 30
0.0
 40
1.1038840000000001
 50
92.110934000000015
 51
177.889036
  0
ARC
  5
1AF
  8
0
 62
     7
 10
57.208234999999988
 20
129.84646599999999
 30
0.0
 40
1.1038799999999991
 50
2.1107109999999998
 51
87.889279000000002
  0
LINE
  5
1B0
  8
0
 62
     7
 10
147.58699999999999
 20
141.012
 30
0.0
 11
147.904
 21
140.84800000000001
 31
0.0
  0
LINE
  5
1B1
  8
0
 62
     7
 10
144.08799999999999
 20
141.012
 30
0.0
 11
143.77099999999999
 21
140.84800000000001
 31
0.0
  0
ARC
  5
1B2
  8
0
 62
     7
 10
147.97542100000001
 20
140.510796
 30
0.0
 40
0.236971
 50
0.258149
 51
39.218566000000003
  0
ARC
  5
1B3
  8
0
 62
     7
 10
147.78222099999999
 20
140.375765
 30
0.0
 40
0.472354
 50
37.090212999999999
 51
56.854452999999999
  0
ARC
  5
1B4
  8
0
 62
     7
 10
147.499357
 20
139.97782000000001
 30
0.0
 40
0.960401
 50
55.705689999999997
 51
69.617773
  0
ARC
  5
1B5
  8
0
 62
     7
 10
147.21531100000001
 20
139.28301099999999
 30
0.0
 40
1.7108080000000001
 50
68.80484100000001
 51
79.068477000000001
  0
ARC
  5
1B6
  8
0
 62
     7
 10
147.04248999999999
 20
138.48385200000001
 30
0.0
 40
2.528303999999999
 50
78.657459000000003
 51
90.399558999999996
  0
ARC
  5
1B7
  8
0
 62
     7
 10
147.025002
 20
138.39763300000001
 30
0.0
 40
2.614460999999999
 50
90.003157999999999
 51
104.977433
  0
ARC
  5
1B8
  8
0
 62
     7
 10
146.74705399999999
 20
139.54199199999999
 30
0.0
 40
1.4374049999999989
 50
106.063332
 51
116.763423
  0
ARC
  5
1B9
  8
0
 62
     7
 10
146.441677
 20
140.15885700000001
 30
0.0
 40
0.7491260000000001
 50
117.154736
 51
132.38487900000001
  0
ARC
  5
1BA
  8
0
 62
     7
 10
146.18638200000001
 20
140.447565
 30
0.0
 40
0.363831
 50
133.337874
 51
155.15664699999999
  0
ARC
  5
1BB
  8
0
 62
     7
 10
146.065663
 20
140.51033200000001
 30
0.0
 40
0.227997
 50
156.72480999999999
 51
179.615106
  0
ARC
  5
1BC
  8
0
 62
     7
 10
145.60081500000001
 20
140.510797
 30
0.0
 40
0.236858
 50
0.25809
 51
39.240664000000002
  0
ARC
  5
1BD
  8
0
 62
     7
 10
145.40786600000001
 20
140.37608900000001
 30
0.0
 40
0.471842
 50
37.087819000000003
 51
56.877611000000002
  0
ARC
  5
1BE
  8
0
 62
     7
 10
145.128241
 20
139.984768
 30
0.0
 40
0.9525889999999998
 50
55.653001000000003
 51
69.682637
  0
ARC
  5
1BF
  8
0
 62
     7
 10
144.83988500000001
 20
139.28092100000001
 30
0.0
 40
1.7129659999999991
 50
68.812089999999998
 51
79.063458999999995
  0
ARC
  5
1C0
  8
0
 62
     7
 10
144.6676919999999
 20
138.48455300000001
 30
0.0
 40
2.527603
 50
78.655940999999999
 51
90.397892000000013
  0
ARC
  5
1C1
  8
0
 62
     7
 10
144.65027799999999
 20
138.39570800000001
 30
0.0
 40
2.616387
 50
90.003039999999984
 51
104.971889
  0
ARC
  5
1C2
  8
0
 62
     7
 10
144.372017
 20
139.54171700000001
 30
0.0
 40
1.4376530000000001
 50
106.05801200000001
 51
116.758663
  0
ARC
  5
1C3
  8
0
 62
     7
 10
144.066778
 20
140.158603
 30
0.0
 40
0.749418
 50
117.15560499999999
 51
132.38046700000001
  0
ARC
  5
1C4
  8
0
 62
     7
 10
143.811016
 20
140.44775899999999
 30
0.0
 40
0.363475
 50
133.32292100000001
 51
155.16432900000001
  0
ARC
  5
1C5
  8
0
 62
     7
 10
143.69059899999999
 20
140.51033200000001
 30
0.0
 40
0.227997
 50
156.72480999999999
 51
179.615106
  0
LINE
  5
1C6
  8
0
 62
     7
 10
148.21199999999999
 20
140.512
 30
0.0
 11
148.21199999999999
 21
138.512
 31
0.0
  0
LINE
  5
1C7
  8
0
 62
     7
 10
143.46299999999999
 20
140.512
 30
0.0
 11
143.46299999999999
 21
138.512
 31
0.0
  0
LINE
  5
1C8
  8
0
 62
     7
 10
145.83799999999999
 20
140.512
 30
0.0
 11
145.83799999999999
 21
138.512
 31
0.0
  0
LINE
  5
1C9
  8
0
 62
     7
 10
147.58699999999999
 20
141.762
 30
0.0
 11
144.08799999999999
 21
141.762
 31
0.0
  0
LINE
  5
1CA
  8
0
 62
     7
 10
144.08799999999999
 20
141.762
 30
0.0
 11
144.08799999999999
 21
141.012
 31
0.0
  0
LINE
  5
1CB
  8
0
 62
     7
 10
144.08799999999999
 20
141.012
 30
0.0
 11
147.58699999999999
 21
141.012
 31
0.0
  0
LINE
  5
1CC
  8
0
 62
     7
 10
147.58699999999999
 20
141.012
 30
0.0
 11
147.58699999999999
 21
141.762
 31
0.0
  0
LINE
  5
1CD
  8
0
 62
     7
 10
147.58699999999999
 20
118.762
 30
0.0
 11
147.904
 21
118.925
 31
0.0
  0
LINE
  5
1CE
  8
0
 62
     7
 10
144.08799999999999
 20
118.762
 30
0.0
 11
143.77099999999999
 21
118.925
 31
0.0
  0
ARC
  5
1CF
  8
0
 62
     7
 10
147.97560899999999
 20
119.26275699999999
 30
0.0
 40
0.236783
 50
320.76522199999999
 51
359.74223999999998
  0
ARC
  5
1D0
  8
0
 62
     7
 10
147.78297499999999
 20
119.397471
 30
0.0
 40
0.471521
 50
303.102284
 51
322.89183200000002
  0
ARC
  5
1D1
  8
0
 62
     7
 10
147.49955800000001
 20
119.79707399999999
 30
0.0
 40
0.9612429999999999
 50
290.35082
 51
304.24560099999991
  0
ARC
  5
1D2
  8
0
 62
     7
 10
147.216523
 20
120.49054700000001
 30
0.0
 40
1.7100310000000001
 50
280.895217
 51
291.16172799999998
  0
ARC
  5
1D3
  8
0
 62
     7
 10
147.04271299999999
 20
121.294563
 30
0.0
 40
2.5324770000000001
 50
269.59604200000001
 51
281.31844799999999
  0
ARC
  5
1D4
  8
0
 62
     7
 10
147.02501799999999
 20
121.383178
 30
0.0
 40
2.6210290000000001
 50
255.060609
 51
269.99650000000003
  0
ARC
  5
1D5
  8
0
 62
     7
 10
146.74569700000001
 20
120.23110699999999
 30
0.0
 40
1.436145999999999
 50
243.27186399999999
 51
253.97852800000001
  0
ARC
  5
1D6
  8
0
 62
     7
 10
146.44103699999999
 20
119.61478200000001
 30
0.0
 40
0.748669
 50
227.649505
 51
242.88237000000001
  0
ARC
  5
1D7
  8
0
 62
     7
 10
146.185732
 20
119.325757
 30
0.0
 40
0.36313
 50
204.84858600000001
 51
226.698789
  0
ARC
  5
1D8
  8
0
 62
     7
 10
146.065372
 20
119.263195
 30
0.0
 40
0.227706
 50
180.37831800000001
 51
203.290154
  0
ARC
  5
1D9
  8
0
 62
     7
 10
145.60100299999999
 20
119.262756
 30
0.0
 40
0.23667
 50
320.74311599999999
 51
359.74229800000001
  0
ARC
  5
1DA
  8
0
 62
     7
 10
145.40861799999999
 20
119.397147
 30
0.0
 40
0.471011
 50
303.07913000000002
 51
322.89422400000001
  0
ARC
  5
1DB
  8
0
 62
     7
 10
145.12861599999999
 20
119.78977500000001
 30
0.0
 40
0.9530420000000001
 50
290.28320600000001
 51
304.30105200000003
  0
ARC
  5
1DC
  8
0
 62
     7
 10
144.84109900000001
 20
120.492633
 30
0.0
 40
1.712184999999999
 50
280.90022900000002
 51
291.15449000000001
  0
ARC
  5
1DD
  8
0
 62
     7
 10
144.66791499999999
 20
121.29386100000001
 30
0.0
 40
2.5317739999999991
 50
269.59770400000002
 51
281.31996299999997
  0
ARC
  5
1DE
  8
0
 62
     7
 10
144.650294
 20
121.385109
 30
0.0
 40
2.6229589999999989
 50
255.06613900000011
 51
269.99661900000012
  0
ARC
  5
1DF
  8
0
 62
     7
 10
144.37065999999999
 20
120.23138299999999
 30
0.0
 40
1.4363950000000001
 50
243.27662100000001
 51
253.983836
  0
ARC
  5
1E0
  8
0
 62
     7
 10
144.066137
 20
119.615036
 30
0.0
 40
0.7489600000000002
 50
227.65391500000001
 51
242.88150200000001
  0
ARC
  5
1E1
  8
0
 62
     7
 10
143.81036700000001
 20
119.325564
 30
0.0
 40
0.362775
 50
204.84090399999999
 51
226.713742
  0
ARC
  5
1E2
  8
0
 62
     7
 10
143.69030799999999
 20
119.263195
 30
0.0
 40
0.227706
 50
180.37831800000001
 51
203.290154
  0
LINE
  5
1E3
  8
0
 62
     7
 10
60.936500000000002
 20
141.012
 30
0.0
 11
61.248699999999999
 21
141.012
 31
0.0
  0
ARC
  5
1E4
  8
0
 62
     7
 10
60.639727000000001
 20
140.51040900000001
 30
0.0
 40
0.39083
 50
139.14057700000001
 51
179.78665599999999
  0
ARC
  5
1E5
  8
0
 62
     7
 10
60.801815000000012
 20
140.38915700000001
 30
0.0
 40
0.592916
 50
114.18894299999999
 51
140.525825
  0
ARC
  5
1E6
  8
0
 62
     7
 10
60.924303000000002
 20
140.158478
 30
0.0
 40
0.8537049999999998
 50
89.178354999999996
 51
115.34432200000001
  0
ARC
  5
1E7
  8
0
 62
     7
 10
60.935676000000001
 20
140.106067
 30
0.0
 40
0.9060279999999999
 50
63.414548999999987
 51
89.945032999999995
  0
ARC
  5
1E8
  8
0
 62
     7
 10
61.050744999999992
 20
140.36430999999999
 30
0.0
 40
0.623721
 50
37.612650000000002
 51
62.250652000000002
  0
ARC
  5
1E9
  8
0
 62
     7
 10
61.212527000000001
 20
140.50239300000001
 30
0.0
 40
0.411428
 50
1.3190360000000001
 51
36.130161999999999
  0
LINE
  5
1EA
  8
0
 62
     7
 10
60.248899999999999
 20
140.512
 30
0.0
 11
60.248899999999999
 21
138.512
 31
0.0
  0
LINE
  5
1EB
  8
0
 62
     7
 10
65.061400000000006
 20
141.012
 30
0.0
 11
64.748900000000006
 21
141.012
 31
0.0
  0
ARC
  5
1EC
  8
0
 62
     7
 10
65.357823999999994
 20
140.51040900000001
 30
0.0
 40
0.390864
 50
0.213318
 51
40.855153999999999
  0
ARC
  5
1ED
  8
0
 62
     7
 10
65.195875999999998
 20
140.38939300000001
 30
0.0
 40
0.5926930000000001
 50
39.462372000000002
 51
65.803418999999991
  0
ARC
  5
1EE
  8
0
 62
     7
 10
65.073543000000001
 20
140.159246
 30
0.0
 40
0.852936
 50
64.644221999999999
 51
90.816781999999975
  0
ARC
  5
1EF
  8
0
 62
     7
 10
65.062255000000007
 20
140.10555600000001
 30
0.0
 40
0.906539
 50
90.055054000000027
 51
116.577806
  0
ARC
  5
1F0
  8
0
 62
     7
 10
64.947130999999999
 20
140.36379700000001
 30
0.0
 40
0.6242060000000002
 50
117.732755
 51
142.36214799999999
  0
ARC
  5
1F1
  8
0
 62
     7
 10
64.785006999999993
 20
140.50230300000001
 30
0.0
 40
0.4113800000000001
 50
143.84933699999999
 51
178.66820100000001
  0
ARC
  5
1F2
  8
0
 62
     7
 10
64.164732999999984
 20
140.510671
 30
0.0
 40
0.209009
 50
0.326983
 51
41.373313000000003
  0
ARC
  5
1F3
  8
0
 62
     7
 10
63.957659999999997
 20
140.35658599999999
 30
0.0
 40
0.466728
 50
38.765084999999999
 51
58.754525999999998
  0
ARC
  5
1F4
  8
0
 62
     7
 10
63.639127999999999
 20
139.87985800000001
 30
0.0
 40
1.039833999999999
 50
57.374172999999999
 51
70.712171999999995
  0
ARC
  5
1F5
  8
0
 62
     7
 10
63.285316999999999
 20
138.966106
 30
0.0
 40
2.0194229999999989
 50
69.800607999999997
 51
79.055902000000017
  0
ARC
  5
1F6
  8
0
 62
     7
 10
63.029173
 20
137.75672299999999
 30
0.0
 40
3.2555139999999989
 50
78.67076800000001
 51
90.534678999999997
  0
ARC
  5
1F7
  8
0
 62
     7
 10
62.998778000000001
 20
137.521995
 30
0.0
 40
3.4900999999999991
 50
89.999751000000003
 51
102.95381399999999
  0
ARC
  5
1F8
  8
0
 62
     7
 10
62.658971000000001
 20
139.14061100000001
 30
0.0
 40
1.8367759999999991
 50
103.94204499999999
 51
113.471215
  0
ARC
  5
1F9
  8
0
 62
     7
 10
62.28607499999999
 20
140.01291499999999
 30
0.0
 40
0.888142
 50
113.818684
 51
128.062206
  0
ARC
  5
1FA
  8
0
 62
     7
 10
61.978147
 20
140.416639
 30
0.0
 40
0.380486
 50
129.03475
 51
150.05568
  0
ARC
  5
1FB
  8
0
 62
     7
 10
61.831338000000002
 20
140.50849600000001
 30
0.0
 40
0.207519
 50
151.799284
 51
179.070064
  0
LINE
  5
1FC
  8
0
 62
     7
 10
65.748699999999999
 20
140.512
 30
0.0
 11
65.748699999999999
 21
138.512
 31
0.0
  0
LINE
  5
1FD
  8
0
 62
     7
 10
64.373699999999999
 20
140.512
 30
0.0
 11
64.373699999999999
 21
138.512
 31
0.0
  0
LINE
  5
1FE
  8
0
 62
     7
 10
61.623800000000003
 20
140.512
 30
0.0
 11
61.623800000000003
 21
138.512
 31
0.0
  0
LINE
  5
1FF
  8
0
 62
     7
 10
64.748900000000006
 20
141.762
 30
0.0
 11
61.248699999999999
 21
141.762
 31
0.0
  0
LINE
  5
200
  8
0
 62
     7
 10
61.248699999999999
 20
141.762
 30
0.0
 11
61.248699999999999
 21
141.012
 31
0.0
  0
LINE
  5
201
  8
0
 62
     7
 10
61.248699999999999
 20
141.012
 30
0.0
 11
64.748900000000006
 21
141.012
 31
0.0
  0
LINE
  5
202
  8
0
 62
     7
 10
64.748900000000006
 20
141.012
 30
0.0
 11
64.748900000000006
 21
141.762
 31
0.0
  0
LINE
  5
203
  8
0
 62
     7
 10
66.248900000000006
 20
138.512
 30
0.0
 11
59.748699999999999
 21
138.512
 31
0.0
  0
LINE
  5
204
  8
0
 62
     7
 10
59.748699999999999
 20
138.512
 30
0.0
 11
59.748699999999999
 21
138.012
 31
0.0
  0
LINE
  5
205
  8
0
 62
     7
 10
59.748699999999999
 20
138.012
 30
0.0
 11
66.248900000000006
 21
138.012
 31
0.0
  0
LINE
  5
206
  8
0
 62
     7
 10
66.248900000000006
 20
138.012
 30
0.0
 11
66.248900000000006
 21
138.512
 31
0.0
  0
LINE
  5
207
  8
0
 62
     7
 10
60.936500000000002
 20
118.762
 30
0.0
 11
61.248699999999999
 21
118.762
 31
0.0
  0
ARC
  5
208
  8
0
 62
     7
 10
60.638435000000001
 20
119.26316
 30
0.0
 40
0.389538
 50
180.216025
 51
220.93019799999999
  0
ARC
  5
209
  8
0
 62
     7
 10
60.801578000000013
 20
119.385116
 30
0.0
 40
0.5928760000000001
 50
219.505346
 51
245.8343549999999
  0
ARC
  5
20A
  8
0
 62
     7
 10
60.924160000000001
 20
119.61541200000001
 30
0.0
 40
0.8533519999999999
 50
244.65509499999999
 51
270.83158700000001
  0
ARC
  5
20B
  8
0
 62
     7
 10
60.935675000000003
 20
119.66854600000001
 30
0.0
 40
0.9063969999999999
 50
270.055004
 51
296.57386500000001
  0
ARC
  5
20C
  8
0
 62
     7
 10
61.050893999999992
 20
119.410145
 30
0.0
 40
0.623876
 50
297.72638699999999
 51
322.346429
  0
ARC
  5
20D
  8
0
 62
     7
 10
61.213329000000002
 20
119.271361
 30
0.0
 40
0.41063
 50
323.83241099999998
 51
358.65069599999998
  0
LINE
  5
20E
  8
0
 62
     7
 10
60.248899999999999
 20
119.262
 30
0.0
 11
60.248899999999999
 21
121.262
 31
0.0
  0
LINE
  5
20F
  8
0
 62
     7
 10
65.061400000000006
 20
118.762
 30
0.0
 11
64.748900000000006
 21
118.762
 31
0.0
  0
ARC
  5
210
  8
0
 62
     7
 10
65.359116
 20
119.26316
 30
0.0
 40
0.389571
 50
319.07407699999999
 51
359.78400099999999
  0
ARC
  5
211
  8
0
 62
     7
 10
65.196112999999997
 20
119.38488
 30
0.0
 40
0.5926520000000001
 50
294.17327599999999
 51
320.50645900000001
  0
ARC
  5
212
  8
0
 62
     7
 10
65.073685999999995
 20
119.614644
 30
0.0
 40
0.8525829999999999
 50
269.173271
 51
295.35636099999999
  0
ARC
  5
213
  8
0
 62
     7
 10
65.062256000000005
 20
119.669056
 30
0.0
 40
0.9069069999999999
 50
243.43377699999999
 51
269.944908
  0
ARC
  5
214
  8
0
 62
     7
 10
64.946982999999989
 20
119.410659
 30
0.0
 40
0.624362
 50
217.678775
 51
242.29019500000001
  0
ARC
  5
215
  8
0
 62
     7
 10
64.784206000000012
 20
119.271451
 30
0.0
 40
0.410583
 50
181.362109
 51
216.18809899999999
  0
ARC
  5
216
  8
0
 62
     7
 10
64.165502000000004
 20
119.262895
 30
0.0
 40
0.20824
 50
318.54686500000003
 51
359.66878300000002
  0
ARC
  5
217
  8
0
 62
     7
 10
63.957859999999997
 20
119.417687
 30
0.0
 40
0.4668340000000001
 50
301.20898599999998
 51
321.17972099999997
  0
ARC
  5
218
  8
0
 62
     7
 10
63.63931199999999
 20
119.894994
 30
0.0
 40
1.040429
 50
289.26566000000003
 51
302.59286900000001
  0
ARC
  5
219
  8
0
 62
     7
 10
63.284686000000001
 20
120.811538
 30
0.0
 40
2.0229119999999989
 50
280.94318399999997
 51
290.18206900000001
  0
ARC
  5
21A
  8
0
 62
     7
 10
63.028792000000003
 20
122.023183
 30
0.0
 40
3.261171
 50
269.472938
 51
281.31614000000002
  0
ARC
  5
21B
  8
0
 62
     7
 10
62.998781000000001
 20
122.253511
 30
0.0
 40
3.491360999999999
 50
257.0509009999999
 51
270.000203
  0
ARC
  5
21C
  8
0
 62
     7
 10
62.658850000000001
 20
120.63491399999999
 30
0.0
 40
1.838020999999999
 50
246.54973899999999
 51
256.07147000000009
  0
ARC
  5
21D
  8
0
 62
     7
 10
62.286214000000001
 20
119.762366
 30
0.0
 40
0.8892649999999999
 50
231.982992
 51
246.20340999999999
  0
ARC
  5
21E
  8
0
 62
     7
 10
61.977913000000001
 20
119.35747499999999
 30
0.0
 40
0.380455
 50
210.00669300000001
 51
231.00678600000001
  0
ARC
  5
21F
  8
0
 62
     7
 10
61.830722999999999
 20
119.265123
 30
0.0
 40
0.206906
 50
180.9501909999999
 51
208.24401499999999
  0
LINE
  5
220
  8
0
 62
     7
 10
148.21199999999999
 20
119.262
 30
0.0
 11
148.21199999999999
 21
121.262
 31
0.0
  0
LINE
  5
221
  8
0
 62
     7
 10
143.46299999999999
 20
119.262
 30
0.0
 11
143.46299999999999
 21
121.262
 31
0.0
  0
LINE
  5
222
  8
0
 62
     7
 10
145.83799999999999
 20
119.262
 30
0.0
 11
145.83799999999999
 21
121.262
 31
0.0
  0
LINE
  5
223
  8
0
 62
     7
 10
147.58699999999999
 20
118.012
 30
0.0
 11
144.08799999999999
 21
118.012
 31
0.0
  0
LINE
  5
224
  8
0
 62
     7
 10
144.08799999999999
 20
118.012
 30
0.0
 11
144.08799999999999
 21
118.762
 31
0.0
  0
LINE
  5
225
  8
0
 62
     7
 10
144.08799999999999
 20
118.762
 30
0.0
 11
147.58699999999999
 21
118.762
 31
0.0
  0
LINE
  5
226
  8
0
 62
     7
 10
147.58699999999999
 20
118.762
 30
0.0
 11
147.58699999999999
 21
118.012
 31
0.0
  0
LINE
  5
227
  8
0
 62
     7
 10
149.08699999999999
 20
121.262
 30
0.0
 11
142.58799999999999
 21
121.262
 31
0.0
  0
LINE
  5
228
  8
0
 62
     7
 10
142.58799999999999
 20
121.262
 30
0.0
 11
142.58799999999999
 21
121.762
 31
0.0
  0
LINE
  5
229
  8
0
 62
     7
 10
142.58799999999999
 20
121.762
 30
0.0
 11
149.08699999999999
 21
121.762
 31
0.0
  0
LINE
  5
22A
  8
0
 62
     7
 10
149.08699999999999
 20
121.762
 30
0.0
 11
149.08699999999999
 21
121.262
 31
0.0
  0
LINE
  5
22B
  8
0
 62
     7
 10
65.748699999999999
 20
119.262
 30
0.0
 11
65.748699999999999
 21
121.262
 31
0.0
  0
LINE
  5
22C
  8
0
 62
     7
 10
64.373699999999999
 20
119.262
 30
0.0
 11
64.373699999999999
 21
121.262
 31
0.0
  0
LINE
  5
22D
  8
0
 62
     7
 10
61.623800000000003
 20
119.262
 30
0.0
 11
61.623800000000003
 21
121.262
 31
0.0
  0
LINE
  5
22E
  8
0
 62
     7
 10
64.748900000000006
 20
118.012
 30
0.0
 11
61.248699999999999
 21
118.012
 31
0.0
  0
LINE
  5
22F
  8
0
 62
     7
 10
61.248699999999999
 20
118.012
 30
0.0
 11
61.248699999999999
 21
118.762
 31
0.0
  0
LINE
  5
230
  8
0
 62
     7
 10
61.248699999999999
 20
118.762
 30
0.0
 11
64.748900000000006
 21
118.762
 31
0.0
  0
LINE
  5
231
  8
0
 62
     7
 10
64.748900000000006
 20
118.762
 30
0.0
 11
64.748900000000006
 21
118.012
 31
0.0
  0
LINE
  5
232
  8
0
 62
     7
 10
66.248900000000006
 20
121.262
 30
0.0
 11
59.748699999999999
 21
121.262
 31
0.0
  0
LINE
  5
233
  8
0
 62
     7
 10
59.748699999999999
 20
121.262
 30
0.0
 11
59.748699999999999
 21
121.762
 31
0.0
  0
LINE
  5
234
  8
0
 62
     7
 10
59.748699999999999
 20
121.762
 30
0.0
 11
66.248900000000006
 21
121.762
 31
0.0
  0
LINE
  5
235
  8
0
 62
     7
 10
66.248900000000006
 20
121.762
 30
0.0
 11
66.248900000000006
 21
121.262
 31
0.0
  0
LINE
  5
236
  8
0
 62
     7
 10
149.55699999999999
 20
169.041
 30
0.0
 11
149.55699999999999
 21
164.91499999999999
 31
0.0
  0
LINE
  5
237
  8
0
 62
     7
 10
149.55699999999999
 20
164.91499999999999
 30
0.0
 11
149.30600000000001
 21
164.66499999999999
 31
0.0
  0
LINE
  5
238
  8
0
 62
     7
 10
149.30600000000001
 20
164.66499999999999
 30
0.0
 11
142.30699999999999
 21
164.66499999999999
 31
0.0
  0
LINE
  5
239
  8
0
 62
     7
 10
142.30699999999999
 20
164.66499999999999
 30
0.0
 11
142.05799999999999
 21
164.91499999999999
 31
0.0
  0
LINE
  5
23A
  8
0
 62
     7
 10
149.30600000000001
 20
169.041
 30
0.0
 11
149.30600000000001
 21
164.66499999999999
 31
0.0
  0
LINE
  5
23B
  8
0
 62
     7
 10
149.30600000000001
 20
177.39699999999999
 30
0.0
 11
149.30600000000001
 21
172.16499999999999
 31
0.0
  0
LINE
  5
23C
  8
0
 62
     7
 10
149.55600000000001
 20
172.16499999999999
 30
0.0
 11
149.55600000000001
 21
177.39699999999999
 31
0.0
  0
LINE
  5
23D
  8
0
 62
     7
 10
142.30600000000001
 20
177.39699999999999
 30
0.0
 11
142.30600000000001
 21
172.16499999999999
 31
0.0
  0
LINE
  5
23E
  8
0
 62
     7
 10
142.05600000000001
 20
172.16499999999999
 30
0.0
 11
142.05600000000001
 21
177.39699999999999
 31
0.0
  0
LINE
  5
23F
  8
0
 62
     7
 10
149.30600000000001
 20
171.53999999999999
 30
0.0
 11
149.30600000000001
 21
170.291
 31
0.0
  0
LINE
  5
240
  8
0
 62
     7
 10
149.55600000000001
 20
170.291
 30
0.0
 11
149.55600000000001
 21
171.53999999999999
 31
0.0
  0
LINE
  5
241
  8
0
 62
     7
 10
142.30600000000001
 20
171.53999999999999
 30
0.0
 11
142.30600000000001
 21
170.291
 31
0.0
  0
LINE
  5
242
  8
0
 62
     7
 10
142.05600000000001
 20
170.291
 30
0.0
 11
142.05600000000001
 21
171.53999999999999
 31
0.0
  0
LINE
  5
243
  8
0
 62
     7
 10
142.30600000000001
 20
169.041
 30
0.0
 11
142.30600000000001
 21
164.66499999999999
 31
0.0
  0
LINE
  5
244
  8
0
 62
     7
 10
142.05600000000001
 20
164.91499999999999
 30
0.0
 11
142.05600000000001
 21
169.041
 31
0.0
  0
LINE
  5
245
  8
0
 62
     7
 10
142.05600000000001
 20
164.91499999999999
 30
0.0
 11
149.55600000000001
 21
164.91499999999999
 31
0.0
  0
LINE
  5
246
  8
0
 62
     7
 10
145.21299999999999
 20
167.78999999999999
 30
0.0
 11
145.21299999999999
 21
169.03999999999999
 31
0.0
  0
LINE
  5
247
  8
0
 62
     7
 10
146.46299999999999
 20
167.78999999999999
 30
0.0
 11
146.46299999999999
 21
169.03999999999999
 31
0.0
  0
LINE
  5
248
  8
0
 62
     7
 10
145.21299999999999
 20
170.28999999999999
 30
0.0
 11
145.21299999999999
 21
171.53999999999999
 31
0.0
  0
LINE
  5
249
  8
0
 62
     7
 10
146.46299999999999
 20
170.28999999999999
 30
0.0
 11
146.46299999999999
 21
171.53999999999999
 31
0.0
  0
LINE
  5
24A
  8
0
 62
     7
 10
144.78800000000001
 20
166.53999999999999
 30
0.0
 11
144.78800000000001
 21
167.78999999999999
 31
0.0
  0
LINE
  5
24B
  8
0
 62
     7
 10
144.78800000000001
 20
167.78999999999999
 30
0.0
 11
146.88800000000001
 21
167.78999999999999
 31
0.0
  0
LINE
  5
24C
  8
0
 62
     7
 10
146.88800000000001
 20
167.78999999999999
 30
0.0
 11
146.88800000000001
 21
166.53999999999999
 31
0.0
  0
LINE
  5
24D
  8
0
 62
     7
 10
146.88800000000001
 20
166.53999999999999
 30
0.0
 11
144.78800000000001
 21
166.53999999999999
 31
0.0
  0
LINE
  5
24E
  8
0
 62
     7
 10
139.58799999999999
 20
169.03999999999999
 30
0.0
 11
139.58799999999999
 21
170.28999999999999
 31
0.0
  0
LINE
  5
24F
  8
0
 62
     7
 10
139.58799999999999
 20
170.28999999999999
 30
0.0
 11
152.08799999999999
 21
170.28999999999999
 31
0.0
  0
LINE
  5
250
  8
0
 62
     7
 10
152.08799999999999
 20
170.28999999999999
 30
0.0
 11
152.08799999999999
 21
169.03999999999999
 31
0.0
  0
LINE
  5
251
  8
0
 62
     7
 10
152.08799999999999
 20
169.03999999999999
 30
0.0
 11
139.58799999999999
 21
169.03999999999999
 31
0.0
  0
LINE
  5
252
  8
0
 62
     7
 10
139.58799999999999
 20
171.53999999999999
 30
0.0
 11
139.58799999999999
 21
171.91499999999999
 31
0.0
  0
LINE
  5
253
  8
0
 62
     7
 10
139.58799999999999
 20
171.91499999999999
 30
0.0
 11
152.08799999999999
 21
171.91499999999999
 31
0.0
  0
LINE
  5
254
  8
0
 62
     7
 10
152.08799999999999
 20
171.91499999999999
 30
0.0
 11
152.08799999999999
 21
171.53999999999999
 31
0.0
  0
LINE
  5
255
  8
0
 62
     7
 10
152.08799999999999
 20
171.53999999999999
 30
0.0
 11
139.58799999999999
 21
171.53999999999999
 31
0.0
  0
LINE
  5
256
  8
0
 62
     7
 10
140.33799999999999
 20
171.91499999999999
 30
0.0
 11
140.33799999999999
 21
172.16499999999999
 31
0.0
  0
LINE
  5
257
  8
0
 62
     7
 10
140.33799999999999
 20
172.16499999999999
 30
0.0
 11
151.33699999999999
 21
172.16499999999999
 31
0.0
  0
LINE
  5
258
  8
0
 62
     7
 10
151.33699999999999
 20
172.16499999999999
 30
0.0
 11
151.33699999999999
 21
171.91499999999999
 31
0.0
  0
LINE
  5
259
  8
0
 62
     7
 10
151.33699999999999
 20
171.91499999999999
 30
0.0
 11
140.33799999999999
 21
171.91499999999999
 31
0.0
  0
LINE
  5
25A
  8
0
 62
     7
 10
134.70400000000001
 20
172.16499999999999
 30
0.0
 11
139.20099999999999
 21
172.16499999999999
 31
0.0
  0
LINE
  5
25B
  8
0
 62
     7
 10
135.91300000000001
 20
177.45500000000001
 30
0.0
 11
135.321
 21
179.66499999999999
 31
0.0
  0
LINE
  5
25C
  8
0
 62
     7
 10
135.321
 20
179.66499999999999
 30
0.0
 11
134.72900000000001
 21
177.45500000000001
 31
0.0
  0
LINE
  5
25D
  8
0
 62
     7
 10
134.72900000000001
 20
177.45500000000001
 30
0.0
 11
135.91300000000001
 21
177.45500000000001
 31
0.0
  0
LINE
  5
25E
  8
0
 62
     7
 10
134.74299999999999
 20
174.37599999999989
 30
0.0
 11
135.33600000000001
 21
172.16499999999999
 31
0.0
  0
LINE
  5
25F
  8
0
 62
     7
 10
135.33600000000001
 20
172.16499999999999
 30
0.0
 11
135.928
 21
174.37599999999989
 31
0.0
  0
LINE
  5
260
  8
0
 62
     7
 10
135.928
 20
174.37599999999989
 30
0.0
 11
134.74299999999999
 21
174.37599999999989
 31
0.0
  0
LINE
  5
261
  8
0
 62
     7
 10
135.321
 20
179.666
 30
0.0
 11
135.321
 21
172.16399999999999
 31
0.0
  0
LINE
  5
262
  8
0
 62
     7
 10
143.99199999999999
 20
150.10300000000001
 30
0.0
 11
143.99199999999999
 21
149.31200000000001
 31
0.0
  0
LINE
  5
263
  8
0
 62
     7
 10
143.99199999999999
 20
148.55000000000001
 30
0.0
 11
143.99199999999999
 21
148.41399999999999
 31
0.0
  0
LINE
  5
264
  8
0
 62
     7
 10
143.99199999999999
 20
150.10300000000001
 30
0.0
 11
145.12899999999999
 21
150.10300000000001
 31
0.0
  0
LINE
  5
265
  8
0
 62
     7
 10
144.26499999999999
 20
148.14099999999999
 30
0.0
 11
144.26499999999999
 21
145.91399999999999
 31
0.0
  0
LINE
  5
266
  8
0
 62
     7
 10
144.26499999999999
 20
148.14099999999999
 30
0.0
 11
143.99199999999999
 21
148.41399999999999
 31
0.0
  0
LINE
  5
267
  8
0
 62
     7
 10
145.346
 20
148.14099999999999
 30
0.0
 11
145.346
 21
145.91399999999999
 31
0.0
  0
LINE
  5
268
  8
0
 62
     7
 10
144.95599999999999
 20
148.14099999999999
 30
0.0
 11
144.95599999999999
 21
145.91399999999999
 31
0.0
  0
LINE
  5
269
  8
0
 62
     7
 10
144.95599999999999
 20
148.14099999999999
 30
0.0
 11
144.26499999999999
 21
148.14099999999999
 31
0.0
  0
LINE
  5
26A
  8
0
 62
     7
 10
145.83799999999999
 20
148.14099999999999
 30
0.0
 11
145.346
 21
148.14099999999999
 31
0.0
  0
ARC
  5
26B
  8
0
 62
     7
 10
144.28225399999999
 20
145.480121
 30
0.0
 40
0.467863
 50
182.07439500000001
 51
267.925635
  0
ARC
  5
26C
  8
0
 62
     7
 10
144.28294099999999
 20
145.446279
 30
0.0
 40
0.468549
 50
92.155436999999992
 51
177.932075
  0
LINE
  5
26D
  8
0
 62
     7
 10
144.95599999999999
 20
145.91399999999999
 30
0.0
 11
144.26499999999999
 21
145.91399999999999
 31
0.0
  0
LINE
  5
26E
  8
0
 62
     7
 10
145.83799999999999
 20
145.91399999999999
 30
0.0
 11
145.346
 21
145.91399999999999
 31
0.0
  0
LINE
  5
26F
  8
0
 62
     7
 10
145.83799999999999
 20
145.01300000000001
 30
0.0
 11
144.26499999999999
 21
145.01300000000001
 31
0.0
  0
LINE
  5
270
  8
0
 62
     7
 10
147.68299999999999
 20
150.10300000000001
 30
0.0
 11
147.68299999999999
 21
148.41399999999999
 31
0.0
  0
LINE
  5
271
  8
0
 62
     7
 10
147.68299999999999
 20
150.10300000000001
 30
0.0
 11
146.22300000000001
 21
150.10300000000001
 31
0.0
  0
LINE
  5
272
  8
0
 62
     7
 10
147.40899999999999
 20
148.14099999999999
 30
0.0
 11
147.40899999999999
 21
145.91399999999999
 31
0.0
  0
LINE
  5
273
  8
0
 62
     7
 10
147.40899999999999
 20
148.14099999999999
 30
0.0
 11
147.68299999999999
 21
148.41399999999999
 31
0.0
  0
LINE
  5
274
  8
0
 62
     7
 10
146.32900000000001
 20
148.14099999999999
 30
0.0
 11
146.32900000000001
 21
145.91399999999999
 31
0.0
  0
LINE
  5
275
  8
0
 62
     7
 10
146.72
 20
148.14099999999999
 30
0.0
 11
146.72
 21
145.91399999999999
 31
0.0
  0
LINE
  5
276
  8
0
 62
     7
 10
146.72
 20
148.14099999999999
 30
0.0
 11
147.40899999999999
 21
148.14099999999999
 31
0.0
  0
LINE
  5
277
  8
0
 62
     7
 10
145.83799999999999
 20
148.14099999999999
 30
0.0
 11
146.32900000000001
 21
148.14099999999999
 31
0.0
  0
ARC
  5
278
  8
0
 62
     7
 10
147.392368
 20
145.44622100000001
 30
0.0
 40
0.468583
 50
2.0748849999999992
 51
87.925105000000016
  0
ARC
  5
279
  8
0
 62
     7
 10
147.39306300000001
 20
145.48016999999999
 30
0.0
 40
0.4678880000000001
 50
271.992727
 51
357.91974199999999
  0
LINE
  5
27A
  8
0
 62
     7
 10
146.72
 20
145.91399999999999
 30
0.0
 11
147.40899999999999
 21
145.91399999999999
 31
0.0
  0
LINE
  5
27B
  8
0
 62
     7
 10
145.83799999999999
 20
145.91399999999999
 30
0.0
 11
146.32900000000001
 21
145.91399999999999
 31
0.0
  0
LINE
  5
27C
  8
0
 62
     7
 10
145.83799999999999
 20
145.01300000000001
 30
0.0
 11
147.40899999999999
 21
145.01300000000001
 31
0.0
  0
LINE
  5
27D
  8
0
 62
     7
 10
121.419
 20
187.678
 30
0.0
 11
119.271
 21
186.88900000000001
 31
0.0
  0
LINE
  5
27E
  8
0
 62
     7
 10
119.271
 20
186.88900000000001
 30
0.0
 11
121.52500000000001
 21
186.499
 31
0.0
  0
LINE
  5
27F
  8
0
 62
     7
 10
121.52500000000001
 20
186.499
 30
0.0
 11
121.419
 21
187.678
 31
0.0
  0
LINE
  5
280
  8
0
 62
     7
 10
112.33
 20
189.44900000000001
 30
0.0
 11
114.39100000000001
 21
188.45400000000001
 31
0.0
  0
LINE
  5
281
  8
0
 62
     7
 10
114.39100000000001
 20
188.45400000000001
 30
0.0
 11
113.104
 21
190.34700000000001
 31
0.0
  0
LINE
  5
282
  8
0
 62
     7
 10
113.104
 20
190.34700000000001
 30
0.0
 11
112.33
 21
189.44900000000001
 31
0.0
  0
ARC
  5
283
  8
0
 62
     7
 10
119.369259
 20
195.471957
 30
0.0
 40
8.5835210000000011
 50
211.87791899999999
 51
269.34406000000001
  0
ARC
  5
284
  8
0
 62
     7
 10
119.26476700000001
 20
195.35600400000001
 30
0.0
 40
8.4670070000000006
 50
270.04214000000002
 51
291.21122200000008
  0
ARC
  5
285
  8
0
 62
     7
 10
140.27920599999999
 20
201.72217499999999
 30
0.0
 40
0.7883060000000001
 50
315.08278799999999
 51
328.23670700000002
  0
ARC
  5
286
  8
0
 62
     7
 10
139.59528999999989
 20
202.17343700000001
 30
0.0
 40
1.607515
 50
327.39355699999999
 51
338.079363
  0
ARC
  5
287
  8
0
 62
     7
 10
138.139014
 20
202.80138099999999
 30
0.0
 40
3.193166999999999
 50
337.381621
 51
345.10641099999998
  0
ARC
  5
288
  8
0
 62
     7
 10
135.72889699999999
 20
203.48465999999999
 30
0.0
 40
5.6980820000000003
 50
344.69550400000003
 51
353.20784700000002
  0
ARC
  5
289
  8
0
 62
     7
 10
135.25551399999989
 20
203.59650999999999
 30
0.0
 40
6.1816159999999991
 50
352.69731999999999
 51
359.48203899999999
  0
ARC
  5
28A
  8
0
 62
     7
 10
140.27920599999999
 20
205.35873699999999
 30
0.0
 40
0.7883060000000001
 50
31.763293000000001
 51
44.917211999999992
  0
ARC
  5
28B
  8
0
 62
     7
 10
139.59479400000001
 20
204.907172
 30
0.0
 40
1.608096999999999
 50
21.924807999999999
 51
32.606048000000001
  0
ARC
  5
28C
  8
0
 62
     7
 10
138.13425100000001
 20
204.27793600000001
 30
0.0
 40
3.1981860000000002
 50
14.899659
 51
22.612309
  0
ARC
  5
28D
  8
0
 62
     7
 10
135.727585
 20
203.59593100000001
 30
0.0
 40
5.6994379999999989
 50
6.7950979999999994
 51
15.304346000000001
  0
ARC
  5
28E
  8
0
 62
     7
 10
135.25708800000001
 20
203.484622
 30
0.0
 40
6.1800439999999996
 50
0.519245
 51
7.3036960000000004
  0
ARC
  5
28F
  8
0
 62
     7
 10
147.879266
 20
142.34602599999999
 30
0.0
 40
0.583974
 50
272.094336
 51
357.90567399999998
  0
ARC
  5
290
  8
0
 62
     7
 10
147.74518399999999
 20
143.213381
 30
0.0
 40
0.548609
 50
90.174880999999985
 51
124.87169
  0
ARC
  5
291
  8
0
 62
     7
 10
147.857428
 20
143.03374199999999
 30
0.0
 40
0.760239
 50
124.07144099999999
 51
146.606821
  0
ARC
  5
292
  8
0
 62
     7
 10
148.13995199999999
 20
142.82915399999999
 30
0.0
 40
1.1088299999999991
 50
145.81527199999999
 51
171.75644700000001
  0
ARC
  5
293
  8
0
 62
     7
 10
148.39829700000001
 20
142.76395299999999
 30
0.0
 40
1.3741289999999999
 50
170.61036100000001
 51
180.072529
  0
ARC
  5
294
  8
0
 62
     7
 10
148.35092299999999
 20
142.76266699999999
 30
0.0
 40
1.3267539999999991
 50
180.019576
 51
206.82964999999999
  0
ARC
  5
295
  8
0
 62
     7
 10
147.95009300000001
 20
142.581807
 30
0.0
 40
0.8876579999999998
 50
208.08962099999999
 51
234.878545
  0
ARC
  5
296
  8
0
 62
     7
 10
147.75371200000001
 20
142.33781999999999
 30
0.0
 40
0.575469
 50
236.89597800000001
 51
268.98413199999999
  0
ARC
  5
297
  8
0
 62
     7
 10
147.74183099999999
 20
142.31010000000001
 30
0.0
 40
0.547661
 50
270.17558400000001
 51
304.90284500000001
  0
ARC
  5
298
  8
0
 62
     7
 10
147.62851499999999
 20
142.491581
 30
0.0
 40
0.7614140000000002
 50
304.08200699999998
 51
326.58448099999998
  0
ARC
  5
299
  8
0
 62
     7
 10
147.347385
 20
142.69558599999999
 30
0.0
 40
1.1085279999999991
 50
325.78527500000001
 51
351.73797000000002
  0
ARC
  5
29A
  8
0
 62
     7
 10
147.08940000000001
 20
142.760614
 30
0.0
 40
1.3734509999999991
 50
350.59984700000001
 51
0.066769
  0
ARC
  5
29B
  8
0
 62
     7
 10
147.1378
 20
142.761764
 30
0.0
 40
1.3250500000000001
 50
0.019469
 51
26.86677700000001
  0
ARC
  5
29C
  8
0
 62
     7
 10
147.53607199999999
 20
142.94190499999999
 30
0.0
 40
0.888568
 50
28.110681
 51
54.875420999999989
  0
ARC
  5
29D
  8
0
 62
     7
 10
147.73299900000001
 20
143.18658500000001
 30
0.0
 40
0.575498
 50
56.895800999999999
 51
88.953520999999995
  0
LINE
  5
29E
  8
0
 62
     7
 10
147.71299999999999
 20
145.01300000000001
 30
0.0
 11
148.262
 21
143.84100000000001
 31
0.0
  0
LINE
  5
29F
  8
0
 62
     7
 10
148.46299999999999
 20
142.32499999999999
 30
0.0
 11
148.46299999999999
 21
143.114
 31
0.0
  0
ARC
  5
2A0
  8
0
 62
     7
 10
146.02543800000001
 20
142.76598000000001
 30
0.0
 40
2.4809950000000001
 50
14.658967000000001
 51
25.665400000000002
  0
ARC
  5
2A1
  8
0
 62
     7
 10
147.19073599999999
 20
143.08736099999999
 30
0.0
 40
1.2723990000000001
 50
1.2134009999999991
 51
13.937433
  0
LINE
  5
2A2
  8
0
 62
     7
 10
143.96299999999999
 20
145.01300000000001
 30
0.0
 11
143.41399999999999
 21
143.84100000000001
 31
0.0
  0
LINE
  5
2A3
  8
0
 62
     7
 10
143.21199999999999
 20
142.32499999999999
 30
0.0
 11
143.21199999999999
 21
143.114
 31
0.0
  0
ARC
  5
2A4
  8
0
 62
     7
 10
145.58194800000001
 20
142.78992
 30
0.0
 40
2.409389
 50
154.14779999999999
 51
165.483993
  0
ARC
  5
2A5
  8
0
 62
     7
 10
144.48676499999999
 20
143.087931
 30
0.0
 40
1.274546999999999
 50
166.112922
 51
178.81427299999999
  0
LINE
  5
2A6
  8
0
 62
     7
 10
143.77500000000001
 20
141.762
 30
0.0
 11
147.90100000000001
 21
141.762
 31
0.0
  0
ARC
  5
2A7
  8
0
 62
     7
 10
143.796066
 20
142.34601599999999
 30
0.0
 40
0.5839640000000002
 50
182.093411
 51
267.90661899999998
  0
ARC
  5
2A8
  8
0
 62
     7
 10
143.93351000000001
 20
143.21432899999999
 30
0.0
 40
0.547661
 50
90.175564000000008
 51
124.90282500000001
  0
ARC
  5
2A9
  8
0
 62
     7
 10
144.04682600000001
 20
143.032848
 30
0.0
 40
0.7614140000000002
 50
124.081987
 51
146.584461
  0
ARC
  5
2AA
  8
0
 62
     7
 10
144.327956
 20
142.82884300000001
 30
0.0
 40
1.1085279999999991
 50
145.78525500000001
 51
171.73795000000001
  0
ARC
  5
2AB
  8
0
 62
     7
 10
144.58593500000001
 20
142.76381499999999
 30
0.0
 40
1.373445
 50
170.599808
 51
180.06680900000001
  0
ARC
  5
2AC
  8
0
 62
     7
 10
144.53753900000001
 20
142.762664
 30
0.0
 40
1.325048
 50
180.01947000000001
 51
206.866816
  0
ARC
  5
2AD
  8
0
 62
     7
 10
144.1392689999999
 20
142.58252400000001
 30
0.0
 40
0.888568
 50
208.11070100000001
 51
234.87544
  0
ARC
  5
2AE
  8
0
 62
     7
 10
143.942342
 20
142.33784399999999
 30
0.0
 40
0.575498
 50
236.89582100000001
 51
268.95354099999997
  0
ARC
  5
2AF
  8
0
 62
     7
 10
143.93015700000001
 20
142.311048
 30
0.0
 40
0.548609
 50
270.17490099999998
 51
304.87171000000001
  0
ARC
  5
2B0
  8
0
 62
     7
 10
143.81791299999989
 20
142.49068600000001
 30
0.0
 40
0.760239
 50
304.071461
 51
326.60684099999997
  0
ARC
  5
2B1
  8
0
 62
     7
 10
143.53538900000001
 20
142.69527500000001
 30
0.0
 40
1.1088299999999991
 50
325.815291
 51
351.75646699999999
  0
ARC
  5
2B2
  8
0
 62
     7
 10
143.277038
 20
142.76047600000001
 30
0.0
 40
1.3741350000000001
 50
350.61040100000002
 51
0.072489
  0
ARC
  5
2B3
  8
0
 62
     7
 10
143.32441700000001
 20
142.76176100000001
 30
0.0
 40
1.326756
 50
0.019576
 51
26.829611
  0
ARC
  5
2B4
  8
0
 62
     7
 10
143.72524799999999
 20
142.942622
 30
0.0
 40
0.8876579999999998
 50
28.089600999999998
 51
54.87852500000001
  0
ARC
  5
2B5
  8
0
 62
     7
 10
143.921629
 20
143.18660800000001
 30
0.0
 40
0.575469
 50
56.895957999999993
 51
88.984111999999996
  0
ARC
  5
2B6
  8
0
 62
     7
 10
145.8762899999999
 20
142.72359499999999
 30
0.0
 40
1.0391099999999991
 50
92.129931000000013
 51
177.87003899999999
  0
ARC
  5
2B7
  8
0
 62
     7
 10
145.8762899999999
 20
142.80083400000001
 30
0.0
 40
1.0391099999999991
 50
182.12996100000001
 51
267.870069
  0
ARC
  5
2B8
  8
0
 62
     7
 10
145.79905099999999
 20
142.80083400000001
 30
0.0
 40
1.0391099999999991
 50
272.12995100000001
 51
357.87005900000003
  0
ARC
  5
2B9
  8
0
 62
     7
 10
145.79905099999999
 20
142.72359499999999
 30
0.0
 40
1.0391099999999991
 50
2.1299410000000001
 51
87.870048999999995
  0
LINE
  5
2BA
  8
0
 62
     7
 10
143.96299999999999
 20
145.01300000000001
 30
0.0
 11
147.71299999999999
 21
145.01300000000001
 31
0.0
  0
ARC
  5
2BB
  8
0
 62
     7
 10
145.21149600000001
 20
152.81779900000001
 30
0.0
 40
0.876806
 50
56.810527999999998
 51
89.919622000000004
  0
ARC
  5
2BC
  8
0
 62
     7
 10
145.393148
 20
153.125472
 30
0.0
 40
0.5201470000000001
 50
31.283249000000001
 51
55.003104
  0
ARC
  5
2BD
  8
0
 62
     7
 10
145.213956
 20
152.81779900000001
 30
0.0
 40
0.876806
 50
90.080359000000016
 51
123.189452
  0
ARC
  5
2BE
  8
0
 62
     7
 10
145.03230500000001
 20
153.125472
 30
0.0
 40
0.5201470000000001
 50
124.996877
 51
148.71673100000001
  0
ARC
  5
2BF
  8
0
 62
     7
 10
145.21395699999999
 20
153.972568
 30
0.0
 40
0.876036
 50
236.77754200000001
 51
269.91953000000001
  0
ARC
  5
2C0
  8
0
 62
     7
 10
145.03300999999999
 20
153.66673800000001
 30
0.0
 40
0.5213060000000001
 50
211.343841
 51
234.99782200000001
  0
ARC
  5
2C1
  8
0
 62
     7
 10
145.21149600000001
 20
153.972568
 30
0.0
 40
0.876036
 50
270.08049
 51
303.22247800000002
  0
ARC
  5
2C2
  8
0
 62
     7
 10
145.39244299999999
 20
153.66673800000001
 30
0.0
 40
0.5213060000000001
 50
305.00219800000008
 51
328.6561779999999
  0
ARC
  5
2C3
  8
0
 62
     7
 10
146.46384499999999
 20
153.972568
 30
0.0
 40
0.876036
 50
236.77754200000001
 51
269.91953000000001
  0
ARC
  5
2C4
  8
0
 62
     7
 10
146.28289799999999
 20
153.66673800000001
 30
0.0
 40
0.5213060000000001
 50
211.343841
 51
234.99782200000001
  0
ARC
  5
2C5
  8
0
 62
     7
 10
146.46138400000001
 20
153.972568
 30
0.0
 40
0.876036
 50
270.08049
 51
303.22247800000002
  0
ARC
  5
2C6
  8
0
 62
     7
 10
146.64233100000001
 20
153.66673800000001
 30
0.0
 40
0.5213060000000001
 50
305.00219800000008
 51
328.6561779999999
  0
LINE
  5
2C7
  8
0
 62
     7
 10
144.58799999999999
 20
164.66499999999999
 30
0.0
 11
144.58799999999999
 21
153.39599999999999
 31
0.0
  0
LINE
  5
2C8
  8
0
 62
     7
 10
147.08799999999999
 20
164.66499999999999
 30
0.0
 11
147.08799999999999
 21
153.39599999999999
 31
0.0
  0
ARC
  5
2C9
  8
0
 62
     7
 10
146.46315899999999
 20
152.630517
 30
0.0
 40
0.8746529999999999
 50
236.76853
 51
269.919197
  0
ARC
  5
2CA
  8
0
 62
     7
 10
146.28217000000001
 20
152.324893
 30
0.0
 40
0.520072
 50
211.27477400000001
 51
234.994775
  0
ARC
  5
2CB
  8
0
 62
     7
 10
146.46069600000001
 20
152.63267099999999
 30
0.0
 40
0.876806
 50
270.080378
 51
303.18947200000002
  0
ARC
  5
2CC
  8
0
 62
     7
 10
146.642347
 20
152.32499799999999
 30
0.0
 40
0.5201470000000001
 50
304.99689599999999
 51
328.71675099999999
  0
ARC
  5
2CD
  8
0
 62
     7
 10
146.46069600000001
 20
151.47713200000001
 30
0.0
 40
0.876806
 50
56.810527999999998
 51
89.919622000000004
  0
ARC
  5
2CE
  8
0
 62
     7
 10
146.642347
 20
151.78480500000001
 30
0.0
 40
0.5201470000000001
 50
31.283249000000001
 51
55.003104
  0
ARC
  5
2CF
  8
0
 62
     7
 10
146.46315899999999
 20
151.479286
 30
0.0
 40
0.8746529999999999
 50
90.080803000000003
 51
123.23147
  0
ARC
  5
2D0
  8
0
 62
     7
 10
146.28217000000001
 20
151.78491
 30
0.0
 40
0.520072
 50
125.005225
 51
148.72522599999999
  0
ARC
  5
2D1
  8
0
 62
     7
 10
145.211499
 20
151.47815299999999
 30
0.0
 40
0.8757850000000002
 50
56.790624999999999
 51
89.919720999999996
  0
ARC
  5
2D2
  8
0
 62
     7
 10
145.39051000000001
 20
151.78175200000001
 30
0.0
 40
0.523987
 50
31.418790000000008
 51
54.985335999999997
  0
ARC
  5
2D3
  8
0
 62
     7
 10
145.213956
 20
151.47713200000001
 30
0.0
 40
0.876806
 50
90.080359000000016
 51
123.189452
  0
ARC
  5
2D4
  8
0
 62
     7
 10
145.03230500000001
 20
151.78480500000001
 30
0.0
 40
0.5201470000000001
 50
124.996877
 51
148.71673100000001
  0
LINE
  5
2D5
  8
0
 62
     7
 10
147.08799999999999
 20
150.10300000000001
 30
0.0
 11
147.08799999999999
 21
150.70500000000001
 31
0.0
  0
LINE
  5
2D6
  8
0
 62
     7
 10
147.08799999999999
 20
151.46700000000001
 30
0.0
 11
147.08799999999999
 21
152.05500000000001
 31
0.0
  0
LINE
  5
2D7
  8
0
 62
     7
 10
144.58799999999999
 20
150.10300000000001
 30
0.0
 11
144.58799999999999
 21
152.05500000000001
 31
0.0
  0
LINE
  5
2D8
  8
0
 62
     7
 10
143.96299999999999
 20
141.762
 30
0.0
 11
147.71299999999999
 21
141.762
 31
0.0
  0
LINE
  5
2D9
  8
0
 62
     7
 10
143.626
 20
136.489
 30
0.0
 11
145.83799999999999
 21
137.08199999999999
 31
0.0
  0
LINE
  5
2DA
  8
0
 62
     7
 10
145.83799999999999
 20
137.08199999999999
 30
0.0
 11
143.626
 21
137.67500000000001
 31
0.0
  0
LINE
  5
2DB
  8
0
 62
     7
 10
143.626
 20
137.67500000000001
 30
0.0
 11
143.626
 21
136.489
 31
0.0
  0
LINE
  5
2DC
  8
0
 62
     7
 10
152.04900000000001
 20
137.66
 30
0.0
 11
149.83699999999999
 21
137.06700000000001
 31
0.0
  0
LINE
  5
2DD
  8
0
 62
     7
 10
149.83699999999999
 20
137.06700000000001
 30
0.0
 11
152.04900000000001
 21
136.47499999999999
 31
0.0
  0
LINE
  5
2DE
  8
0
 62
     7
 10
152.04900000000001
 20
136.47499999999999
 30
0.0
 11
152.04900000000001
 21
137.66
 31
0.0
  0
LINE
  5
2DF
  8
0
 62
     7
 10
157.10300000000001
 20
137.07499999999999
 30
0.0
 11
142.30199999999999
 21
137.07499999999999
 31
0.0
  0
LINE
  5
2E0
  8
0
 62
     7
 10
139.845
 20
172.89400000000001
 30
0.0
 11
142.05600000000001
 21
173.48599999999999
 31
0.0
  0
LINE
  5
2E1
  8
0
 62
     7
 10
142.05600000000001
 20
173.48599999999999
 30
0.0
 11
139.845
 21
174.07900000000001
 31
0.0
  0
LINE
  5
2E2
  8
0
 62
     7
 10
139.845
 20
174.07900000000001
 30
0.0
 11
139.845
 21
172.89400000000001
 31
0.0
  0
LINE
  5
2E3
  8
0
 62
     7
 10
151.768
 20
174.06399999999999
 30
0.0
 11
149.55600000000001
 21
173.47200000000001
 31
0.0
  0
LINE
  5
2E4
  8
0
 62
     7
 10
149.55600000000001
 20
173.47200000000001
 30
0.0
 11
151.768
 21
172.87899999999999
 31
0.0
  0
LINE
  5
2E5
  8
0
 62
     7
 10
151.768
 20
172.87899999999999
 30
0.0
 11
151.768
 21
174.06399999999999
 31
0.0
  0
LINE
  5
2E6
  8
0
 62
     7
 10
155.77099999999999
 20
173.47900000000001
 30
0.0
 11
137.80500000000001
 21
173.47900000000001
 31
0.0
  0
LINE
  5
2E7
  8
0
 62
     7
 10
164.452
 20
181.87700000000001
 30
0.0
 11
165.04499999999999
 21
179.66499999999999
 31
0.0
  0
LINE
  5
2E8
  8
0
 62
     7
 10
165.04499999999999
 20
179.66499999999999
 30
0.0
 11
165.637
 21
181.87700000000001
 31
0.0
  0
LINE
  5
2E9
  8
0
 62
     7
 10
165.637
 20
181.87700000000001
 30
0.0
 11
164.452
 21
181.87700000000001
 31
0.0
  0
LINE
  5
2EA
  8
0
 62
     7
 10
164.452
 20
166.87599999999989
 30
0.0
 11
165.04499999999999
 21
164.66399999999999
 31
0.0
  0
LINE
  5
2EB
  8
0
 62
     7
 10
165.04499999999999
 20
164.66399999999999
 30
0.0
 11
165.637
 21
166.87599999999989
 31
0.0
  0
LINE
  5
2EC
  8
0
 62
     7
 10
165.637
 20
166.87599999999989
 30
0.0
 11
164.452
 21
166.87599999999989
 31
0.0
  0
LINE
  5
2ED
  8
0
 62
     7
 10
165.62299999999999
 20
177.45400000000001
 30
0.0
 11
165.03
 21
179.66499999999999
 31
0.0
  0
LINE
  5
2EE
  8
0
 62
     7
 10
165.03
 20
179.66499999999999
 30
0.0
 11
164.43799999999999
 21
177.45400000000001
 31
0.0
  0
LINE
  5
2EF
  8
0
 62
     7
 10
164.43799999999999
 20
177.45400000000001
 30
0.0
 11
165.62299999999999
 21
177.45400000000001
 31
0.0
  0
LINE
  5
2F0
  8
0
 62
     7
 10
165.62299999999999
 20
214.95500000000001
 30
0.0
 11
165.03
 21
217.167
 31
0.0
  0
LINE
  5
2F1
  8
0
 62
     7
 10
165.03
 20
217.167
 30
0.0
 11
164.43799999999999
 21
214.95500000000001
 31
0.0
  0
LINE
  5
2F2
  8
0
 62
     7
 10
164.43799999999999
 20
214.95500000000001
 30
0.0
 11
165.62299999999999
 21
214.95500000000001
 31
0.0
  0
LINE
  5
2F3
  8
0
 62
     7
 10
165.03800000000001
 20
164.66499999999999
 30
0.0
 11
165.03800000000001
 21
217.166
 31
0.0
  0
LINE
  5
2F4
  8
0
 62
     7
 10
165.738
 20
164.66499999999999
 30
0.0
 11
150.637
 21
164.66499999999999
 31
0.0
  0
LINE
  5
2F5
  8
0
 62
     7
 10
165.738
 20
217.166
 30
0.0
 11
152.01300000000001
 21
217.166
 31
0.0
  0
LINE
  5
2F6
  8
0
 62
     7
 10
165.738
 20
179.66499999999999
 30
0.0
 11
152.01300000000001
 21
179.66499999999999
 31
0.0
  0
LINE
  5
2F7
  8
0
 62
     7
 10
148.62700000000001
 20
221.00999999999999
 30
0.0
 11
150.839
 21
221.60300000000001
 31
0.0
  0
LINE
  5
2F8
  8
0
 62
     7
 10
150.839
 20
221.60300000000001
 30
0.0
 11
148.62700000000001
 21
222.19499999999999
 31
0.0
  0
LINE
  5
2F9
  8
0
 62
     7
 10
148.62700000000001
 20
222.19499999999999
 30
0.0
 11
148.62700000000001
 21
221.00999999999999
 31
0.0
  0
LINE
  5
2FA
  8
0
 62
     7
 10
143.048
 20
222.18100000000001
 30
0.0
 11
140.83600000000001
 21
221.58799999999999
 31
0.0
  0
LINE
  5
2FB
  8
0
 62
     7
 10
140.83600000000001
 20
221.58799999999999
 30
0.0
 11
143.048
 21
220.995
 31
0.0
  0
LINE
  5
2FC
  8
0
 62
     7
 10
143.048
 20
220.995
 30
0.0
 11
143.048
 21
222.18100000000001
 31
0.0
  0
LINE
  5
2FD
  8
0
 62
     7
 10
150.83799999999999
 20
221.595
 30
0.0
 11
140.83699999999999
 21
221.595
 31
0.0
  0
LINE
  5
2FE
  8
0
 62
     7
 10
140.83699999999999
 20
222.29499999999999
 30
0.0
 11
140.83699999999999
 21
218.33099999999999
 31
0.0
  0
LINE
  5
2FF
  8
0
 62
     7
 10
150.83799999999999
 20
222.29499999999999
 30
0.0
 11
150.83799999999999
 21
218.33099999999999
 31
0.0
  0
LINE
  5
300
  8
0
 62
     7
 10
123.983
 20
197.81100000000001
 30
0.0
 11
121.34999999999999
 21
194.119
 31
0.0
  0
LINE
  5
301
  8
0
 62
     7
 10
140.83699999999999
 20
201.166
 30
0.0
 11
130.49600000000001
 21
201.166
 31
0.0
  0
ARC
  5
302
  8
0
 62
     7
 10
130.56744800000001
 20
193.02732599999999
 30
0.0
 40
8.1385529999999981
 50
90.503878000000014
 51
143.99993000000001
  0
LINE
  5
303
  8
0
 62
     7
 10
117.697
 20
193.08799999999999
 30
0.0
 11
114.17400000000001
 21
188.149
 31
0.0
  0
LINE
  5
304
  8
0
  6
AIGENLINE001
 62
     7
 10
122.05
 20
199.19
 30
0.0
 11
118.111
 21
193.66999999999999
 31
0.0
  0
LINE
  5
305
  8
0
  6
AIGENLINE001
 62
     7
 10
145.83799999999999
 20
203.541
 30
0.0
 11
130.49600000000001
 21
203.541
 31
0.0
  0
ARC
  5
306
  8
0
  6
AIGENLINE001
 62
     7
 10
130.587954
 20
192.98803699999999
 30
0.0
 40
10.552993000000001
 50
90.499928999999995
 51
144.00532899999999
  0
LINE
  5
307
  8
0
 62
     7
 10
120.116
 20
200.56999999999999
 30
0.0
 11
117.482
 21
196.87700000000001
 31
0.0
  0
LINE
  5
308
  8
0
 62
     7
 10
140.83699999999999
 20
205.91499999999999
 30
0.0
 11
130.49600000000001
 21
205.91499999999999
 31
0.0
  0
ARC
  5
309
  8
0
 62
     7
 10
130.60843499999999
 20
192.946609
 30
0.0
 40
12.969227999999999
 50
90.497270999999998
 51
144.00279399999999
  0
LINE
  5
30A
  8
0
 62
     7
 10
119.271
 20
194.15599999999989
 30
0.0
 11
119.271
 21
181.97399999999999
 31
0.0
  0
LINE
  5
30B
  8
0
 62
     7
 10
128.51300000000001
 20
191.80699999999999
 30
0.0
 11
127.92
 21
194.018
 31
0.0
  0
LINE
  5
30C
  8
0
 62
     7
 10
127.92
 20
194.018
 30
0.0
 11
127.327
 21
191.80699999999999
 31
0.0
  0
LINE
  5
30D
  8
0
 62
     7
 10
127.327
 20
191.80699999999999
 30
0.0
 11
128.51300000000001
 21
191.80699999999999
 31
0.0
  0
LINE
  5
30E
  8
0
 62
     7
 10
127.342
 20
181.87599999999989
 30
0.0
 11
127.934
 21
179.66399999999999
 31
0.0
  0
LINE
  5
30F
  8
0
 62
     7
 10
127.934
 20
179.66399999999999
 30
0.0
 11
128.52699999999999
 21
181.87599999999989
 31
0.0
  0
LINE
  5
310
  8
0
 62
     7
 10
128.52699999999999
 20
181.87599999999989
 30
0.0
 11
127.342
 21
181.87599999999989
 31
0.0
  0
LINE
  5
311
  8
0
 62
     7
 10
127.92700000000001
 20
194.017
 30
0.0
 11
127.92700000000001
 21
179.66499999999999
 31
0.0
  0
LINE
  5
312
  8
0
 62
     7
 10
109.854
 20
193.084
 30
0.0
 11
109.261
 21
195.29599999999999
 31
0.0
  0
LINE
  5
313
  8
0
 62
     7
 10
109.261
 20
195.29599999999999
 30
0.0
 11
108.669
 21
193.084
 31
0.0
  0
LINE
  5
314
  8
0
 62
     7
 10
108.669
 20
193.084
 30
0.0
 11
109.854
 21
193.084
 31
0.0
  0
LINE
  5
315
  8
0
 62
     7
 10
108.68300000000001
 20
181.87599999999989
 30
0.0
 11
109.276
 21
179.66399999999999
 31
0.0
  0
LINE
  5
316
  8
0
 62
     7
 10
109.276
 20
179.66399999999999
 30
0.0
 11
109.86799999999999
 21
181.87599999999989
 31
0.0
  0
LINE
  5
317
  8
0
 62
     7
 10
109.86799999999999
 20
181.87599999999989
 30
0.0
 11
108.68300000000001
 21
181.87599999999989
 31
0.0
  0
LINE
  5
318
  8
0
 62
     7
 10
109.268
 20
195.29499999999999
 30
0.0
 11
109.268
 21
179.66499999999999
 31
0.0
  0
LINE
  5
319
  8
0
 62
     7
 10
119.271
 20
195.29499999999999
 30
0.0
 11
117.541
 21
196.52799999999999
 31
0.0
  0
ARC
  5
31A
  8
0
 62
     7
 10
117.700305
 20
196.73460499999999
 30
0.0
 40
0.260633
 50
146.77125100000001
 51
232.28177500000001
  0
LINE
  5
31B
  8
0
 62
     7
 10
121.001
 20
194.06099999999989
 30
0.0
 11
119.271
 21
195.29499999999999
 31
0.0
  0
ARC
  5
31C
  8
0
 62
     7
 10
121.14402800000001
 20
194.27799400000001
 30
0.0
 40
0.26007
 50
236.67027400000001
 51
322.291111
  0
LINE
  5
31D
  8
0
 62
     7
 10
128.62
 20
194.018
 30
0.0
 11
121.89100000000001
 21
194.018
 31
0.0
  0
LINE
  5
31E
  8
0
 62
     7
 10
118.16
 20
195.29499999999999
 30
0.0
 11
108.57599999999999
 21
195.29499999999999
 31
0.0
  0
LINE
  5
31F
  8
0
 62
     7
 10
143.62700000000001
 20
182.089
 30
0.0
 11
145.83799999999999
 21
182.68100000000001
 31
0.0
  0
LINE
  5
320
  8
0
 62
     7
 10
145.83799999999999
 20
182.68100000000001
 30
0.0
 11
143.62700000000001
 21
183.274
 31
0.0
  0
LINE
  5
321
  8
0
 62
     7
 10
143.62700000000001
 20
183.274
 30
0.0
 11
143.62700000000001
 21
182.089
 31
0.0
  0
LINE
  5
322
  8
0
 62
     7
 10
121.48099999999999
 20
183.25899999999999
 30
0.0
 11
119.27
 21
182.667
 31
0.0
  0
LINE
  5
323
  8
0
 62
     7
 10
119.27
 20
182.667
 30
0.0
 11
121.48099999999999
 21
182.07400000000001
 31
0.0
  0
LINE
  5
324
  8
0
 62
     7
 10
121.48099999999999
 20
182.07400000000001
 30
0.0
 11
121.48099999999999
 21
183.25899999999999
 31
0.0
  0
LINE
  5
325
  8
0
 62
     7
 10
145.83799999999999
 20
182.67400000000001
 30
0.0
 11
119.271
 21
182.67400000000001
 31
0.0
  0
LINE
  5
326
  8
0
 62
     7
 10
140.01300000000001
 20
179.66499999999999
 30
0.0
 11
108.57599999999999
 21
179.66499999999999
 31
0.0
  0
LINE
  5
327
  8
0
 62
     7
 10
124.108
 20
197.98599999999999
 30
0.0
 11
120.241
 21
200.744
 31
0.0
  0
LINE
  5
328
  8
0
 62
     7
 10
141.21199999999999
 20
209.16499999999999
 30
0.0
 11
141.21199999999999
 21
208.666
 31
0.0
  0
LINE
  5
329
  8
0
 62
     7
 10
150.46199999999999
 20
208.666
 30
0.0
 11
150.46199999999999
 21
209.16499999999999
 31
0.0
  0
LINE
  5
32A
  8
0
 62
     7
 10
149.83699999999999
 20
178.16499999999999
 30
0.0
 11
150.21199999999999
 21
179.41499999999999
 31
0.0
  0
LINE
  5
32B
  8
0
 62
     7
 10
146.08799999999999
 20
178.16499999999999
 30
0.0
 11
146.08799999999999
 21
179.41499999999999
 31
0.0
  0
LINE
  5
32C
  8
0
 62
     7
 10
145.58799999999999
 20
178.16499999999999
 30
0.0
 11
145.58799999999999
 21
179.41499999999999
 31
0.0
  0
LINE
  5
32D
  8
0
 62
     7
 10
146.08799999999999
 20
178.16499999999999
 30
0.0
 11
145.58799999999999
 21
178.16499999999999
 31
0.0
  0
LINE
  5
32E
  8
0
 62
     7
 10
141.46199999999999
 20
179.41499999999999
 30
0.0
 11
141.83699999999999
 21
178.16499999999999
 31
0.0
  0
LINE
  5
32F
  8
0
 62
     7
 10
141.83699999999999
 20
177.41499999999999
 30
0.0
 11
141.83699999999999
 21
179.41499999999999
 31
0.0
  0
LINE
  5
330
  8
0
 62
     7
 10
149.83699999999999
 20
177.41499999999999
 30
0.0
 11
149.83699999999999
 21
179.41499999999999
 31
0.0
  0
LINE
  5
331
  8
0
 62
     7
 10
149.83699999999999
 20
177.41499999999999
 30
0.0
 11
141.83699999999999
 21
177.41499999999999
 31
0.0
  0
LINE
  5
332
  8
0
 62
     7
 10
140.71299999999999
 20
179.41499999999999
 30
0.0
 11
140.71299999999999
 21
179.66499999999999
 31
0.0
  0
LINE
  5
333
  8
0
 62
     7
 10
150.96299999999999
 20
179.66499999999999
 30
0.0
 11
150.96299999999999
 21
179.41499999999999
 31
0.0
  0
LINE
  5
334
  8
0
 62
     7
 10
150.96299999999999
 20
179.41499999999999
 30
0.0
 11
140.71299999999999
 21
179.41499999999999
 31
0.0
  0
LINE
  5
335
  8
0
 62
     7
 10
140.83699999999999
 20
201.166
 30
0.0
 11
140.83699999999999
 21
179.66499999999999
 31
0.0
  0
LINE
  5
336
  8
0
 62
     7
 10
140.83699999999999
 20
208.666
 30
0.0
 11
140.83699999999999
 21
205.91499999999999
 31
0.0
  0
LINE
  5
337
  8
0
 62
     7
 10
150.83799999999999
 20
208.666
 30
0.0
 11
150.83799999999999
 21
179.66499999999999
 31
0.0
  0
LINE
  5
338
  8
0
 62
     7
 10
150.96299999999999
 20
179.66499999999999
 30
0.0
 11
140.71299999999999
 21
179.66499999999999
 31
0.0
  0
LINE
  5
339
  8
0
 62
     7
 10
150.83799999999999
 20
208.666
 30
0.0
 11
140.83699999999999
 21
208.666
 31
0.0
  0
LINE
  5
33A
  8
0
 62
     7
 10
140.83699999999999
 20
216.916
 30
0.0
 11
140.83699999999999
 21
209.16499999999999
 31
0.0
  0
LINE
  5
33B
  8
0
 62
     7
 10
150.58799999999999
 20
217.166
 30
0.0
 11
141.08799999999999
 21
217.166
 31
0.0
  0
ARC
  5
33C
  8
0
 62
     7
 10
141.097196
 20
216.90577500000001
 30
0.0
 40
0.259955
 50
92.128064999999992
 51
177.83243200000001
  0
LINE
  5
33D
  8
0
 62
     7
 10
150.83799999999999
 20
216.916
 30
0.0
 11
150.83799999999999
 21
209.16499999999999
 31
0.0
  0
ARC
  5
33E
  8
0
 62
     7
 10
150.578307
 20
216.90593799999999
 30
0.0
 40
0.259786
 50
2.133124
 51
87.906339000000017
  0
LINE
  5
33F
  8
0
 62
     7
 10
150.83799999999999
 20
209.16499999999999
 30
0.0
 11
140.83699999999999
 21
209.16499999999999
 31
0.0
  0
LINE
  5
340
  8
0
 62
     7
 10
66.467299999999994
 20
169.03999999999999
 30
0.0
 11
66.467299999999994
 21
164.66499999999999
 31
0.0
  0
LINE
  5
341
  8
0
 62
     7
 10
66.467299999999994
 20
177.39599999999999
 30
0.0
 11
66.467299999999994
 21
172.16499999999999
 31
0.0
  0
LINE
  5
342
  8
0
 62
     7
 10
66.717500000000001
 20
172.16499999999999
 30
0.0
 11
66.717500000000001
 21
177.39599999999999
 31
0.0
  0
LINE
  5
343
  8
0
 62
     7
 10
59.467500000000001
 20
177.39599999999999
 30
0.0
 11
59.467500000000001
 21
172.16499999999999
 31
0.0
  0
LINE
  5
344
  8
0
 62
     7
 10
59.2181
 20
172.16499999999999
 30
0.0
 11
59.2181
 21
177.39599999999999
 31
0.0
  0
LINE
  5
345
  8
0
 62
     7
 10
66.467299999999994
 20
171.53999999999999
 30
0.0
 11
66.467299999999994
 21
170.28999999999999
 31
0.0
  0
LINE
  5
346
  8
0
 62
     7
 10
66.717500000000001
 20
170.28999999999999
 30
0.0
 11
66.717500000000001
 21
171.53999999999999
 31
0.0
  0
LINE
  5
347
  8
0
 62
     7
 10
59.467500000000001
 20
171.53999999999999
 30
0.0
 11
59.467500000000001
 21
170.28999999999999
 31
0.0
  0
LINE
  5
348
  8
0
 62
     7
 10
59.2181
 20
170.28999999999999
 30
0.0
 11
59.2181
 21
171.53999999999999
 31
0.0
  0
LINE
  5
349
  8
0
 62
     7
 10
59.467500000000001
 20
169.03999999999999
 30
0.0
 11
59.467500000000001
 21
164.66499999999999
 31
0.0
  0
LINE
  5
34A
  8
0
 62
     7
 10
59.2181
 20
164.91499999999999
 30
0.0
 11
59.2181
 21
169.03999999999999
 31
0.0
  0
LINE
  5
34B
  8
0
 62
     7
 10
59.2181
 20
164.91499999999999
 30
0.0
 11
66.717500000000001
 21
164.91499999999999
 31
0.0
  0
LINE
  5
34C
  8
0
 62
     7
 10
66.717500000000001
 20
169.03999999999999
 30
0.0
 11
66.717500000000001
 21
164.91499999999999
 31
0.0
  0
LINE
  5
34D
  8
0
 62
     7
 10
66.717500000000001
 20
164.91499999999999
 30
0.0
 11
66.466000000000008
 21
164.66499999999999
 31
0.0
  0
LINE
  5
34E
  8
0
 62
     7
 10
66.466000000000008
 20
164.66499999999999
 30
0.0
 11
59.467500000000001
 21
164.66499999999999
 31
0.0
  0
LINE
  5
34F
  8
0
 62
     7
 10
59.467500000000001
 20
164.66499999999999
 30
0.0
 11
59.2181
 21
164.91499999999999
 31
0.0
  0
LINE
  5
350
  8
0
 62
     7
 10
57.124200000000002
 20
167.78999999999999
 30
0.0
 11
57.124200000000002
 21
169.03999999999999
 31
0.0
  0
LINE
  5
351
  8
0
 62
     7
 10
58.374099999999999
 20
167.78999999999999
 30
0.0
 11
58.374099999999999
 21
169.03999999999999
 31
0.0
  0
LINE
  5
352
  8
0
 62
     7
 10
57.124200000000002
 20
170.28999999999999
 30
0.0
 11
57.124200000000002
 21
171.53999999999999
 31
0.0
  0
LINE
  5
353
  8
0
 62
     7
 10
58.374099999999999
 20
170.28999999999999
 30
0.0
 11
58.374099999999999
 21
171.53999999999999
 31
0.0
  0
LINE
  5
354
  8
0
  6
AIGENLINE001
 62
     7
 10
57.749099999999999
 20
165.49299999999999
 30
0.0
 11
57.749099999999999
 21
173.18799999999999
 31
0.0
  0
LINE
  5
355
  8
0
 62
     7
 10
56.699100000000001
 20
166.53999999999999
 30
0.0
 11
56.699100000000001
 21
167.78999999999999
 31
0.0
  0
LINE
  5
356
  8
0
 62
     7
 10
56.699100000000001
 20
167.78999999999999
 30
0.0
 11
58.799199999999999
 21
167.78999999999999
 31
0.0
  0
LINE
  5
357
  8
0
 62
     7
 10
58.799199999999999
 20
167.78999999999999
 30
0.0
 11
58.799199999999999
 21
166.53999999999999
 31
0.0
  0
LINE
  5
358
  8
0
 62
     7
 10
58.799199999999999
 20
166.53999999999999
 30
0.0
 11
56.699100000000001
 21
166.53999999999999
 31
0.0
  0
LINE
  5
359
  8
0
 62
     7
 10
67.624200000000002
 20
167.78999999999999
 30
0.0
 11
67.624200000000002
 21
169.03999999999999
 31
0.0
  0
LINE
  5
35A
  8
0
 62
     7
 10
68.874099999999999
 20
167.78999999999999
 30
0.0
 11
68.874099999999999
 21
169.03999999999999
 31
0.0
  0
LINE
  5
35B
  8
0
 62
     7
 10
67.624200000000002
 20
170.28999999999999
 30
0.0
 11
67.624200000000002
 21
171.53999999999999
 31
0.0
  0
LINE
  5
35C
  8
0
 62
     7
 10
68.874099999999999
 20
170.28999999999999
 30
0.0
 11
68.874099999999999
 21
171.53999999999999
 31
0.0
  0
LINE
  5
35D
  8
0
  6
AIGENLINE001
 62
     7
 10
68.249200000000002
 20
165.49299999999999
 30
0.0
 11
68.249200000000002
 21
173.18799999999999
 31
0.0
  0
LINE
  5
35E
  8
0
 62
     7
 10
67.199100000000001
 20
166.53999999999999
 30
0.0
 11
67.199100000000001
 21
167.78999999999999
 31
0.0
  0
LINE
  5
35F
  8
0
 62
     7
 10
67.199100000000001
 20
167.78999999999999
 30
0.0
 11
69.299199999999999
 21
167.78999999999999
 31
0.0
  0
LINE
  5
360
  8
0
 62
     7
 10
69.299199999999999
 20
167.78999999999999
 30
0.0
 11
69.299199999999999
 21
166.53999999999999
 31
0.0
  0
LINE
  5
361
  8
0
 62
     7
 10
69.299199999999999
 20
166.53999999999999
 30
0.0
 11
67.199100000000001
 21
166.53999999999999
 31
0.0
  0
LINE
  5
362
  8
0
 62
     7
 10
56.749299999999991
 20
169.03999999999999
 30
0.0
 11
56.749299999999991
 21
170.28999999999999
 31
0.0
  0
LINE
  5
363
  8
0
 62
     7
 10
56.749299999999991
 20
170.28999999999999
 30
0.0
 11
69.249600000000001
 21
170.28999999999999
 31
0.0
  0
LINE
  5
364
  8
0
 62
     7
 10
69.249600000000001
 20
170.28999999999999
 30
0.0
 11
69.249600000000001
 21
169.03999999999999
 31
0.0
  0
LINE
  5
365
  8
0
 62
     7
 10
69.249600000000001
 20
169.03999999999999
 30
0.0
 11
56.749299999999991
 21
169.03999999999999
 31
0.0
  0
LINE
  5
366
  8
0
 62
     7
 10
56.749299999999991
 20
171.53999999999999
 30
0.0
 11
56.749299999999991
 21
171.91499999999999
 31
0.0
  0
LINE
  5
367
  8
0
 62
     7
 10
56.749299999999991
 20
171.91499999999999
 30
0.0
 11
69.249600000000001
 21
171.91499999999999
 31
0.0
  0
LINE
  5
368
  8
0
 62
     7
 10
69.249600000000001
 20
171.91499999999999
 30
0.0
 11
69.249600000000001
 21
171.53999999999999
 31
0.0
  0
LINE
  5
369
  8
0
 62
     7
 10
69.249600000000001
 20
171.53999999999999
 30
0.0
 11
56.749299999999991
 21
171.53999999999999
 31
0.0
  0
LINE
  5
36A
  8
0
 62
     7
 10
57.499000000000002
 20
171.91499999999999
 30
0.0
 11
57.499000000000002
 21
172.16499999999999
 31
0.0
  0
LINE
  5
36B
  8
0
 62
     7
 10
57.499000000000002
 20
172.16499999999999
 30
0.0
 11
68.499300000000005
 21
172.16499999999999
 31
0.0
  0
LINE
  5
36C
  8
0
 62
     7
 10
68.499300000000005
 20
172.16499999999999
 30
0.0
 11
68.499300000000005
 21
171.91499999999999
 31
0.0
  0
LINE
  5
36D
  8
0
 62
     7
 10
68.499300000000005
 20
171.91499999999999
 30
0.0
 11
57.499000000000002
 21
171.91499999999999
 31
0.0
  0
ARC
  5
36E
  8
0
 62
     7
 10
65.069640000000007
 20
111.092055
 30
0.0
 40
0.8304219999999999
 50
213.15650500000001
 51
269.47789499999999
  0
ARC
  5
36F
  8
0
 62
     7
 10
65.054156000000006
 20
111.09206399999999
 30
0.0
 40
0.8304309999999999
 50
270.52245799999997
 51
326.84318100000002
  0
ARC
  5
370
  8
0
 62
     7
 10
62.997253999999998
 20
114.013735
 30
0.0
 40
3.7520679999999991
 50
260.71311100000003
 51
270.03402499999999
  0
ARC
  5
371
  8
0
 62
     7
 10
62.769620000000003
 20
112.47845700000001
 30
0.0
 40
2.2003009999999992
 50
246.926559
 51
260.11130800000001
  0
ARC
  5
372
  8
0
 62
     7
 10
62.396269999999987
 20
111.55014300000001
 30
0.0
 40
1.2001010000000001
 50
234.01217299999999
 51
245.95577599999999
  0
ARC
  5
373
  8
0
 62
     7
 10
61.990856000000001
 20
110.98763099999999
 30
0.0
 40
0.506729
 50
223.648054
 51
233.72922800000001
  0
ARC
  5
374
  8
0
 62
     7
 10
63.001705000000001
 20
114.01146199999999
 30
0.0
 40
3.749795999999999
 50
269.96603199999998
 51
279.28972800000003
  0
ARC
  5
375
  8
0
 62
     7
 10
63.229298999999997
 20
112.477255
 30
0.0
 40
2.1990910000000001
 50
279.89037100000002
 51
293.07942400000002
  0
ARC
  5
376
  8
0
 62
     7
 10
63.602353000000001
 20
111.55001900000001
 30
0.0
 40
1.2000010000000001
 50
294.04812299999992
 51
305.99138199999999
  0
ARC
  5
377
  8
0
 62
     7
 10
64.007508000000001
 20
110.987893
 30
0.0
 40
0.5070930000000001
 50
306.27694000000002
 51
316.350391
  0
ARC
  5
378
  8
0
 62
     7
 10
60.928978000000001
 20
111.092055
 30
0.0
 40
0.8304219999999999
 50
270.52212500000002
 51
326.84351500000002
  0
ARC
  5
379
  8
0
 62
     7
 10
60.944462000000001
 20
111.09206399999999
 30
0.0
 40
0.8304309999999999
 50
213.15683899999999
 51
269.47756200000009
  0
LINE
  5
37A
  8
0
 62
     7
 10
60.936500000000002
 20
110.262
 30
0.0
 11
65.062100000000001
 21
110.262
 31
0.0
  0
ARC
  5
37B
  8
0
 62
     7
 10
65.069665999999998
 20
112.43207099999999
 30
0.0
 40
0.8296389999999998
 50
90.524356999999995
 51
146.92957699999999
  0
ARC
  5
37C
  8
0
 62
     7
 10
65.054131000000012
 20
112.432062
 30
0.0
 40
0.8296479999999998
 50
33.070737000000001
 51
89.475290000000015
  0
ARC
  5
37D
  8
0
 62
     7
 10
62.997234999999989
 20
109.517124
 30
0.0
 40
3.744551
 50
89.965614000000002
 51
99.305400999999989
  0
ARC
  5
37E
  8
0
 62
     7
 10
62.769162999999992
 20
111.04997400000001
 30
0.0
 40
2.1951130000000001
 50
99.900173999999993
 51
113.118149
  0
ARC
  5
37F
  8
0
 62
     7
 10
62.396595999999988
 20
111.974035
 30
0.0
 40
1.1991459999999989
 50
114.081633
 51
126.040211
  0
ARC
  5
380
  8
0
 62
     7
 10
61.990844999999993
 20
112.535781
 30
0.0
 40
0.5061970000000001
 50
126.31341399999999
 51
136.41328999999999
  0
ARC
  5
381
  8
0
 62
     7
 10
63.001724000000003
 20
109.51939299999999
 30
0.0
 40
3.742283
 50
80.691754000000003
 51
90.034328999999985
  0
ARC
  5
382
  8
0
 62
     7
 10
63.229756000000009
 20
111.05117300000001
 30
0.0
 40
2.1939069999999989
 50
66.875857999999994
 51
80.098145000000002
  0
ARC
  5
383
  8
0
 62
     7
 10
63.602027
 20
111.974159
 30
0.0
 40
1.1990469999999991
 50
53.95623100000001
 51
65.914462999999998
  0
ARC
  5
384
  8
0
 62
     7
 10
64.00752
 20
112.535521
 30
0.0
 40
0.50656
 50
43.58826599999999
 51
53.680416000000001
  0
ARC
  5
385
  8
0
 62
     7
 10
60.928952000000002
 20
112.43207099999999
 30
0.0
 40
0.8296389999999998
 50
33.070404000000003
 51
89.475623999999996
  0
ARC
  5
386
  8
0
 62
     7
 10
60.944487000000002
 20
112.432062
 30
0.0
 40
0.8296479999999998
 50
90.524690000000007
 51
146.92924300000001
  0
LINE
  5
387
  8
0
 62
     7
 10
60.936500000000002
 20
113.262
 30
0.0
 11
65.062100000000001
 21
113.262
 31
0.0
  0
ARC
  5
388
  8
0
 62
     7
 10
65.069665999999998
 20
114.340706
 30
0.0
 40
0.8296389999999998
 50
213.07042300000001
 51
269.47564299999999
  0
ARC
  5
389
  8
0
 62
     7
 10
65.054131000000012
 20
114.340715
 30
0.0
 40
0.8296479999999998
 50
270.52471000000003
 51
326.92926299999999
  0
ARC
  5
38A
  8
0
 62
     7
 10
62.997234999999989
 20
117.255652
 30
0.0
 40
3.744551
 50
260.69459899999998
 51
270.03438599999998
  0
ARC
  5
38B
  8
0
 62
     7
 10
62.769162999999992
 20
115.722803
 30
0.0
 40
2.1951130000000001
 50
246.88185100000001
 51
260.09982599999989
  0
ARC
  5
38C
  8
0
 62
     7
 10
62.396595999999988
 20
114.798742
 30
0.0
 40
1.1991459999999989
 50
233.959789
 51
245.91836699999999
  0
ARC
  5
38D
  8
0
 62
     7
 10
61.990844999999993
 20
114.23699499999999
 30
0.0
 40
0.5061970000000001
 50
223.58671000000001
 51
233.68658600000001
  0
ARC
  5
38E
  8
0
 62
     7
 10
63.001724000000003
 20
117.253384
 30
0.0
 40
3.742283
 50
269.96567099999999
 51
279.308246
  0
ARC
  5
38F
  8
0
 62
     7
 10
63.229756000000009
 20
115.721604
 30
0.0
 40
2.1939069999999989
 50
279.9018549999999
 51
293.12414200000001
  0
ARC
  5
390
  8
0
 62
     7
 10
63.602027
 20
114.798618
 30
0.0
 40
1.1990469999999991
 50
294.08553699999999
 51
306.043769
  0
ARC
  5
391
  8
0
 62
     7
 10
64.00752
 20
114.237256
 30
0.0
 40
0.50656
 50
306.31958400000002
 51
316.41173400000002
  0
ARC
  5
392
  8
0
 62
     7
 10
60.928952000000002
 20
114.340706
 30
0.0
 40
0.8296389999999998
 50
270.52437600000002
 51
326.929596
  0
ARC
  5
393
  8
0
 62
     7
 10
60.944487000000002
 20
114.340715
 30
0.0
 40
0.8296479999999998
 50
213.07075699999999
 51
269.47530999999998
  0
LINE
  5
394
  8
0
 62
     7
 10
60.936500000000002
 20
113.511
 30
0.0
 11
65.062100000000001
 21
113.511
 31
0.0
  0
ARC
  5
395
  8
0
 62
     7
 10
65.069665999999998
 20
117.182199
 30
0.0
 40
0.8296389999999998
 50
90.524356999999995
 51
146.92957699999999
  0
ARC
  5
396
  8
0
 62
     7
 10
65.054131000000012
 20
117.18219000000001
 30
0.0
 40
0.8296479999999998
 50
33.070737000000001
 51
89.475290000000015
  0
ARC
  5
397
  8
0
 62
     7
 10
62.997234999999989
 20
114.267252
 30
0.0
 40
3.744551
 50
89.965614000000002
 51
99.305400999999989
  0
ARC
  5
398
  8
0
 62
     7
 10
62.769162999999992
 20
115.800102
 30
0.0
 40
2.1951130000000001
 50
99.900173999999993
 51
113.118149
  0
ARC
  5
399
  8
0
 62
     7
 10
62.396595999999988
 20
116.72416200000001
 30
0.0
 40
1.1991459999999989
 50
114.081633
 51
126.040211
  0
ARC
  5
39A
  8
0
 62
     7
 10
61.990844999999993
 20
117.285909
 30
0.0
 40
0.5061970000000001
 50
126.31341399999999
 51
136.41328999999999
  0
ARC
  5
39B
  8
0
 62
     7
 10
63.001724000000003
 20
114.26952
 30
0.0
 40
3.742283
 50
80.691754000000003
 51
90.034328999999985
  0
ARC
  5
39C
  8
0
 62
     7
 10
63.229756000000009
 20
115.801301
 30
0.0
 40
2.1939069999999989
 50
66.875857999999994
 51
80.098145000000002
  0
ARC
  5
39D
  8
0
 62
     7
 10
63.602027
 20
116.72428600000001
 30
0.0
 40
1.1990469999999991
 50
53.95623100000001
 51
65.914462999999998
  0
ARC
  5
39E
  8
0
 62
     7
 10
64.00752
 20
117.28564799999999
 30
0.0
 40
0.50656
 50
43.58826599999999
 51
53.680416000000001
  0
ARC
  5
39F
  8
0
 62
     7
 10
60.928952000000002
 20
117.182199
 30
0.0
 40
0.8296389999999998
 50
33.070404000000003
 51
89.475623999999996
  0
ARC
  5
3A0
  8
0
 62
     7
 10
60.944487000000002
 20
117.18219000000001
 30
0.0
 40
0.8296479999999998
 50
90.524690000000007
 51
146.92924300000001
  0
LINE
  5
3A1
  8
0
 62
     7
 10
61.1539
 20
105.241
 30
0.0
 11
62.999499999999991
 21
105.241
 31
0.0
  0
LINE
  5
3A2
  8
0
 62
     7
 10
64.844700000000003
 20
105.241
 30
0.0
 11
62.999499999999991
 21
105.241
 31
0.0
  0
LINE
  5
3A3
  8
0
 62
     7
 10
64.844700000000003
 20
105.241
 30
0.0
 11
64.844700000000003
 21
106.931
 31
0.0
  0
LINE
  5
3A4
  8
0
 62
     7
 10
64.5715
 20
107.20399999999999
 30
0.0
 11
64.5715
 21
109.36
 31
0.0
  0
LINE
  5
3A5
  8
0
 62
     7
 10
64.5715
 20
107.20399999999999
 30
0.0
 11
64.844700000000003
 21
106.931
 31
0.0
  0
LINE
  5
3A6
  8
0
 62
     7
 10
63.4908
 20
107.20399999999999
 30
0.0
 11
63.4908
 21
109.36
 31
0.0
  0
LINE
  5
3A7
  8
0
 62
     7
 10
63.881100000000011
 20
107.20399999999999
 30
0.0
 11
63.881100000000011
 21
109.36
 31
0.0
  0
LINE
  5
3A8
  8
0
 62
     7
 10
63.881100000000011
 20
107.20399999999999
 30
0.0
 11
64.5715
 21
107.20399999999999
 31
0.0
  0
LINE
  5
3A9
  8
0
 62
     7
 10
62.999499999999991
 20
107.20399999999999
 30
0.0
 11
63.4908
 21
107.20399999999999
 31
0.0
  0
ARC
  5
3AA
  8
0
 62
     7
 10
64.554508999999996
 20
109.793735
 30
0.0
 40
0.46824
 50
2.03437
 51
87.921865999999994
  0
ARC
  5
3AB
  8
0
 62
     7
 10
64.554494999999989
 20
109.827708
 30
0.0
 40
0.4682810000000001
 50
272.07970699999998
 51
357.8765150000001
  0
LINE
  5
3AC
  8
0
 62
     7
 10
63.881100000000011
 20
109.36
 30
0.0
 11
64.5715
 21
109.36
 31
0.0
  0
LINE
  5
3AD
  8
0
 62
     7
 10
62.999499999999991
 20
109.36
 30
0.0
 11
63.4908
 21
109.36
 31
0.0
  0
LINE
  5
3AE
  8
0
 62
     7
 10
62.999499999999991
 20
110.262
 30
0.0
 11
64.5715
 21
110.262
 31
0.0
  0
LINE
  5
3AF
  8
0
 62
     7
 10
61.1539
 20
105.241
 30
0.0
 11
61.1539
 21
106.931
 31
0.0
  0
LINE
  5
3B0
  8
0
 62
     7
 10
61.427500000000002
 20
107.20399999999999
 30
0.0
 11
61.427500000000002
 21
109.36
 31
0.0
  0
LINE
  5
3B1
  8
0
 62
     7
 10
61.427500000000002
 20
107.20399999999999
 30
0.0
 11
61.1539
 21
106.931
 31
0.0
  0
LINE
  5
3B2
  8
0
 62
     7
 10
62.508200000000002
 20
107.20399999999999
 30
0.0
 11
62.508200000000002
 21
109.36
 31
0.0
  0
LINE
  5
3B3
  8
0
 62
     7
 10
62.1175
 20
107.20399999999999
 30
0.0
 11
62.1175
 21
109.36
 31
0.0
  0
LINE
  5
3B4
  8
0
 62
     7
 10
62.1175
 20
107.20399999999999
 30
0.0
 11
61.427500000000002
 21
107.20399999999999
 31
0.0
  0
LINE
  5
3B5
  8
0
 62
     7
 10
62.999499999999991
 20
107.20399999999999
 30
0.0
 11
62.508200000000002
 21
107.20399999999999
 31
0.0
  0
ARC
  5
3B6
  8
0
 62
     7
 10
61.444394999999993
 20
109.827635
 30
0.0
 40
0.4682060000000001
 50
182.11494500000001
 51
267.92887200000001
  0
ARC
  5
3B7
  8
0
 62
     7
 10
61.445155
 20
109.79303400000001
 30
0.0
 40
0.4689670000000001
 50
92.160663999999997
 51
177.88306
  0
LINE
  5
3B8
  8
0
 62
     7
 10
62.1175
 20
109.36
 30
0.0
 11
61.427500000000002
 21
109.36
 31
0.0
  0
LINE
  5
3B9
  8
0
 62
     7
 10
62.999499999999991
 20
109.36
 30
0.0
 11
62.508200000000002
 21
109.36
 31
0.0
  0
LINE
  5
3BA
  8
0
 62
     7
 10
62.999499999999991
 20
110.262
 30
0.0
 11
61.427500000000002
 21
110.262
 31
0.0
  0
ARC
  5
3BB
  8
0
 62
     7
 10
63.750548999999999
 20
97.504808999999995
 30
0.0
 40
1.064263999999999
 50
240.313177
 51
269.92409300000003
  0
ARC
  5
3BC
  8
0
 62
     7
 10
63.574736000000001
 20
97.163049000000001
 30
0.0
 40
0.6804899999999999
 50
212.29017200000001
 51
238.92186899999999
  0
ARC
  5
3BD
  8
0
 62
     7
 10
63.747727000000012
 20
97.505345000000005
 30
0.0
 40
1.0647999999999991
 50
270.07599399999998
 51
299.67920400000003
  0
ARC
  5
3BE
  8
0
 62
     7
 10
63.924545999999999
 20
97.161800000000014
 30
0.0
 40
0.678974
 50
301.07012099999997
 51
327.75368300000008
  0
ARC
  5
3BF
  8
0
 62
     7
 10
63.747727000000012
 20
96.093709000000004
 30
0.0
 40
1.0647999999999991
 50
60.320795999999987
 51
89.924006000000006
  0
ARC
  5
3C0
  8
0
 62
     7
 10
63.924545999999999
 20
96.437252999999984
 30
0.0
 40
0.678974
 50
32.246316999999998
 51
58.929879000000007
  0
ARC
  5
3C1
  8
0
 62
     7
 10
63.750548999999999
 20
96.094245000000015
 30
0.0
 40
1.064263999999999
 50
90.075906999999987
 51
119.686823
  0
ARC
  5
3C2
  8
0
 62
     7
 10
63.574736000000001
 20
96.436003999999997
 30
0.0
 40
0.6804899999999999
 50
121.0781309999999
 51
147.70982799999999
  0
ARC
  5
3C3
  8
0
 62
     7
 10
62.247725000000003
 20
96.092883999999998
 30
0.0
 40
1.065625
 50
60.332545000000003
 51
89.924186999999989
  0
ARC
  5
3C4
  8
0
 62
     7
 10
62.423087999999993
 20
96.434314000000001
 30
0.0
 40
0.6823560000000001
 50
32.359071999999998
 51
58.936844999999998
  0
ARC
  5
3C5
  8
0
 62
     7
 10
62.250544999999988
 20
96.094245000000015
 30
0.0
 40
1.064263999999999
 50
90.075906999999987
 51
119.686823
  0
ARC
  5
3C6
  8
0
 62
     7
 10
62.07473199999999
 20
96.436003999999997
 30
0.0
 40
0.6804899999999999
 50
121.0781309999999
 51
147.70982799999999
  0
LINE
  5
3C7
  8
0
 62
     7
 10
64.499499999999998
 20
98.651600000000016
 30
0.0
 11
64.499499999999998
 21
105.241
 31
0.0
  0
LINE
  5
3C8
  8
0
 62
     7
 10
61.499499999999998
 20
98.651600000000016
 30
0.0
 11
61.499499999999998
 21
105.241
 31
0.0
  0
ARC
  5
3C9
  8
0
 62
     7
 10
62.248413999999997
 20
97.946340000000021
 30
0.0
 40
1.064263999999999
 50
60.313157999999987
 51
89.924072999999993
  0
ARC
  5
3CA
  8
0
 62
     7
 10
62.424227000000002
 20
98.2881
 30
0.0
 40
0.6804899999999999
 50
32.290152999999997
 51
58.921849000000009
  0
ARC
  5
3CB
  8
0
 62
     7
 10
62.251238999999991
 20
97.945082999999997
 30
0.0
 40
1.0655209999999991
 50
90.076064999999986
 51
119.668908
  0
ARC
  5
3CC
  8
0
 62
     7
 10
62.074154000000007
 20
98.289016000000004
 30
0.0
 40
0.6792200000000001
 50
121.050224
 51
147.73360500000001
  0
ARC
  5
3CD
  8
0
 62
     7
 10
62.251238999999991
 20
99.358160999999996
 30
0.0
 40
1.0655209999999991
 50
240.33109200000001
 51
269.92393499999997
  0
ARC
  5
3CE
  8
0
 62
     7
 10
62.074154000000007
 20
99.014228000000003
 30
0.0
 40
0.6792200000000001
 50
212.26639499999999
 51
238.94977600000001
  0
ARC
  5
3CF
  8
0
 62
     7
 10
62.248413999999997
 20
99.356904
 30
0.0
 40
1.064263999999999
 50
270.07592699999998
 51
299.68684200000001
  0
ARC
  5
3D0
  8
0
 62
     7
 10
62.424227000000002
 20
99.015143999999992
 30
0.0
 40
0.6804899999999999
 50
301.07815099999999
 51
327.70984700000008
  0
ARC
  5
3D1
  8
0
 62
     7
 10
63.750892999999998
 20
99.358079000000004
 30
0.0
 40
1.065439
 50
240.32992400000001
 51
269.92423000000002
  0
ARC
  5
3D2
  8
0
 62
     7
 10
63.574641
 20
99.015100000000004
 30
0.0
 40
0.6803860000000001
 50
212.29124200000001
 51
238.929059
  0
ARC
  5
3D3
  8
0
 62
     7
 10
63.748070999999989
 20
99.357624999999999
 30
0.0
 40
1.0649850000000001
 50
270.07601799999998
 51
299.67656099999999
  0
ARC
  5
3D4
  8
0
 62
     7
 10
63.92414999999999
 20
99.015477000000004
 30
0.0
 40
0.6807350000000002
 50
301.058269
 51
327.68982
  0
LINE
  5
3D5
  8
0
 62
     7
 10
61.1539
 20
92.688100000000006
 30
0.0
 11
61.1539
 21
90.998599999999996
 31
0.0
  0
LINE
  5
3D6
  8
0
 62
     7
 10
61.1539
 20
92.688100000000006
 30
0.0
 11
62.999499999999991
 21
92.688100000000006
 31
0.0
  0
LINE
  5
3D7
  8
0
 62
     7
 10
61.427500000000002
 20
90.725099999999983
 30
0.0
 11
61.427500000000002
 21
88.498900000000006
 31
0.0
  0
LINE
  5
3D8
  8
0
 62
     7
 10
61.427500000000002
 20
90.725099999999983
 30
0.0
 11
61.1539
 21
90.998599999999996
 31
0.0
  0
LINE
  5
3D9
  8
0
 62
     7
 10
62.508200000000002
 20
90.725099999999983
 30
0.0
 11
62.508200000000002
 21
88.498900000000006
 31
0.0
  0
LINE
  5
3DA
  8
0
 62
     7
 10
62.1175
 20
90.725099999999983
 30
0.0
 11
62.1175
 21
88.498900000000006
 31
0.0
  0
LINE
  5
3DB
  8
0
 62
     7
 10
62.1175
 20
90.725099999999983
 30
0.0
 11
61.427500000000002
 21
90.725099999999983
 31
0.0
  0
LINE
  5
3DC
  8
0
 62
     7
 10
62.999499999999991
 20
90.725099999999983
 30
0.0
 11
62.508200000000002
 21
90.725099999999983
 31
0.0
  0
ARC
  5
3DD
  8
0
 62
     7
 10
61.444836000000002
 20
88.065243999999979
 30
0.0
 40
0.468636
 50
182.07938100000001
 51
267.87689499999999
  0
ARC
  5
3DE
  8
0
 62
     7
 10
61.444472999999988
 20
88.030884
 30
0.0
 40
0.468286
 50
92.080284999999989
 51
177.87589800000001
  0
LINE
  5
3DF
  8
0
 62
     7
 10
62.1175
 20
88.498900000000006
 30
0.0
 11
61.427500000000002
 21
88.498900000000006
 31
0.0
  0
LINE
  5
3E0
  8
0
 62
     7
 10
62.999499999999991
 20
88.498900000000006
 30
0.0
 11
62.508200000000002
 21
88.498900000000006
 31
0.0
  0
LINE
  5
3E1
  8
0
 62
     7
 10
62.999499999999991
 20
87.596900000000005
 30
0.0
 11
61.427500000000002
 21
87.596900000000005
 31
0.0
  0
LINE
  5
3E2
  8
0
 62
     7
 10
64.844700000000003
 20
92.688100000000006
 30
0.0
 11
64.844700000000003
 21
90.998599999999996
 31
0.0
  0
LINE
  5
3E3
  8
0
 62
     7
 10
64.844700000000003
 20
92.688100000000006
 30
0.0
 11
62.999499999999991
 21
92.688100000000006
 31
0.0
  0
LINE
  5
3E4
  8
0
 62
     7
 10
64.5715
 20
90.725099999999983
 30
0.0
 11
64.5715
 21
88.498900000000006
 31
0.0
  0
LINE
  5
3E5
  8
0
 62
     7
 10
64.5715
 20
90.725099999999983
 30
0.0
 11
64.844700000000003
 21
90.998599999999996
 31
0.0
  0
LINE
  5
3E6
  8
0
 62
     7
 10
63.4908
 20
90.725099999999983
 30
0.0
 11
63.4908
 21
88.498900000000006
 31
0.0
  0
LINE
  5
3E7
  8
0
 62
     7
 10
63.881399999999992
 20
90.725099999999983
 30
0.0
 11
63.881399999999992
 21
88.498900000000006
 31
0.0
  0
LINE
  5
3E8
  8
0
 62
     7
 10
63.881399999999992
 20
90.725099999999983
 30
0.0
 11
64.5715
 21
90.725099999999983
 31
0.0
  0
LINE
  5
3E9
  8
0
 62
     7
 10
62.999499999999991
 20
90.725099999999983
 30
0.0
 11
63.4908
 21
90.725099999999983
 31
0.0
  0
ARC
  5
3EA
  8
0
 62
     7
 10
64.554164999999998
 20
88.030558999999997
 30
0.0
 40
0.468623
 50
2.1622659999999989
 51
87.881511999999987
  0
ARC
  5
3EB
  8
0
 62
     7
 10
64.553806999999992
 20
88.065562999999997
 30
0.0
 40
0.4689670000000001
 50
272.16070100000002
 51
357.88306299999999
  0
LINE
  5
3EC
  8
0
 62
     7
 10
63.881399999999992
 20
88.498900000000006
 30
0.0
 11
64.5715
 21
88.498900000000006
 31
0.0
  0
LINE
  5
3ED
  8
0
 62
     7
 10
62.999499999999991
 20
88.498900000000006
 30
0.0
 11
63.4908
 21
88.498900000000006
 31
0.0
  0
LINE
  5
3EE
  8
0
 62
     7
 10
62.999499999999991
 20
87.596900000000005
 30
0.0
 11
64.5715
 21
87.596900000000005
 31
0.0
  0
LINE
  5
3EF
  8
0
 62
     7
 10
64.499499999999998
 20
92.688100000000006
 30
0.0
 11
64.499499999999998
 21
96.799499999999995
 31
0.0
  0
LINE
  5
3F0
  8
0
 62
     7
 10
61.499499999999998
 20
92.688100000000006
 30
0.0
 11
61.499499999999998
 21
96.799499999999995
 31
0.0
  0
LINE
  5
3F1
  8
0
 62
     7
 10
94.013099999999994
 20
91.904700000000005
 30
0.0
 11
69.1614
 21
91.904700000000005
 31
0.0
  0
LINE
  5
3F2
  8
0
 62
     7
 10
66.687100000000001
 20
94.159899999999979
 30
0.0
 11
64.499499999999998
 21
94.835099999999997
 31
0.0
  0
LINE
  5
3F3
  8
0
 62
     7
 10
64.499499999999998
 20
94.835099999999997
 30
0.0
 11
66.056299999999993
 21
93.156000000000006
 31
0.0
  0
LINE
  5
3F4
  8
0
 62
     7
 10
66.056299999999993
 20
93.156000000000006
 30
0.0
 11
66.687100000000001
 21
94.159899999999979
 31
0.0
  0
LINE
  5
3F5
  8
0
 62
     7
 10
64.499499999999998
 20
94.835099999999997
 30
0.0
 11
69.1614
 21
91.904700000000005
 31
0.0
  0
LINE
  5
3F6
  8
0
 62
     7
 10
62.831400000000002
 20
99.385400000000004
 30
0.0
 11
61.499499999999998
 21
100.717
 31
0.0
  0
LINE
  5
3F7
  8
0
 62
     7
 10
64.499499999999998
 20
100.717
 30
0.0
 11
63.1676
 21
99.385400000000004
 31
0.0
  0
LINE
  5
3F8
  8
0
 62
     7
 10
63.932099999999991
 20
99.385400000000004
 30
0.0
 11
61.499499999999998
 21
101.818
 31
0.0
  0
LINE
  5
3F9
  8
0
 62
     7
 10
64.499499999999998
 20
101.818
 30
0.0
 11
62.066899999999997
 21
99.385400000000004
 31
0.0
  0
LINE
  5
3FA
  8
0
 62
     7
 10
64.499499999999998
 20
99.918700000000001
 30
0.0
 11
61.499499999999998
 21
102.919
 31
0.0
  0
LINE
  5
3FB
  8
0
 62
     7
 10
64.499499999999998
 20
102.919
 30
0.0
 11
61.499499999999998
 21
99.918700000000001
 31
0.0
  0
LINE
  5
3FC
  8
0
 62
     7
 10
64.499499999999998
 20
101.01900000000001
 30
0.0
 11
61.499499999999998
 21
104.01900000000001
 31
0.0
  0
LINE
  5
3FD
  8
0
 62
     7
 10
64.499499999999998
 20
104.01900000000001
 30
0.0
 11
61.499499999999998
 21
101.01900000000001
 31
0.0
  0
LINE
  5
3FE
  8
0
 62
     7
 10
64.499499999999998
 20
102.12
 30
0.0
 11
61.499499999999998
 21
105.12
 31
0.0
  0
LINE
  5
3FF
  8
0
 62
     7
 10
64.499499999999998
 20
105.12
 30
0.0
 11
61.499499999999998
 21
102.12
 31
0.0
  0
LINE
  5
400
  8
0
 62
     7
 10
64.499499999999998
 20
103.221
 30
0.0
 11
62.478900000000003
 21
105.241
 31
0.0
  0
LINE
  5
401
  8
0
 62
     7
 10
63.520000000000003
 20
105.241
 30
0.0
 11
61.499499999999998
 21
103.221
 31
0.0
  0
LINE
  5
402
  8
0
 62
     7
 10
64.499499999999998
 20
104.322
 30
0.0
 11
63.579599999999999
 21
105.241
 31
0.0
  0
LINE
  5
403
  8
0
 62
     7
 10
62.419299999999993
 20
105.241
 30
0.0
 11
61.499499999999998
 21
104.322
 31
0.0
  0
LINE
  5
404
  8
0
 62
     7
 10
64.874300000000005
 20
113.262
 30
0.0
 11
64.874300000000005
 21
113.511
 31
0.0
  0
LINE
  5
405
  8
0
 62
     7
 10
61.124299999999991
 20
113.512
 30
0.0
 11
61.124299999999991
 21
113.262
 31
0.0
  0
LINE
  5
406
  8
0
 62
     7
 10
65.749399999999994
 20
110.63800000000001
 30
0.0
 11
65.749399999999994
 21
112.88500000000001
 31
0.0
  0
LINE
  5
407
  8
0
 62
     7
 10
64.374399999999994
 20
110.63800000000001
 30
0.0
 11
64.374399999999994
 21
112.88500000000001
 31
0.0
  0
LINE
  5
408
  8
0
 62
     7
 10
61.624200000000002
 20
110.63800000000001
 30
0.0
 11
61.624200000000002
 21
112.88500000000001
 31
0.0
  0
LINE
  5
409
  8
0
 62
     7
 10
60.249200000000002
 20
110.63800000000001
 30
0.0
 11
60.249200000000002
 21
112.88500000000001
 31
0.0
  0
LINE
  5
40A
  8
0
 62
     7
 10
65.749399999999994
 20
113.88800000000001
 30
0.0
 11
65.749399999999994
 21
117.63500000000001
 31
0.0
  0
LINE
  5
40B
  8
0
 62
     7
 10
61.624200000000002
 20
113.88800000000001
 30
0.0
 11
61.624200000000002
 21
117.63500000000001
 31
0.0
  0
LINE
  5
40C
  8
0
 62
     7
 10
64.374399999999994
 20
113.88800000000001
 30
0.0
 11
64.374399999999994
 21
117.63500000000001
 31
0.0
  0
LINE
  5
40D
  8
0
 62
     7
 10
60.249200000000002
 20
113.88800000000001
 30
0.0
 11
60.249200000000002
 21
117.63500000000001
 31
0.0
  0
LINE
  5
40E
  8
0
 62
     7
 10
60.936500000000002
 20
118.012
 30
0.0
 11
65.062100000000001
 21
118.012
 31
0.0
  0
ARC
  5
40F
  8
0
 62
     7
 10
144.647921
 20
115.213308
 30
0.0
 40
2.7984949999999991
 50
89.961632999999992
 51
100.767985
  0
ARC
  5
410
  8
0
 62
     7
 10
144.46140299999999
 20
116.302226
 30
0.0
 40
1.694024999999999
 50
101.45162999999999
 51
116.44883900000001
  0
ARC
  5
411
  8
0
 62
     7
 10
144.165291
 20
116.935152
 30
0.0
 40
0.9955989999999999
 50
117.414873
 51
130.931871
  0
ARC
  5
412
  8
0
 62
     7
 10
143.795905
 20
117.364788
 30
0.0
 40
0.4290130000000001
 50
131.254288
 51
140.97723500000001
  0
ARC
  5
413
  8
0
 62
     7
 10
144.65166499999989
 20
115.209401
 30
0.0
 40
2.8024029999999991
 50
79.239526999999995
 51
90.038250999999974
  0
ARC
  5
414
  8
0
 62
     7
 10
144.83843999999999
 20
116.300657
 30
0.0
 40
1.695584
 50
63.564221999999987
 51
78.555194
  0
ARC
  5
415
  8
0
 62
     7
 10
145.135425
 20
116.935551
 30
0.0
 40
0.9950030000000001
 50
49.072578
 51
62.601332999999997
  0
ARC
  5
416
  8
0
 62
     7
 10
145.50496100000001
 20
117.365296
 30
0.0
 40
0.428236
 50
39.019508000000002
 51
48.761155000000002
  0
ARC
  5
417
  8
0
 62
     7
 10
147.022987
 20
115.21236399999999
 30
0.0
 40
2.7994400000000002
 50
89.961705000000009
 51
100.76616300000001
  0
ARC
  5
418
  8
0
 62
     7
 10
146.83677900000001
 20
116.299651
 30
0.0
 40
1.6966270000000001
 50
101.447543
 51
116.430286
  0
ARC
  5
419
  8
0
 62
     7
 10
146.54087200000001
 20
116.932692
 30
0.0
 40
0.9981849999999999
 50
117.39429199999999
 51
130.887449
  0
ARC
  5
41A
  8
0
 62
     7
 10
146.17008300000001
 20
117.36445500000001
 30
0.0
 40
0.429069
 50
131.195446
 51
140.92612500000001
  0
ARC
  5
41B
  8
0
 62
     7
 10
147.02672899999999
 20
115.21236399999999
 30
0.0
 40
2.7994400000000002
 50
79.233817000000002
 51
90.038275999999996
  0
ARC
  5
41C
  8
0
 62
     7
 10
147.21293700000001
 20
116.299651
 30
0.0
 40
1.6966270000000001
 50
63.569693999999991
 51
78.552436999999983
  0
ARC
  5
41D
  8
0
 62
     7
 10
147.50884400000001
 20
116.932692
 30
0.0
 40
0.9981849999999999
 50
49.11253099999999
 51
62.605687999999986
  0
ARC
  5
41E
  8
0
 62
     7
 10
147.87963300000001
 20
117.36445500000001
 30
0.0
 40
0.429069
 50
39.073855000000002
 51
48.804533999999997
  0
LINE
  5
41F
  8
0
 62
     7
 10
144.65000000000001
 20
118.012
 30
0.0
 11
147.02500000000001
 21
118.012
 31
0.0
  0
ARC
  5
420
  8
0
 62
     7
 10
144.647921
 20
110.46317999999999
 30
0.0
 40
2.7984949999999991
 50
89.961632999999992
 51
100.767985
  0
ARC
  5
421
  8
0
 62
     7
 10
144.46140299999999
 20
111.552098
 30
0.0
 40
1.694024999999999
 50
101.45162999999999
 51
116.44883900000001
  0
ARC
  5
422
  8
0
 62
     7
 10
144.165291
 20
112.185024
 30
0.0
 40
0.9955989999999999
 50
117.414873
 51
130.931871
  0
ARC
  5
423
  8
0
 62
     7
 10
143.795905
 20
112.61466
 30
0.0
 40
0.4290130000000001
 50
131.254288
 51
140.97723500000001
  0
ARC
  5
424
  8
0
 62
     7
 10
144.65166499999989
 20
110.459273
 30
0.0
 40
2.8024029999999991
 50
79.239526999999995
 51
90.038250999999974
  0
ARC
  5
425
  8
0
 62
     7
 10
144.83843999999999
 20
111.55052999999999
 30
0.0
 40
1.695584
 50
63.564221999999987
 51
78.555194
  0
ARC
  5
426
  8
0
 62
     7
 10
145.135425
 20
112.185424
 30
0.0
 40
0.9950030000000001
 50
49.072578
 51
62.601332999999997
  0
ARC
  5
427
  8
0
 62
     7
 10
145.50496100000001
 20
112.61516899999999
 30
0.0
 40
0.428236
 50
39.019508000000002
 51
48.761155000000002
  0
ARC
  5
428
  8
0
 62
     7
 10
147.022987
 20
110.462236
 30
0.0
 40
2.7994400000000002
 50
89.961705000000009
 51
100.76616300000001
  0
ARC
  5
429
  8
0
 62
     7
 10
146.83677900000001
 20
111.54952400000001
 30
0.0
 40
1.6966270000000001
 50
101.447543
 51
116.430286
  0
ARC
  5
42A
  8
0
 62
     7
 10
146.54087200000001
 20
112.182564
 30
0.0
 40
0.9981849999999999
 50
117.39429199999999
 51
130.887449
  0
ARC
  5
42B
  8
0
 62
     7
 10
146.17008300000001
 20
112.614328
 30
0.0
 40
0.429069
 50
131.195446
 51
140.92612500000001
  0
ARC
  5
42C
  8
0
 62
     7
 10
147.02672899999999
 20
110.462236
 30
0.0
 40
2.7994400000000002
 50
79.233817000000002
 51
90.038275999999996
  0
ARC
  5
42D
  8
0
 62
     7
 10
147.21293700000001
 20
111.54952400000001
 30
0.0
 40
1.6966270000000001
 50
63.569693999999991
 51
78.552436999999983
  0
ARC
  5
42E
  8
0
 62
     7
 10
147.50884400000001
 20
112.182564
 30
0.0
 40
0.9981849999999999
 50
49.11253099999999
 51
62.605687999999986
  0
ARC
  5
42F
  8
0
 62
     7
 10
147.87963300000001
 20
112.614328
 30
0.0
 40
0.429069
 50
39.073855000000002
 51
48.804533999999997
  0
ARC
  5
430
  8
0
 62
     7
 10
144.647921
 20
116.309597
 30
0.0
 40
2.7984949999999991
 50
259.23201499999999
 51
270.03836699999999
  0
ARC
  5
431
  8
0
 62
     7
 10
144.46140299999999
 20
115.220679
 30
0.0
 40
1.694024999999999
 50
243.55116100000001
 51
258.54837000000009
  0
ARC
  5
432
  8
0
 62
     7
 10
144.165291
 20
114.58775300000001
 30
0.0
 40
0.9955989999999999
 50
229.068129
 51
242.585127
  0
ARC
  5
433
  8
0
 62
     7
 10
143.795905
 20
114.158117
 30
0.0
 40
0.4290130000000001
 50
219.02276499999999
 51
228.745712
  0
ARC
  5
434
  8
0
 62
     7
 10
144.65166499999989
 20
116.31350399999999
 30
0.0
 40
2.8024029999999991
 50
269.961749
 51
280.76047299999999
  0
ARC
  5
435
  8
0
 62
     7
 10
144.83843999999999
 20
115.222247
 30
0.0
 40
1.695584
 50
281.44480600000003
 51
296.43577800000003
  0
ARC
  5
436
  8
0
 62
     7
 10
145.135425
 20
114.58735299999999
 30
0.0
 40
0.9950030000000001
 50
297.39866699999999
 51
310.92742199999998
  0
ARC
  5
437
  8
0
 62
     7
 10
145.50496100000001
 20
114.157608
 30
0.0
 40
0.428236
 50
311.23884500000003
 51
320.98049200000003
  0
ARC
  5
438
  8
0
 62
     7
 10
147.022987
 20
116.310541
 30
0.0
 40
2.7994400000000002
 50
259.23383699999999
 51
270.03829500000001
  0
ARC
  5
439
  8
0
 62
     7
 10
146.83677900000001
 20
115.223253
 30
0.0
 40
1.6966270000000001
 50
243.569714
 51
258.552457
  0
ARC
  5
43A
  8
0
 62
     7
 10
146.54087200000001
 20
114.59021300000001
 30
0.0
 40
0.9981849999999999
 50
229.112551
 51
242.60570799999999
  0
ARC
  5
43B
  8
0
 62
     7
 10
146.17008300000001
 20
114.158449
 30
0.0
 40
0.429069
 50
219.07387499999999
 51
228.804554
  0
ARC
  5
43C
  8
0
 62
     7
 10
147.02672899999999
 20
116.310541
 30
0.0
 40
2.7994400000000002
 50
269.961724
 51
280.76618300000001
  0
ARC
  5
43D
  8
0
 62
     7
 10
147.21293700000001
 20
115.223253
 30
0.0
 40
1.6966270000000001
 50
281.447563
 51
296.43030599999997
  0
ARC
  5
43E
  8
0
 62
     7
 10
147.50884400000001
 20
114.59021300000001
 30
0.0
 40
0.9981849999999999
 50
297.39431200000001
 51
310.88746900000001
  0
ARC
  5
43F
  8
0
 62
     7
 10
147.87963300000001
 20
114.158449
 30
0.0
 40
0.429069
 50
311.19546600000001
 51
320.92614500000002
  0
ARC
  5
440
  8
0
 62
     7
 10
144.64793700000001
 20
113.065752
 30
0.0
 40
2.804085999999999
 50
259.2534
 51
270.03795700000012
  0
ARC
  5
441
  8
0
 62
     7
 10
144.46177299999999
 20
111.97496
 30
0.0
 40
1.6978349999999991
 50
243.60118900000001
 51
258.56169
  0
ARC
  5
442
  8
0
 62
     7
 10
144.1648439999999
 20
111.33865900000001
 30
0.0
 40
0.996011
 50
229.122726
 51
242.626408
  0
ARC
  5
443
  8
0
 62
     7
 10
143.79455200000001
 20
110.907286
 30
0.0
 40
0.4275170000000001
 50
219.063377
 51
228.81104999999999
  0
ARC
  5
444
  8
0
 62
     7
 10
144.65164899999999
 20
113.06966799999999
 30
0.0
 40
2.8080009999999991
 50
269.96215799999999
 51
280.739103
  0
ARC
  5
445
  8
0
 62
     7
 10
144.83806999999999
 20
111.976533
 30
0.0
 40
1.6993990000000001
 50
281.43149399999999
 51
296.38577099999998
  0
ARC
  5
446
  8
0
 62
     7
 10
145.13587200000001
 20
111.33825899999999
 30
0.0
 40
0.9954149999999998
 50
297.35740099999998
 51
310.87282299999998
  0
ARC
  5
447
  8
0
 62
     7
 10
145.50631000000001
 20
110.906781
 30
0.0
 40
0.426744
 50
311.17350699999997
 51
320.93987900000002
  0
ARC
  5
448
  8
0
 62
     7
 10
147.02300399999999
 20
113.066699
 30
0.0
 40
2.8050320000000002
 50
259.25521800000001
 51
270.03788600000001
  0
ARC
  5
449
  8
0
 62
     7
 10
146.83715000000001
 20
111.977543
 30
0.0
 40
1.700445999999999
 50
243.61971399999999
 51
258.56577199999998
  0
ARC
  5
44A
  8
0
 62
     7
 10
146.540425
 20
111.341123
 30
0.0
 40
0.9986
 50
229.16712899999999
 51
242.64696599999999
  0
ARC
  5
44B
  8
0
 62
     7
 10
146.16873200000001
 20
110.907619
 30
0.0
 40
0.427576
 50
219.11450500000001
 51
228.86988099999999
  0
ARC
  5
44C
  8
0
 62
     7
 10
147.026712
 20
113.066699
 30
0.0
 40
2.8050320000000002
 50
269.96213299999999
 51
280.74480199999999
  0
ARC
  5
44D
  8
0
 62
     7
 10
147.21256600000001
 20
111.977543
 30
0.0
 40
1.700445999999999
 50
281.43424800000008
 51
296.38030600000002
  0
ARC
  5
44E
  8
0
 62
     7
 10
147.50929099999999
 20
111.341123
 30
0.0
 40
0.9986
 50
297.35305399999999
 51
310.83289100000002
  0
ARC
  5
44F
  8
0
 62
     7
 10
147.88098400000001
 20
110.907619
 30
0.0
 40
0.427576
 50
311.13013899999999
 51
320.885514
  0
LINE
  5
450
  8
0
 62
     7
 10
143.99199999999999
 20
105.241
 30
0.0
 11
145.83799999999999
 21
105.241
 31
0.0
  0
LINE
  5
451
  8
0
 62
     7
 10
147.68299999999999
 20
105.241
 30
0.0
 11
145.83799999999999
 21
105.241
 31
0.0
  0
LINE
  5
452
  8
0
 62
     7
 10
147.68299999999999
 20
105.241
 30
0.0
 11
147.68299999999999
 21
106.931
 31
0.0
  0
LINE
  5
453
  8
0
 62
     7
 10
147.40899999999999
 20
107.20399999999999
 30
0.0
 11
147.40899999999999
 21
109.36
 31
0.0
  0
LINE
  5
454
  8
0
 62
     7
 10
147.40899999999999
 20
107.20399999999999
 30
0.0
 11
147.68299999999999
 21
106.931
 31
0.0
  0
LINE
  5
455
  8
0
 62
     7
 10
146.32900000000001
 20
107.20399999999999
 30
0.0
 11
146.32900000000001
 21
109.36
 31
0.0
  0
LINE
  5
456
  8
0
 62
     7
 10
146.71899999999999
 20
107.20399999999999
 30
0.0
 11
146.71899999999999
 21
109.36
 31
0.0
  0
LINE
  5
457
  8
0
 62
     7
 10
146.71899999999999
 20
107.20399999999999
 30
0.0
 11
147.40899999999999
 21
107.20399999999999
 31
0.0
  0
LINE
  5
458
  8
0
 62
     7
 10
145.83799999999999
 20
107.20399999999999
 30
0.0
 11
146.32900000000001
 21
107.20399999999999
 31
0.0
  0
ARC
  5
459
  8
0
 62
     7
 10
147.39237700000001
 20
109.793401
 30
0.0
 40
0.468573
 50
2.073777999999999
 51
87.926211999999992
  0
ARC
  5
45A
  8
0
 62
     7
 10
147.39306300000001
 20
109.827341
 30
0.0
 40
0.4678880000000001
 50
271.992727
 51
357.91974199999999
  0
LINE
  5
45B
  8
0
 62
     7
 10
146.71899999999999
 20
109.36
 30
0.0
 11
147.40899999999999
 21
109.36
 31
0.0
  0
LINE
  5
45C
  8
0
 62
     7
 10
145.83799999999999
 20
109.36
 30
0.0
 11
146.32900000000001
 21
109.36
 31
0.0
  0
LINE
  5
45D
  8
0
 62
     7
 10
145.83799999999999
 20
110.262
 30
0.0
 11
147.40899999999999
 21
110.262
 31
0.0
  0
LINE
  5
45E
  8
0
 62
     7
 10
143.99199999999999
 20
105.241
 30
0.0
 11
143.99199999999999
 21
106.931
 31
0.0
  0
LINE
  5
45F
  8
0
 62
     7
 10
144.26599999999999
 20
107.20399999999999
 30
0.0
 11
144.26599999999999
 21
109.36
 31
0.0
  0
LINE
  5
460
  8
0
 62
     7
 10
144.26599999999999
 20
107.20399999999999
 30
0.0
 11
143.99199999999999
 21
106.931
 31
0.0
  0
LINE
  5
461
  8
0
 62
     7
 10
145.346
 20
107.20399999999999
 30
0.0
 11
145.346
 21
109.36
 31
0.0
  0
LINE
  5
462
  8
0
 62
     7
 10
144.95599999999999
 20
107.20399999999999
 30
0.0
 11
144.95599999999999
 21
109.36
 31
0.0
  0
LINE
  5
463
  8
0
 62
     7
 10
144.95599999999999
 20
107.20399999999999
 30
0.0
 11
144.26599999999999
 21
107.20399999999999
 31
0.0
  0
LINE
  5
464
  8
0
 62
     7
 10
145.83799999999999
 20
107.20399999999999
 30
0.0
 11
145.346
 21
107.20399999999999
 31
0.0
  0
ARC
  5
465
  8
0
 62
     7
 10
144.282915
 20
109.827979
 30
0.0
 40
0.468549
 50
182.155484
 51
267.93208700000002
  0
ARC
  5
466
  8
0
 62
     7
 10
144.28296399999999
 20
109.793401
 30
0.0
 40
0.468573
 50
92.073751000000001
 51
177.926219
  0
LINE
  5
467
  8
0
 62
     7
 10
144.95599999999999
 20
109.36
 30
0.0
 11
144.26599999999999
 21
109.36
 31
0.0
  0
LINE
  5
468
  8
0
 62
     7
 10
145.83799999999999
 20
109.36
 30
0.0
 11
145.346
 21
109.36
 31
0.0
  0
LINE
  5
469
  8
0
 62
     7
 10
145.83799999999999
 20
110.262
 30
0.0
 11
144.26599999999999
 21
110.262
 31
0.0
  0
ARC
  5
46A
  8
0
 62
     7
 10
146.58873800000001
 20
97.504829999999998
 30
0.0
 40
1.064284999999999
 50
240.31347099999999
 51
269.92408999999998
  0
ARC
  5
46B
  8
0
 62
     7
 10
146.413184
 20
97.163306000000006
 30
0.0
 40
0.680846
 50
212.296753
 51
238.91391200000001
  0
ARC
  5
46C
  8
0
 62
     7
 10
146.58591799999999
 20
97.504829999999998
 30
0.0
 40
1.064284999999999
 50
270.07593000000003
 51
299.68654900000001
  0
ARC
  5
46D
  8
0
 62
     7
 10
146.761472
 20
97.163306000000006
 30
0.0
 40
0.680846
 50
301.08610800000002
 51
327.70326699999998
  0
ARC
  5
46E
  8
0
 62
     7
 10
146.58591799999999
 20
96.094223999999997
 30
0.0
 40
1.064284999999999
 50
60.313450999999993
 51
89.92407
  0
ARC
  5
46F
  8
0
 62
     7
 10
146.761472
 20
96.435748000000004
 30
0.0
 40
0.680846
 50
32.296733000000003
 51
58.913891999999997
  0
ARC
  5
470
  8
0
 62
     7
 10
146.58873800000001
 20
96.094223999999997
 30
0.0
 40
1.064284999999999
 50
90.075909999999965
 51
119.68652899999999
  0
ARC
  5
471
  8
0
 62
     7
 10
146.413184
 20
96.435748000000004
 30
0.0
 40
0.680846
 50
121.086088
 51
147.703247
  0
ARC
  5
472
  8
0
 62
     7
 10
145.08590799999999
 20
96.092782
 30
0.0
 40
1.0657270000000001
 50
60.334006999999993
 51
89.923888999999988
  0
ARC
  5
473
  8
0
 62
     7
 10
145.26199500000001
 20
96.435083000000006
 30
0.0
 40
0.6813380000000001
 50
32.336767999999999
 51
58.953650000000003
  0
ARC
  5
474
  8
0
 62
     7
 10
145.08873399999999
 20
96.094223999999997
 30
0.0
 40
1.064284999999999
 50
90.075909999999965
 51
119.68652899999999
  0
ARC
  5
475
  8
0
 62
     7
 10
144.91318000000001
 20
96.435748000000004
 30
0.0
 40
0.680846
 50
121.086088
 51
147.703247
  0
LINE
  5
476
  8
0
 62
     7
 10
147.33799999999999
 20
98.651600000000016
 30
0.0
 11
147.33799999999999
 21
105.241
 31
0.0
  0
LINE
  5
477
  8
0
 62
     7
 10
144.33799999999999
 20
98.651600000000016
 30
0.0
 11
144.33799999999999
 21
105.241
 31
0.0
  0
ARC
  5
478
  8
0
 62
     7
 10
145.086603
 20
97.946318999999974
 30
0.0
 40
1.064284999999999
 50
60.313450999999993
 51
89.92407
  0
ARC
  5
479
  8
0
 62
     7
 10
145.262157
 20
98.287843000000024
 30
0.0
 40
0.680846
 50
32.296733000000003
 51
58.913891999999997
  0
ARC
  5
47A
  8
0
 62
     7
 10
145.089429
 20
97.944877000000005
 30
0.0
 40
1.0657270000000001
 50
90.076091000000005
 51
119.66597400000001
  0
ARC
  5
47B
  8
0
 62
     7
 10
144.913342
 20
98.287177999999983
 30
0.0
 40
0.6813380000000001
 50
121.04633
 51
147.66321199999999
  0
ARC
  5
47C
  8
0
 62
     7
 10
145.089429
 20
99.358367000000015
 30
0.0
 40
1.0657270000000001
 50
240.33402599999999
 51
269.92390899999998
  0
ARC
  5
47D
  8
0
 62
     7
 10
144.913342
 20
99.016065999999995
 30
0.0
 40
0.6813380000000001
 50
212.3367879999999
 51
238.95366999999999
  0
ARC
  5
47E
  8
0
 62
     7
 10
145.086603
 20
99.356925000000004
 30
0.0
 40
1.064284999999999
 50
270.07593000000003
 51
299.68654900000001
  0
ARC
  5
47F
  8
0
 62
     7
 10
145.262157
 20
99.015400999999997
 30
0.0
 40
0.680846
 50
301.08610800000002
 51
327.70326699999998
  0
ARC
  5
480
  8
0
 62
     7
 10
146.58873800000001
 20
99.356925000000004
 30
0.0
 40
1.064284999999999
 50
240.31347099999999
 51
269.92408999999998
  0
ARC
  5
481
  8
0
 62
     7
 10
146.413184
 20
99.015400999999997
 30
0.0
 40
0.680846
 50
212.296753
 51
238.91391200000001
  0
ARC
  5
482
  8
0
 62
     7
 10
146.58591999999999
 20
99.359234000000001
 30
0.0
 40
1.066594
 50
270.07565099999999
 51
299.653661
  0
ARC
  5
483
  8
0
 62
     7
 10
146.762576
 20
99.015097999999995
 30
0.0
 40
0.680333
 50
301.06392599999998
 51
327.70617800000002
  0
LINE
  5
484
  8
0
 62
     7
 10
143.99199999999999
 20
92.688100000000006
 30
0.0
 11
143.99199999999999
 21
90.998599999999996
 31
0.0
  0
LINE
  5
485
  8
0
 62
     7
 10
143.99199999999999
 20
92.688100000000006
 30
0.0
 11
145.83799999999999
 21
92.688100000000006
 31
0.0
  0
LINE
  5
486
  8
0
 62
     7
 10
144.26599999999999
 20
90.725099999999983
 30
0.0
 11
144.26599999999999
 21
88.498900000000006
 31
0.0
  0
LINE
  5
487
  8
0
 62
     7
 10
144.26599999999999
 20
90.725099999999983
 30
0.0
 11
143.99199999999999
 21
90.998599999999996
 31
0.0
  0
LINE
  5
488
  8
0
 62
     7
 10
145.346
 20
90.725099999999983
 30
0.0
 11
145.346
 21
88.498900000000006
 31
0.0
  0
LINE
  5
489
  8
0
 62
     7
 10
144.95599999999999
 20
90.725099999999983
 30
0.0
 11
144.95599999999999
 21
88.498900000000006
 31
0.0
  0
LINE
  5
48A
  8
0
 62
     7
 10
144.95599999999999
 20
90.725099999999983
 30
0.0
 11
144.26599999999999
 21
90.725099999999983
 31
0.0
  0
LINE
  5
48B
  8
0
 62
     7
 10
145.83799999999999
 20
90.725099999999983
 30
0.0
 11
145.346
 21
90.725099999999983
 31
0.0
  0
ARC
  5
48C
  8
0
 62
     7
 10
144.283355
 20
88.065586999999994
 30
0.0
 40
0.468979
 50
182.11986200000001
 51
267.88016800000003
  0
ARC
  5
48D
  8
0
 62
     7
 10
144.28228200000001
 20
88.031250999999997
 30
0.0
 40
0.4678930000000001
 50
91.993244000000004
 51
177.919185
  0
LINE
  5
48E
  8
0
 62
     7
 10
144.95599999999999
 20
88.498900000000006
 30
0.0
 11
144.26599999999999
 21
88.498900000000006
 31
0.0
  0
LINE
  5
48F
  8
0
 62
     7
 10
145.83799999999999
 20
88.498900000000006
 30
0.0
 11
145.346
 21
88.498900000000006
 31
0.0
  0
LINE
  5
490
  8
0
 62
     7
 10
145.83799999999999
 20
87.596900000000005
 30
0.0
 11
144.26599999999999
 21
87.596900000000005
 31
0.0
  0
LINE
  5
491
  8
0
 62
     7
 10
147.68299999999999
 20
92.688100000000006
 30
0.0
 11
147.68299999999999
 21
90.998599999999996
 31
0.0
  0
LINE
  5
492
  8
0
 62
     7
 10
147.68299999999999
 20
92.688100000000006
 30
0.0
 11
145.83799999999999
 21
92.688100000000006
 31
0.0
  0
LINE
  5
493
  8
0
 62
     7
 10
147.40899999999999
 20
90.725099999999983
 30
0.0
 11
147.40899999999999
 21
88.498900000000006
 31
0.0
  0
LINE
  5
494
  8
0
 62
     7
 10
147.40899999999999
 20
90.725099999999983
 30
0.0
 11
147.68299999999999
 21
90.998599999999996
 31
0.0
  0
LINE
  5
495
  8
0
 62
     7
 10
146.32900000000001
 20
90.725099999999983
 30
0.0
 11
146.32900000000001
 21
88.498900000000006
 31
0.0
  0
LINE
  5
496
  8
0
 62
     7
 10
146.72
 20
90.725099999999983
 30
0.0
 11
146.72
 21
88.498900000000006
 31
0.0
  0
LINE
  5
497
  8
0
 62
     7
 10
146.72
 20
90.725099999999983
 30
0.0
 11
147.40899999999999
 21
90.725099999999983
 31
0.0
  0
LINE
  5
498
  8
0
 62
     7
 10
145.83799999999999
 20
90.725099999999983
 30
0.0
 11
146.32900000000001
 21
90.725099999999983
 31
0.0
  0
ARC
  5
499
  8
0
 62
     7
 10
147.392034
 20
88.030225000000002
 30
0.0
 40
0.4689550000000001
 50
2.2015569999999989
 51
87.885974000000004
  0
ARC
  5
49A
  8
0
 62
     7
 10
147.39237700000001
 20
88.065195999999986
 30
0.0
 40
0.468573
 50
272.07378799999998
 51
357.926222
  0
LINE
  5
49B
  8
0
 62
     7
 10
146.72
 20
88.498900000000006
 30
0.0
 11
147.40899999999999
 21
88.498900000000006
 31
0.0
  0
LINE
  5
49C
  8
0
 62
     7
 10
145.83799999999999
 20
88.498900000000006
 30
0.0
 11
146.32900000000001
 21
88.498900000000006
 31
0.0
  0
LINE
  5
49D
  8
0
 62
     7
 10
145.83799999999999
 20
87.596900000000005
 30
0.0
 11
147.40899999999999
 21
87.596900000000005
 31
0.0
  0
LINE
  5
49E
  8
0
 62
     7
 10
147.33799999999999
 20
92.688100000000006
 30
0.0
 11
147.33799999999999
 21
96.799499999999995
 31
0.0
  0
LINE
  5
49F
  8
0
 62
     7
 10
144.33799999999999
 20
92.688100000000006
 30
0.0
 11
144.33799999999999
 21
96.799499999999995
 31
0.0
  0
LINE
  5
4A0
  8
0
  6
AIGENLINE001
 62
     7
 10
145.83799999999999
 20
218.434
 30
0.0
 11
145.83799999999999
 21
79.067199999999985
 31
0.0
  0
LINE
  5
4A1
  8
0
 62
     7
 10
147.71299999999999
 20
113.17100000000001
 30
0.0
 11
147.71299999999999
 21
113.601
 31
0.0
  0
LINE
  5
4A2
  8
0
 62
     7
 10
143.96199999999999
 20
113.602
 30
0.0
 11
143.96199999999999
 21
113.17100000000001
 31
0.0
  0
LINE
  5
4A3
  8
0
 62
     7
 10
148.21299999999999
 20
110.63800000000001
 30
0.0
 11
148.21299999999999
 21
112.88500000000001
 31
0.0
  0
LINE
  5
4A4
  8
0
 62
     7
 10
145.83799999999999
 20
110.63800000000001
 30
0.0
 11
145.83799999999999
 21
113.262
 31
0.0
  0
LINE
  5
4A5
  8
0
 62
     7
 10
143.46299999999999
 20
110.63800000000001
 30
0.0
 11
143.46299999999999
 21
112.88500000000001
 31
0.0
  0
LINE
  5
4A6
  8
0
 62
     7
 10
144.65000000000001
 20
110.262
 30
0.0
 11
147.02500000000001
 21
110.262
 31
0.0
  0
LINE
  5
4A7
  8
0
 62
     7
 10
144.65000000000001
 20
113.262
 30
0.0
 11
147.02500000000001
 21
113.262
 31
0.0
  0
LINE
  5
4A8
  8
0
 62
     7
 10
148.21299999999999
 20
113.88800000000001
 30
0.0
 11
148.21299999999999
 21
117.63500000000001
 31
0.0
  0
LINE
  5
4A9
  8
0
 62
     7
 10
145.83799999999999
 20
113.511
 30
0.0
 11
145.83799999999999
 21
118.012
 31
0.0
  0
LINE
  5
4AA
  8
0
 62
     7
 10
143.46299999999999
 20
113.88800000000001
 30
0.0
 11
143.46299999999999
 21
117.63500000000001
 31
0.0
  0
LINE
  5
4AB
  8
0
 62
     7
 10
144.65000000000001
 20
113.511
 30
0.0
 11
147.02500000000001
 21
113.511
 31
0.0
  0
LINE
  5
4AC
  8
0
 62
     7
 10
149.83699999999999
 20
119.956
 30
0.0
 11
149.83699999999999
 21
101.366
 31
0.0
  0
LINE
  5
4AD
  8
0
 62
     7
 10
136.33699999999999
 20
119.956
 30
0.0
 11
136.33699999999999
 21
101.366
 31
0.0
  0
LINE
  5
4AE
  8
0
 62
     7
 10
147.626
 20
101.64700000000001
 30
0.0
 11
149.83699999999999
 21
102.23999999999999
 31
0.0
  0
LINE
  5
4AF
  8
0
 62
     7
 10
149.83699999999999
 20
102.23999999999999
 30
0.0
 11
147.626
 21
102.833
 31
0.0
  0
LINE
  5
4B0
  8
0
 62
     7
 10
147.626
 20
102.833
 30
0.0
 11
147.626
 21
101.64700000000001
 31
0.0
  0
LINE
  5
4B1
  8
0
 62
     7
 10
138.54900000000001
 20
102.818
 30
0.0
 11
136.33699999999999
 21
102.226
 31
0.0
  0
LINE
  5
4B2
  8
0
 62
     7
 10
136.33699999999999
 20
102.226
 30
0.0
 11
138.54900000000001
 21
101.633
 31
0.0
  0
LINE
  5
4B3
  8
0
 62
     7
 10
138.54900000000001
 20
101.633
 30
0.0
 11
138.54900000000001
 21
102.818
 31
0.0
  0
LINE
  5
4B4
  8
0
 62
     7
 10
149.83699999999999
 20
102.233
 30
0.0
 11
136.33699999999999
 21
102.233
 31
0.0
  0
LINE
  5
4B5
  8
0
 62
     7
 10
161.94300000000001
 20
241.374
 30
0.0
 11
151.34399999999999
 21
241.374
 31
0.0
  0
ARC
  5
4B6
  8
0
 62
     7
 10
145.83749800000001
 20
247.93733900000001
 30
0.0
 40
3.9999539999999998
 50
270.00248699999997
 51
0.002457
  0
ARC
  5
4B7
  8
0
 62
     7
 10
145.83749800000001
 20
247.937682
 30
0.0
 40
4.0002969999999989
 50
180.002477
 51
270.00248699999997
  0
ARC
  5
4B8
  8
0
 62
     7
 10
145.83749900000001
 20
247.93733700000001
 30
0.0
 40
4.000299
 50
89.997533000000004
 51
179.99750299999999
  0
ARC
  5
4B9
  8
0
 62
     7
 10
145.83749800000001
 20
247.937682
 30
0.0
 40
3.9999539999999998
 50
359.99754300000001
 51
89.997512999999984
  0
LINE
  5
4BA
  8
0
  6
AIGENLINE001
 62
     7
 10
145.83799999999999
 20
254.17400000000001
 30
0.0
 11
145.83799999999999
 21
241.244
 31
0.0
  0
LINE
  5
4BB
  8
0
 62
     7
 10
65.374499999999983
 20
195.29400000000001
 30
0.0
 11
65.374499999999983
 21
203.53999999999999
 31
0.0
  0
LINE
  5
4BC
  8
0
 62
     7
 10
60.624400000000001
 20
195.29400000000001
 30
0.0
 11
60.624400000000001
 21
203.53999999999999
 31
0.0
  0
LINE
  5
4BD
  8
0
  6
AIGENLINE001
 62
     7
 10
139.77199999999999
 20
247.93799999999999
 30
0.0
 11
151.768
 21
247.93799999999999
 31
0.0
  0
LINE
  5
4BE
  8
0
 62
     7
 10
93.042999999999992
 20
155.041
 30
0.0
 11
78.189300000000003
 21
155.041
 31
0.0
  0
LINE
  5
4BF
  8
0
 62
     7
 10
75.402900000000002
 20
152.43700000000001
 30
0.0
 11
74.508600000000001
 21
150.32900000000001
 31
0.0
  0
LINE
  5
4C0
  8
0
 62
     7
 10
74.508600000000001
 20
150.32900000000001
 30
0.0
 11
76.337299999999985
 21
151.70699999999999
 31
0.0
  0
LINE
  5
4C1
  8
0
 62
     7
 10
76.337299999999985
 20
151.70699999999999
 30
0.0
 11
75.402900000000002
 21
152.43700000000001
 31
0.0
  0
LINE
  5
4C2
  8
0
 62
     7
 10
74.508600000000001
 20
150.32900000000001
 30
0.0
 11
78.189300000000003
 21
155.041
 31
0.0
  0
LINE
  5
4C3
  8
0
 62
     7
 10
48.781500000000001
 20
135.80199999999999
 30
0.0
 11
48.18889999999999
 21
138.01300000000001
 31
0.0
  0
LINE
  5
4C4
  8
0
 62
     7
 10
48.18889999999999
 20
138.01300000000001
 30
0.0
 11
47.595700000000001
 21
135.80199999999999
 31
0.0
  0
LINE
  5
4C5
  8
0
 62
     7
 10
47.595700000000001
 20
135.80199999999999
 30
0.0
 11
48.781500000000001
 21
135.80199999999999
 31
0.0
  0
LINE
  5
4C6
  8
0
 62
     7
 10
47.61079999999999
 20
123.973
 30
0.0
 11
48.203400000000002
 21
121.761
 31
0.0
  0
LINE
  5
4C7
  8
0
 62
     7
 10
48.203400000000002
 20
121.761
 30
0.0
 11
48.795999999999999
 21
123.973
 31
0.0
  0
LINE
  5
4C8
  8
0
 62
     7
 10
48.795999999999999
 20
123.973
 30
0.0
 11
47.61079999999999
 21
123.973
 31
0.0
  0
LINE
  5
4C9
  8
0
 62
     7
 10
48.195799999999998
 20
138.012
 30
0.0
 11
48.195799999999998
 21
121.762
 31
0.0
  0
LINE
  5
4CA
  8
0
 62
     7
 10
52.9422
 20
121.762
 30
0.0
 11
47.495800000000003
 21
121.762
 31
0.0
  0
LINE
  5
4CB
  8
0
 62
     7
 10
52.9422
 20
138.012
 30
0.0
 11
47.495800000000003
 21
138.012
 31
0.0
  0
LINE
  5
4CC
  8
0
 62
     7
 10
150.28399999999999
 20
243.56
 30
0.0
 11
148.40799999999999
 21
244.874
 31
0.0
  0
LINE
  5
4CD
  8
0
 62
     7
 10
148.40799999999999
 20
244.874
 30
0.0
 11
149.375
 21
242.798
 31
0.0
  0
LINE
  5
4CE
  8
0
 62
     7
 10
149.375
 20
242.798
 30
0.0
 11
150.28399999999999
 21
243.56
 31
0.0
  0
LINE
  5
4CF
  8
0
 62
     7
 10
141.39599999999999
 20
252.31999999999999
 30
0.0
 11
143.27099999999999
 21
251.006
 31
0.0
  0
LINE
  5
4D0
  8
0
 62
     7
 10
143.27099999999999
 20
251.006
 30
0.0
 11
142.304
 21
253.08199999999999
 31
0.0
  0
LINE
  5
4D1
  8
0
 62
     7
 10
142.304
 20
253.08199999999999
 30
0.0
 11
141.39599999999999
 21
252.31999999999999
 31
0.0
  0
LINE
  5
4D2
  8
0
 62
     7
 10
141.30699999999999
 20
253.33600000000001
 30
0.0
 11
151.34399999999999
 21
241.374
 31
0.0
  0
ARC
  5
4D3
  8
0
 62
     7
 10
64.511670999999993
 20
199.36240000000001
 30
0.0
 40
0.862878
 50
0.159466
 51
34.795847999999999
  0
ARC
  5
4D4
  8
0
 62
     7
 10
64.142686999999995
 20
199.14405300000001
 30
0.0
 40
1.290862999999999
 50
33.408347999999997
 51
50.205675999999997
  0
ARC
  5
4D5
  8
0
 62
     7
 10
63.695485999999988
 20
198.64336399999999
 30
0.0
 40
1.9619259999999989
 50
49.52966
 51
64.059078
  0
ARC
  5
4D6
  8
0
 62
     7
 10
63.232581999999987
 20
197.761021
 30
0.0
 40
2.9580189999999988
 50
63.472386
 51
79.706040000000002
  0
ARC
  5
4D7
  8
0
 62
     7
 10
63.013340999999997
 20
196.84965
 30
0.0
 40
3.8942569999999992
 50
78.928409000000002
 51
90.203901999999985
  0
ARC
  5
4D8
  8
0
 62
     7
 10
62.998789000000002
 20
196.79006699999999
 30
0.0
 40
3.9538150000000001
 50
89.989959999999996
 51
105.475025
  0
ARC
  5
4D9
  8
0
 62
     7
 10
62.754663999999998
 20
197.771612
 30
0.0
 40
2.9428380000000001
 50
105.99329
 51
117.814745
  0
ARC
  5
4DA
  8
0
 62
     7
 10
62.339188
 20
198.5909
 30
0.0
 40
2.024397
 50
118.234183
 51
132.051975
  0
ARC
  5
4DB
  8
0
 62
     7
 10
61.834665999999999
 20
199.16977700000001
 30
0.0
 40
1.2566959999999989
 50
132.649619
 51
155.400442
  0
ARC
  5
4DC
  8
0
 62
     7
 10
61.484095999999987
 20
199.35867200000001
 30
0.0
 40
0.8596999999999999
 50
157.12133499999999
 51
179.5914149999999
  0
ARC
  5
4DD
  8
0
 62
     7
 10
64.511103000000006
 20
195.29164399999999
 30
0.0
 40
0.8634450000000001
 50
0.159721
 51
34.784056
  0
ARC
  5
4DE
  8
0
 62
     7
 10
64.142903000000004
 20
195.073971
 30
0.0
 40
1.2904100000000001
 50
33.395212000000001
 51
50.201368000000002
  0
ARC
  5
4DF
  8
0
 62
     7
 10
63.688643000000013
 20
194.565043
 30
0.0
 40
1.972323
 50
49.52605100000001
 51
64.682891999999995
  0
ARC
  5
4E0
  8
0
 62
     7
 10
63.220475999999998
 20
193.657804
 30
0.0
 40
2.992834999999999
 50
64.008193000000006
 51
80.12961700000001
  0
ARC
  5
4E1
  8
0
 62
     7
 10
63.012073999999998
 20
192.76493600000001
 30
0.0
 40
3.9085610000000002
 50
79.363493000000005
 51
90.184593000000007
  0
ARC
  5
4E2
  8
0
 62
     7
 10
62.998789000000002
 20
192.719661
 30
0.0
 40
3.9538150000000001
 50
89.989959999999996
 51
105.475025
  0
ARC
  5
4E3
  8
0
 62
     7
 10
62.756830000000001
 20
193.696066
 30
0.0
 40
2.948375
 50
106.006241
 51
117.805571
  0
ARC
  5
4E4
  8
0
 62
     7
 10
62.340536
 20
194.51890399999999
 30
0.0
 40
2.0264159999999989
 50
118.246785
 51
132.05179999999999
  0
ARC
  5
4E5
  8
0
 62
     7
 10
61.835298999999992
 20
195.09896599999999
 30
0.0
 40
1.25736
 50
132.66098799999989
 51
155.40369000000001
  0
ARC
  5
4E6
  8
0
 62
     7
 10
61.485431999999989
 20
195.28779900000001
 30
0.0
 40
0.8610369999999999
 50
157.13919899999999
 51
179.58395200000001
  0
ARC
  5
4E7
  8
0
 62
     7
 10
61.487493000000008
 20
195.29645400000001
 30
0.0
 40
0.8630790000000002
 50
180.15951999999999
 51
214.78667100000001
  0
ARC
  5
4E8
  8
0
 62
     7
 10
61.856264000000003
 20
195.514702
 30
0.0
 40
1.2908349999999991
 50
213.40395000000001
 51
230.20035799999999
  0
ARC
  5
4E9
  8
0
 62
     7
 10
62.311057999999989
 20
196.02470500000001
 30
0.0
 40
1.9739129999999989
 50
229.53397699999999
 51
244.67653100000001
  0
ARC
  5
4EA
  8
0
 62
     7
 10
62.778970999999999
 20
196.933032
 30
0.0
 40
2.995295
 50
244.017865
 51
260.12580500000001
  0
ARC
  5
4EB
  8
0
 62
     7
 10
62.986857000000001
 20
197.82461900000001
 30
0.0
 40
3.909667999999999
 50
259.36501600000003
 51
270.18501500000002
  0
ARC
  5
4EC
  8
0
 62
     7
 10
63.000171999999999
 20
197.86768699999999
 30
0.0
 40
3.9527160000000001
 50
269.98999700000002
 51
285.47721000000001
  0
ARC
  5
4ED
  8
0
 62
     7
 10
63.244022999999999
 20
196.887652
 30
0.0
 40
2.9432669999999992
 50
285.99345899999997
 51
297.81347699999998
  0
ARC
  5
4EE
  8
0
 62
     7
 10
63.659311000000002
 20
196.068656
 30
0.0
 40
2.0251719999999991
 50
298.23301600000002
 51
312.04662200000001
  0
ARC
  5
4EF
  8
0
 62
     7
 10
64.164456000000001
 20
195.489082
 30
0.0
 40
1.256534
 50
312.64122700000001
 51
335.39679100000001
  0
ARC
  5
4F0
  8
0
 62
     7
 10
64.515015000000005
 20
195.30020300000001
 30
0.0
 40
0.859552
 50
337.11564800000002
 51
359.58992799999999
  0
ARC
  5
4F1
  8
0
 62
     7
 10
62.999653000000002
 20
203.540111
 30
0.0
 40
2.374892
 50
0.004166
 51
90.004135999999988
  0
ARC
  5
4F2
  8
0
 62
     7
 10
62.999309999999987
 20
203.540111
 30
0.0
 40
2.374892
 50
89.995843999999991
 51
179.995814
  0
LINE
  5
4F3
  8
0
 62
     7
 10
67.624200000000002
 20
209.16499999999999
 30
0.0
 11
67.624200000000002
 21
208.66499999999999
 31
0.0
  0
LINE
  5
4F4
  8
0
 62
     7
 10
58.374400000000001
 20
208.66499999999999
 30
0.0
 11
58.374400000000001
 21
209.16499999999999
 31
0.0
  0
ARC
  5
4F5
  8
0
 62
     7
 10
62.984999000000002
 20
187.400586
 30
0.0
 40
0.38958
 50
2.130412999999999
 51
87.869577000000007
  0
ARC
  5
4F6
  8
0
 62
     7
 10
63.013171
 20
187.4010209999999
 30
0.0
 40
0.389117
 50
92.016165000000001
 51
177.93116800000001
  0
ARC
  5
4F7
  8
0
 62
     7
 10
63.013979000000013
 20
187.42956599999999
 30
0.0
 40
0.3899409999999999
 50
182.13073
 51
267.86930000000001
  0
ARC
  5
4F8
  8
0
 62
     7
 10
62.985756999999992
 20
187.42843500000001
 30
0.0
 40
0.388783
 50
272.02297099999998
 51
358.02967699999999
  0
ARC
  5
4F9
  8
0
 62
     7
 10
62.984650000000002
 20
185.775533
 30
0.0
 40
0.389929
 50
2.1271969999999998
 51
87.820156000000011
  0
ARC
  5
4FA
  8
0
 62
     7
 10
63.013195999999994
 20
185.77629200000001
 30
0.0
 40
0.389129
 50
92.019695999999996
 51
177.98027400000001
  0
ARC
  5
4FB
  8
0
 62
     7
 10
63.013630000000013
 20
185.80451299999999
 30
0.0
 40
0.389592
 50
182.13394999999991
 51
267.91871700000002
  0
ARC
  5
4FC
  8
0
 62
     7
 10
62.985781999999993
 20
185.80370600000001
 30
0.0
 40
0.38877
 50
272.01943599999998
 51
357.9805740000001
  0
ARC
  5
4FD
  8
0
 62
     7
 10
62.984650000000002
 20
184.15047100000001
 30
0.0
 40
0.389929
 50
2.1271969999999998
 51
87.820156000000011
  0
ARC
  5
4FE
  8
0
 62
     7
 10
63.013195999999994
 20
184.15123
 30
0.0
 40
0.389129
 50
92.019695999999996
 51
177.98027400000001
  0
ARC
  5
4FF
  8
0
 62
     7
 10
63.013630000000013
 20
184.179451
 30
0.0
 40
0.389592
 50
182.13394999999991
 51
267.91871700000002
  0
ARC
  5
500
  8
0
 62
     7
 10
62.985781999999993
 20
184.17864399999999
 30
0.0
 40
0.38877
 50
272.01943599999998
 51
357.9805740000001
  0
LINE
  5
501
  8
0
 62
     7
 10
58.999400000000001
 20
178.16499999999999
 30
0.0
 11
58.624200000000002
 21
179.41499999999999
 31
0.0
  0
LINE
  5
502
  8
0
 62
     7
 10
62.749400000000001
 20
178.16499999999999
 30
0.0
 11
62.749400000000001
 21
179.41499999999999
 31
0.0
  0
LINE
  5
503
  8
0
 62
     7
 10
63.249600000000001
 20
178.16499999999999
 30
0.0
 11
63.249600000000001
 21
179.41499999999999
 31
0.0
  0
LINE
  5
504
  8
0
 62
     7
 10
62.749400000000001
 20
178.16499999999999
 30
0.0
 11
63.249600000000001
 21
178.16499999999999
 31
0.0
  0
LINE
  5
505
  8
0
 62
     7
 10
67.374399999999994
 20
179.41499999999999
 30
0.0
 11
66.999300000000005
 21
178.16499999999999
 31
0.0
  0
LINE
  5
506
  8
0
 62
     7
 10
66.999300000000005
 20
177.41499999999999
 30
0.0
 11
66.999300000000005
 21
179.41499999999999
 31
0.0
  0
LINE
  5
507
  8
0
 62
     7
 10
58.999400000000001
 20
177.41499999999999
 30
0.0
 11
58.999400000000001
 21
179.41499999999999
 31
0.0
  0
LINE
  5
508
  8
0
 62
     7
 10
58.999400000000001
 20
177.41499999999999
 30
0.0
 11
66.999300000000005
 21
177.41499999999999
 31
0.0
  0
LINE
  5
509
  8
0
 62
     7
 10
68.124399999999994
 20
179.41499999999999
 30
0.0
 11
68.124399999999994
 21
179.66499999999999
 31
0.0
  0
LINE
  5
50A
  8
0
 62
     7
 10
57.874499999999991
 20
179.66499999999999
 30
0.0
 11
57.874499999999991
 21
179.41499999999999
 31
0.0
  0
LINE
  5
50B
  8
0
 62
     7
 10
57.874499999999991
 20
179.41499999999999
 30
0.0
 11
68.124399999999994
 21
179.41499999999999
 31
0.0
  0
LINE
  5
50C
  8
0
 62
     7
 10
67.999399999999994
 20
208.66499999999999
 30
0.0
 11
67.999399999999994
 21
179.66499999999999
 31
0.0
  0
LINE
  5
50D
  8
0
 62
     7
 10
57.999200000000002
 20
208.66499999999999
 30
0.0
 11
57.999200000000002
 21
179.66499999999999
 31
0.0
  0
LINE
  5
50E
  8
0
 62
     7
 10
57.874499999999991
 20
179.66499999999999
 30
0.0
 11
68.124399999999994
 21
179.66499999999999
 31
0.0
  0
LINE
  5
50F
  8
0
 62
     7
 10
57.999200000000002
 20
208.66499999999999
 30
0.0
 11
67.999399999999994
 21
208.66499999999999
 31
0.0
  0
LINE
  5
510
  8
0
 62
     7
 10
67.999399999999994
 20
216.91499999999999
 30
0.0
 11
67.999399999999994
 21
209.16499999999999
 31
0.0
  0
LINE
  5
511
  8
0
 62
     7
 10
58.249400000000001
 20
217.16499999999999
 30
0.0
 11
67.749600000000001
 21
217.16499999999999
 31
0.0
  0
ARC
  5
512
  8
0
 62
     7
 10
67.739784999999998
 20
216.905618
 30
0.0
 40
0.259774
 50
2.1278509999999988
 51
87.832638000000003
  0
LINE
  5
513
  8
0
 62
     7
 10
57.999200000000002
 20
216.91499999999999
 30
0.0
 11
57.999200000000002
 21
209.16499999999999
 31
0.0
  0
ARC
  5
514
  8
0
 62
     7
 10
58.259002000000002
 20
216.90543600000001
 30
0.0
 40
0.259949
 50
92.126972999999978
 51
177.83352400000001
  0
LINE
  5
515
  8
0
 62
     7
 10
57.999200000000002
 20
209.16499999999999
 30
0.0
 11
67.999399999999994
 21
209.16499999999999
 31
0.0
  0
LINE
  5
516
  8
0
  6
AIGENLINE001
 62
     7
 10
62.999499999999991
 20
218.58699999999999
 30
0.0
 11
62.999499999999991
 21
79.331100000000006
 31
0.0
  0
LINE
  5
517
  8
_________2
 62
     7
 10
145.76900000000001
 20
280.43000000000001
 30
0.0
 11
145.76900000000001
 21
259.43000000000001
 31
0.0
  0
LINE
  5
518
  8
_________2
 62
     7
 10
170.12
 20
280.43000000000001
 30
0.0
 11
170.12
 21
259.43000000000001
 31
0.0
  0
TEXT
  5
519
  8
_________2
 62
     7
 10
174.19370733333329
 20
261.58100000000002
 30
0.0
 40
3.3734599999999988
  1
ステンレス
 41
0.5
 72
     1
 11
179.029
 21
261.58100000000002
 31
0.0
  0
TEXT
  5
51A
  8
_________2
 62
     7
 10
176.10533466666669
 20
268.58100000000002
 30
0.0
 40
3.3734599999999988
  1
クロム
 41
0.5
 72
     1
 11
179.029
 21
268.58100000000002
 31
0.0
  0
TEXT
  5
51B
  8
_________2
 62
     7
 10
177.22982133333329
 20
275.58100000000002
 30
0.0
 40
3.3734599999999988
  1
仕上
 41
0.5
 72
     1
 11
179.029
 21
275.58100000000002
 31
0.0
  0
TEXT
  5
51C
  8
_________2
 62
     7
 10
149.7740325
 20
261.58100000000002
 30
0.0
 40
3.3734599999999988
  1
VLRB1ES-40
 41
0.5
 72
     1
 11
157.786
 21
261.58100000000002
 31
0.0
  0
TEXT
  5
51D
  8
_________2
 62
     7
 10
149.9145933333333
 20
268.58100000000002
 30
0.0
 40
3.3734599999999988
  1
VLRB1ES-16
 41
0.5
 72
     1
 11
157.786
 21
268.58100000000002
 31
0.0
  0
TEXT
  5
51E
  8
_________2
 62
     7
 10
155.9868213333333
 20
275.58100000000002
 30
0.0
 40
3.3734599999999988
  1
品番
 41
0.5
 72
     1
 11
157.786
 21
275.58100000000002
 31
0.0
  0
LINE
  5
51F
  8
_________2
 62
     7
 10
145.76900000000001
 20
259.43000000000001
 30
0.0
 11
188.49000000000001
 21
259.43000000000001
 31
0.0
  0
LINE
  5
520
  8
_________2
 62
     7
 10
145.76900000000001
 20
266.43000000000001
 30
0.0
 11
188.49000000000001
 21
266.43000000000001
 31
0.0
  0
LINE
  5
521
  8
_________2
 62
     7
 10
145.76900000000001
 20
273.43000000000001
 30
0.0
 11
188.49000000000001
 21
273.43000000000001
 31
0.0
  0
TEXT
  5
522
  8
_________2
 62
     7
 10
23.272600000000001
 20
60.274000000000001
 30
0.0
 40
4.2168199999999993
  1
〈注意〉センサーがリムを感知して誤作動するため、セルフリミングタイプの洗面器にはセットできません。
 41
0.5
  0
TEXT
  5
523
  8
_________2
 62
     7
 10
114.11799999999999
 20
45.7453
 30
0.0
 40
3.9357000000000002
  1
ボラ　自動水栓（単水栓）
 41
0.5
  0
LINE
  5
524
  8
_________2
 62
     7
 10
210.24000000000001
 20
148.93100000000001
 30
0.0
 11
188.49000000000001
 21
148.93100000000001
 31
0.0
  0
LINE
  5
525
  8
_________2
 62
     7
 10
105.239
 20
17.4285
 30
0.0
 11
105.239
 21
0.4482100000000001
 31
0.0
  0
LINE
  5
526
  8
_________2
 62
     7
 10
105.239
 20
297.44999999999999
 30
0.0
 11
105.239
 21
280.43000000000001
 31
0.0
  0
LINE
  5
527
  8
_________2
 62
     7
 10
21.988499999999998
 20
148.93100000000001
 30
0.0
 11
0.238058
 21
148.93100000000001
 31
0.0
  0
LINE
  5
528
  8
_________2
 62
     7
 10
81.679900000000004
 20
51.324300000000001
 30
0.0
 11
79.493700000000004
 21
51.324300000000001
 31
0.0
  0
LINE
  5
529
  8
_________2
 62
     7
 10
82.172600000000017
 20
51.324300000000001
 30
0.0
 11
81.920400000000001
 21
51.324300000000001
 31
0.0
  0
LINE
  5
52A
  8
_________2
 62
     7
 10
82.665199999999984
 20
51.324300000000001
 30
0.0
 11
85.590100000000007
 21
51.324300000000001
 31
0.0
  0
LINE
  5
52B
  8
_________2
 62
     7
 10
82.172600000000017
 20
51.324300000000001
 30
0.0
 11
82.424800000000005
 21
51.324300000000001
 31
0.0
  0
LINE
  5
52C
  8
_________2
 62
     7
 10
75.776399999999995
 20
51.324300000000001
 30
0.0
 11
73.589399999999998
 21
51.324300000000001
 31
0.0
  0
LINE
  5
52D
  8
_________2
 62
     7
 10
76.2684
 20
51.324300000000001
 30
0.0
 11
76.016900000000007
 21
51.324300000000001
 31
0.0
  0
LINE
  5
52E
  8
_________2
 62
     7
 10
76.2684
 20
51.817
 30
0.0
 11
76.2684
 21
54.003900000000002
 31
0.0
  0
LINE
  5
52F
  8
_________2
 62
     7
 10
76.2684
 20
51.324300000000001
 30
0.0
 11
76.2684
 21
51.576500000000003
 31
0.0
  0
LINE
  5
530
  8
_________2
 62
     7
 10
76.76100000000001
 20
51.324300000000001
 30
0.0
 11
78.947999999999993
 21
51.324300000000001
 31
0.0
  0
LINE
  5
531
  8
_________2
 62
     7
 10
76.2684
 20
51.324300000000001
 30
0.0
 11
76.520499999999998
 21
51.324300000000001
 31
0.0
  0
LINE
  5
532
  8
_________2
 62
     7
 10
76.2684
 20
50.832399999999993
 30
0.0
 11
76.2684
 21
48.645400000000002
 31
0.0
  0
LINE
  5
533
  8
_________2
 62
     7
 10
76.2684
 20
51.324300000000001
 30
0.0
 11
76.2684
 21
51.072800000000001
 31
0.0
  0
LINE
  5
534
  8
_________2
 62
     7
 10
79.979399999999984
 20
50.104799999999997
 30
0.0
 11
85.157399999999996
 21
49.240000000000002
 31
0.0
  0
LINE
  5
535
  8
_________2
 62
     7
 10
79.979399999999984
 20
52.543900000000001
 30
0.0
 11
85.157399999999996
 21
53.409300000000002
 31
0.0
  0
LINE
  5
536
  8
_________2
 62
     7
 10
85.157399999999996
 20
49.240000000000002
 30
0.0
 11
85.157399999999996
 21
53.409300000000002
 31
0.0
  0
LINE
  5
537
  8
_________2
 62
     7
 10
79.979399999999984
 20
50.104799999999997
 30
0.0
 11
79.979399999999984
 21
52.543900000000001
 31
0.0
  0
ARC
  5
538
  8
_________2
 62
     7
 10
76.222110000000001
 20
51.277366999999991
 30
0.0
 40
1.2673709999999989
 50
2.1232950000000002
 51
87.909056000000007
  0
ARC
  5
539
  8
_________2
 62
     7
 10
76.315273000000005
 20
51.277400999999998
 30
0.0
 40
1.267363
 50
92.121785999999986
 51
177.878185
  0
ARC
  5
53A
  8
_________2
 62
     7
 10
76.315273000000005
 20
51.371245999999992
 30
0.0
 40
1.267363
 50
182.121815
 51
267.87821400000001
  0
ARC
  5
53B
  8
_________2
 62
     7
 10
76.221461000000005
 20
51.371928999999987
 30
0.0
 40
1.2680439999999991
 50
272.11916400000001
 51
357.84848499999998
  0
ARC
  5
53C
  8
_________2
 62
     7
 10
76.268349999999984
 20
51.324323
 30
0.0
 40
2.0849849999999992
 50
0.00001
 51
89.999980000000008
  0
ARC
  5
53D
  8
_________2
 62
     7
 10
76.348388
 20
51.245001999999992
 30
0.0
 40
2.1657860000000002
 50
92.117855000000034
 51
177.90105299999999
  0
ARC
  5
53E
  8
_________2
 62
     7
 10
76.348354
 20
51.404327000000002
 30
0.0
 40
2.1657779999999991
 50
182.11700400000001
 51
267.88302499999998
  0
ARC
  5
53F
  8
_________2
 62
     7
 10
76.188378999999983
 20
51.405009999999997
 30
0.0
 40
2.1664590000000001
 50
272.11546800000002
 51
357.86560400000002
  0
TEXT
  5
540
  8
_________2
 62
     7
 10
109.544
 20
23.199100000000001
 30
0.0
 40
3.0923400000000001
  1
図番
 41
0.5
  0
LINE
  5
541
  8
_________2
 62
     7
 10
108.489
 20
27.4283
 30
0.0
 11
188.49000000000001
 21
27.4283
 31
0.0
  0
TEXT
  5
542
  8
_________2
 62
     7
 10
109.544
 20
33.198900000000002
 30
0.0
 40
3.0923400000000001
  1
品番
 41
0.5
  0
TEXT
  5
543
  8
_________2
 62
     7
 10
109.544
 20
53.337699999999998
 30
0.0
 40
3.0923400000000001
  1
名称
 41
0.5
  0
TEXT
  5
544
  8
_________2
 62
     7
 10
96.784058333333334
 20
48.341500000000011
 30
0.0
 40
3.6545800000000002
  1
mm
 41
0.5
 72
     1
 11
98.306799999999996
 21
48.341500000000011
 31
0.0
  0
TEXT
  5
545
  8
_________2
 62
     7
 10
90.582099999999997
 20
53.337699999999998
 30
0.0
 40
3.0923400000000001
  1
単位
 41
0.5
  0
TEXT
  5
546
  8
_________2
 62
     7
 10
90.582099999999997
 20
40.930399999999999
 30
0.0
 40
3.0923400000000001
  1
尺度
 41
0.5
  0
TEXT
  5
547
  8
_________2
 62
     7
 10
95.487658666666675
 20
34.737499999999997
 30
0.0
 40
3.6545800000000002
  1
1 ： 4
 41
0.5
 72
     1
 11
98.898600000000002
 21
34.737499999999997
 31
0.0
  0
TEXT
  5
548
  8
_________2
 62
     7
 10
141.60152500000001
 20
30.627400000000002
 30
0.0
 40
3.9357000000000002
  1
図中の表参照
 41
0.5
 72
     1
 11
148.489
 21
30.627400000000002
 31
0.0
  0
TEXT
  5
549
  8
_________2
 62
     7
 10
141.92949999999999
 20
20.626999999999999
 30
0.0
 40
3.9357000000000002
  1
VLRB1ES
 41
0.5
 72
     1
 11
148.489
 21
20.626999999999999
 31
0.0
  0
TEXT
  5
54A
  8
_________2
 62
     7
 10
32.070599999999999
 20
25.284700000000001
 30
0.0
 40
3.9357000000000002
  1
・電源：単3乾電池\U+00D72本
 41
0.5
  0
TEXT
  5
54B
  8
_________2
 62
     7
 10
32.070599999999999
 20
20.365100000000002
 30
0.0
 40
3.9357000000000002
  1
・（社）日本水道協会認証品
 41
0.5
  0
TEXT
  5
54C
  8
_________2
 62
     7
 10
44.364200333333329
 20
35.122599999999998
 30
0.0
 40
3.6545800000000002
  1
早川
 41
0.5
 72
     1
 11
46.252400000000002
 21
35.122599999999998
 31
0.0
  0
TEXT
  5
54D
  8
_________2
 62
     7
 10
25.729290666666671
 20
35.122599999999998
 30
0.0
 40
3.6545800000000002
  1
石原
 41
0.5
 72
     1
 11
27.6784
 21
35.122599999999998
 31
0.0
  0
TEXT
  5
54E
  8
_________2
 62
     7
 10
72.724699999999999
 20
34.737499999999997
 30
0.0
 40
3.6545800000000002
  1
16.02.01
 41
0.5
  0
TEXT
  5
54F
  8
_________2
 62
     7
 10
71.531999999999996
 20
40.930399999999999
 30
0.0
 40
3.0923400000000001
  1
日付
 41
0.5
  0
TEXT
  5
550
  8
_________2
 62
     7
 10
34.578299999999999
 20
40.930399999999999
 30
0.0
 40
3.0923400000000001
  1
検図
 41
0.5
  0
TEXT
  5
551
  8
_________2
 62
     7
 10
22.960000000000001
 20
26.731000000000002
 30
0.0
 40
3.0923400000000001
  1
備考
 41
0.5
  0
TEXT
  5
552
  8
_________2
 62
     7
 10
22.960000000000001
 20
40.930399999999999
 30
0.0
 40
3.0923400000000001
  1
製図
 41
0.5
  0
TEXT
  5
553
  8
_________2
 62
     7
 10
28.727365333333339
 20
49.456400000000002
 30
0.0
 40
4.4979399999999989
  1
セラトレーディング株式会社
 41
0.5
 72
     1
 11
46.119399999999992
 21
49.456400000000002
 31
0.0
  0
LINE
  5
554
  8
_________2
 62
     7
 10
188.49000000000001
 20
17.4285
 30
0.0
 11
21.988499999999998
 21
17.4285
 31
0.0
  0
LINE
  5
555
  8
_________2
 62
     7
 10
21.988499999999998
 20
17.4285
 30
0.0
 11
21.988499999999998
 21
280.43000000000001
 31
0.0
  0
LINE
  5
556
  8
_________2
 62
     7
 10
21.988499999999998
 20
280.43000000000001
 30
0.0
 11
188.49000000000001
 21
280.43000000000001
 31
0.0
  0
LINE
  5
557
  8
_________2
 62
     7
 10
188.49000000000001
 20
280.43000000000001
 30
0.0
 11
188.49000000000001
 21
17.4285
 31
0.0
  0
LINE
  5
558
  8
_________2
 62
     7
 10
70.488799999999998
 20
30.9285
 30
0.0
 11
70.488799999999998
 21
57.428400000000011
 31
0.0
  0
LINE
  5
559
  8
_________2
 62
     7
 10
89.488600000000005
 20
30.9285
 30
0.0
 11
89.488600000000005
 21
57.428400000000011
 31
0.0
  0
LINE
  5
55A
  8
_________2
 62
     7
 10
108.489
 20
17.4285
 30
0.0
 11
108.489
 21
57.428400000000011
 31
0.0
  0
LINE
  5
55B
  8
_________2
 62
     7
 10
33.488300000000002
 20
30.9285
 30
0.0
 11
33.488300000000002
 21
44.928800000000003
 31
0.0
  0
LINE
  5
55C
  8
_________2
 62
     7
 10
21.988499999999998
 20
30.9285
 30
0.0
 11
108.489
 21
30.9285
 31
0.0
  0
LINE
  5
55D
  8
_________2
 62
     7
 10
21.988499999999998
 20
44.928800000000003
 30
0.0
 11
108.489
 21
44.928800000000003
 31
0.0
  0
LINE
  5
55E
  8
_________2
 62
     7
 10
108.489
 20
37.428100000000001
 30
0.0
 11
188.49000000000001
 21
37.428100000000001
 31
0.0
  0
LINE
  5
55F
  8
_________2
 62
     7
 10
21.988499999999998
 20
57.428400000000011
 30
0.0
 11
188.49000000000001
 21
57.428400000000011
 31
0.0
  0
ENDSEC
  0
EOF
