  0
SECTION
  2
HEADER
  9
$ACADVER
  1
AC1009
  9
$INSBASE
 10
0.0
 20
0.0
 30
0.0
  9
$EXTMIN
 10
-4.7008599999999987
 20
-21.071400000000001
 30
0.0
  9
$EXTMAX
 10
205.30000000000001
 20
275.93099999999998
 30
0.0
  9
$LIMMIN
 10
0.0
 20
0.0
  9
$LIMMAX
 10
12.0
 20
9.0
  9
$ORTHOMODE
 70
     0
  9
$REGENMODE
 70
     1
  9
$FILLMODE
 70
     1
  9
$QTEXTMODE
 70
     0
  9
$MIRRTEXT
 70
     1
  9
$DRAGMODE
 70
     2
  9
$LTSCALE
 40
1.0
  9
$OSMODE
 70
    37
  9
$ATTMODE
 70
     1
  9
$TEXTSIZE
 40
0.0
  9
$TRACEWID
 40
0.05
  9
$TEXTSTYLE
  7
STANDARD
  9
$CLAYER
  8
0
  9
$CELTYPE
  6
CONTINUOUS
  9
$CECOLOR
 62
   256
  9
$DIMSCALE
 40
1.0
  9
$DIMASZ
 40
0.18
  9
$DIMEXO
 40
0.0625
  9
$DIMDLI
 40
0.38
  9
$DIMRND
 40
0.0
  9
$DIMDLE
 40
0.0
  9
$DIMEXE
 40
0.18
  9
$DIMTP
 40
0.0
  9
$DIMTM
 40
0.0
  9
$DIMTXT
 40
0.18
  9
$DIMCEN
 40
0.09
  9
$DIMTSZ
 40
0.0
  9
$DIMTOL
 70
     0
  9
$DIMLIM
 70
     0
  9
$DIMTIH
 70
     1
  9
$DIMTOH
 70
     1
  9
$DIMSE1
 70
     0
  9
$DIMSE2
 70
     0
  9
$DIMTAD
 70
     0
  9
$DIMZIN
 70
     0
  9
$DIMBLK
  1

  9
$DIMASO
 70
     1
  9
$DIMSHO
 70
     1
  9
$DIMPOST
  1

  9
$DIMAPOST
  1

  9
$DIMALT
 70
     0
  9
$DIMALTD
 70
     2
  9
$DIMALTF
 40
25.399999999999999
  9
$DIMLFAC
 40
1.0
  9
$DIMTOFL
 70
     0
  9
$DIMTVP
 40
0.0
  9
$DIMTIX
 70
     0
  9
$DIMSOXD
 70
     0
  9
$DIMSAH
 70
     0
  9
$DIMBLK1
  1

  9
$DIMBLK2
  1

  9
$DIMSTYLE
  2
STANDARD
  9
$DIMCLRD
 70
     0
  9
$DIMCLRE
 70
     0
  9
$DIMCLRT
 70
     0
  9
$DIMTFAC
 40
1.0
  9
$DIMGAP
 40
0.09
  9
$LUNITS
 70
     2
  9
$LUPREC
 70
     4
  9
$SKETCHINC
 40
0.1
  9
$FILLETRAD
 40
0.0
  9
$AUNITS
 70
     0
  9
$AUPREC
 70
     0
  9
$MENU
  1
.
  9
$ELEVATION
 40
0.0
  9
$PELEVATION
 40
0.0
  9
$THICKNESS
 40
0.0
  9
$LIMCHECK
 70
     0
  9
$BLIPMODE
 70
     0
  9
$CHAMFERA
 40
0.0
  9
$CHAMFERB
 40
0.0
  9
$SKPOLY
 70
     0
  9
$TDCREATE
 40
2444972.375
  9
$TDUPDATE
 40
2457479.2752337391
  9
$TDINDWG
 40
0.0000354977
  9
$TDUSRTIMER
 40
0.0000354977
  9
$USRTIMER
 70
     1
  9
$ANGBASE
 50
0.0
  9
$ANGDIR
 70
     0
  9
$PDMODE
 70
     0
  9
$PDSIZE
 40
0.0
  9
$PLINEWID
 40
0.0
  9
$COORDS
 70
     1
  9
$SPLFRAME
 70
     0
  9
$SPLINETYPE
 70
     6
  9
$SPLINESEGS
 70
     8
  9
$ATTDIA
 70
     1
  9
$ATTREQ
 70
     1
  9
$HANDLING
 70
     1
  9
$HANDSEED
  5
1F0
  9
$SURFTAB1
 70
     6
  9
$SURFTAB2
 70
     6
  9
$SURFTYPE
 70
     6
  9
$SURFU
 70
     6
  9
$SURFV
 70
     6
  9
$UCSNAME
  2

  9
$UCSORG
 10
0.0
 20
0.0
 30
0.0
  9
$UCSXDIR
 10
1.0
 20
0.0
 30
0.0
  9
$UCSYDIR
 10
0.0
 20
1.0
 30
0.0
  9
$PUCSNAME
  2

  9
$PUCSORG
 10
0.0
 20
0.0
 30
0.0
  9
$PUCSXDIR
 10
1.0
 20
0.0
 30
0.0
  9
$PUCSYDIR
 10
0.0
 20
1.0
 30
0.0
  9
$USERI1
 70
     0
  9
$USERI2
 70
     0
  9
$USERI3
 70
     0
  9
$USERI4
 70
     0
  9
$USERI5
 70
     0
  9
$USERR1
 40
0.0
  9
$USERR2
 40
0.0
  9
$USERR3
 40
0.0
  9
$USERR4
 40
0.0
  9
$USERR5
 40
0.0
  9
$WORLDVIEW
 70
     1
  9
$SHADEDGE
 70
     3
  9
$SHADEDIF
 70
    70
  9
$TILEMODE
 70
     1
  9
$MAXACTVP
 70
    48
  9
$PLIMCHECK
 70
     0
  9
$PEXTMIN
 10
1.0000000000000000E+020
 20
1.0000000000000000E+020
 30
1.0000000000000000E+020
  9
$PEXTMAX
 10
-1.0000000000000000E+020
 20
-1.0000000000000000E+020
 30
-1.0000000000000000E+020
  9
$PLIMMIN
 10
0.0
 20
0.0
  9
$PLIMMAX
 10
12.0
 20
9.0
  9
$UNITMODE
 70
     0
  9
$VISRETAIN
 70
     1
  9
$PLINEGEN
 70
     0
  9
$PSLTSCALE
 70
     1
  0
ENDSEC
  0
SECTION
  2
TABLES
  0
TABLE
  2
VPORT
 70
     1
  0
VPORT
  2
*ACTIVE
 70
     0
 10
0.0
 20
0.0
 11
1.0
 21
1.0
 12
156.28992996312721
 22
127.4298
 13
0.0
 23
0.0
 14
1.0
 24
1.0
 15
0.0
 25
0.0
 16
0.0
 26
0.0
 36
1.0
 17
0.0
 27
0.0
 37
0.0
 40
282.89992383679322
 41
2.0381526104417671
 42
50.0
 43
0.0
 44
0.0
 50
0.0
 51
0.0
 71
     0
 72
   100
 73
     1
 74
     1
 75
     0
 76
     0
 77
     0
 78
     0
  0
ENDTAB
  0
TABLE
  2
LTYPE
 70
     4
  0
LTYPE
  2
CONTINUOUS
 70
     0
  3
Solid line
 72
    65
 73
     0
 40
0.0
  0
LTYPE
  2
AIGENLINE001
 70
     0
  3
generate AI->DXF Converter
 72
    65
 73
     4
 40
5.8561449999999988
 49
3.5278
 49
-0.776115
 49
0.776115
 49
-0.776115
  0
LTYPE
  2
AIGENLINE002
 70
     0
  3
generate AI->DXF Converter
 72
    65
 73
     6
 40
7.4083750000000004
 49
3.5278
 49
-0.776115
 49
0.776115
 49
-0.776115
 49
0.776115
 49
-0.776115
  0
LTYPE
  2
AIGENLINE003
 70
     0
  3
generate AI->DXF Converter
 72
    65
 73
     4
 40
10.300112
 49
8.0000600000000013
 49
-0.700021
 49
0.9000100000000001
 49
-0.700021
  0
ENDTAB
  0
TABLE
  2
LAYER
 70
     2
  0
LAYER
  2
0
 70
     0
 62
     7
  6
CONTINUOUS
  0
LAYER
  2
_________2
 70
     0
 62
     7
  6
CONTINUOUS
  0
ENDTAB
  0
TABLE
  2
STYLE
 70
     1
  0
STYLE
  2
STANDARD
 70
     0
 40
0.0
 41
0.0
 50
0.0
 71
     0
 42
0.0
  3
TXT
  4
EXTFONT.SHX
  0
ENDTAB
  0
TABLE
  2
VIEW
 70
     0
  0
ENDTAB
  0
TABLE
  2
UCS
 70
     0
  0
ENDTAB
  0
TABLE
  2
APPID
 70
     3
  0
APPID
  2
ACAD
 70
     0
  0
APPID
  2
ACAD_NAV_VCDISPLAY
 70
     0
  0
APPID
  2
ACAD_MLEADERVER
 70
     0
  0
ENDTAB
  0
TABLE
  2
DIMSTYLE
 70
     1
  0
DIMSTYLE
  2
STANDARD
 70
     0
  3

  4

  5

  6

  7

 40
1.0
 41
0.18
 42
0.0625
 43
0.38
 44
0.18
 45
0.0
 46
0.0
 47
0.0
 48
0.0
140
0.18
141
0.09
142
0.0
143
25.399999999999999
144
1.0
145
0.0
146
1.0
147
0.09
 71
     0
 72
     0
 73
     1
 74
     1
 75
     0
 76
     0
 77
     0
 78
     0
170
     0
171
     2
172
     0
173
     0
174
     0
175
     0
176
     0
177
     0
178
     0
  0
ENDTAB
  0
ENDSEC
  0
SECTION
  2
BLOCKS
  0
BLOCK
  8
0
  2
$MODEL_SPACE
 70
     0
 10
0.0
 20
0.0
 30
0.0
  3
$MODEL_SPACE
  1

  0
ENDBLK
  5
1A
  8
0
  0
BLOCK
 67
     1
  8
0
  2
$PAPER_SPACE
 70
     0
 10
0.0
 20
0.0
 30
0.0
  3
$PAPER_SPACE
  1

  0
ENDBLK
  5
17
 67
     1
  8
0
  0
ENDSEC
  0
SECTION
  2
ENTITIES
  0
TEXT
  5
24
  8
0
 62
     7
 10
68.711354
 20
130.29900000000001
 30
0.0
 40
3.0923400000000001
  1
開
 41
0.5
 72
     1
 11
69.432900000000004
 21
130.29900000000001
 31
0.0
  0
TEXT
  5
25
  8
0
 62
     7
 10
43.850586
 20
108.004
 30
0.0
 40
3.0923400000000001
  1
閉
 41
0.5
 72
     2
 11
45.190600000000003
 21
108.004
 31
0.0
  0
LINE
  5
26
  8
0
 62
     7
 10
69.905900000000003
 20
125.771
 30
0.0
 11
69.510900000000007
 21
127.245
 31
0.0
  0
LINE
  5
27
  8
0
 62
     7
 10
69.510900000000007
 20
127.245
 30
0.0
 11
69.115899999999996
 21
125.771
 31
0.0
  0
LINE
  5
28
  8
0
 62
     7
 10
69.115899999999996
 20
125.771
 30
0.0
 11
69.905900000000003
 21
125.771
 31
0.0
  0
LINE
  5
29
  8
0
 62
     7
 10
52.79440000000001
 20
109.449
 30
0.0
 11
51.32
 21
109.054
 31
0.0
  0
LINE
  5
2A
  8
0
 62
     7
 10
51.32
 20
109.054
 30
0.0
 11
52.79440000000001
 21
108.65900000000001
 31
0.0
  0
LINE
  5
2B
  8
0
 62
     7
 10
52.79440000000001
 20
108.65900000000001
 30
0.0
 11
52.79440000000001
 21
109.449
 31
0.0
  0
ARC
  5
2C
  8
0
 62
     7
 10
51.320014
 20
127.245065
 30
0.0
 40
18.190911
 50
270.00002000000001
 51
359.99999000000003
  0
TEXT
  5
2D
  8
0
 62
     7
 10
85.470799999999997
 20
96.577330000000003
 30
0.0
 40
3.0923400000000001
  1
114
 50
90.0
 41
0.5
 72
     1
 11
85.470799999999997
 21
98.123500000000021
 31
0.0
  0
TEXT
  5
2E
  8
0
 62
     7
 10
97.379999999999995
 20
59.230899999999998
 30
0.0
 40
3.0923400000000001
  1
55%%d
 41
0.5
  0
TEXT
  5
2F
  8
0
 62
     7
 10
130.52452500000001
 20
98.882099999999994
 30
0.0
 40
3.0923400000000001
  1
98
 41
0.5
 72
     1
 11
131.81299999999999
 21
98.882099999999994
 31
0.0
  0
TEXT
  5
30
  8
0
 62
     7
 10
140.97200000000001
 20
120.48644
 30
0.0
 40
3.0923400000000001
  1
%%c38
 50
90.0
 41
0.5
 72
     1
 11
140.97200000000001
 21
122.548
 31
0.0
  0
TEXT
  5
31
  8
0
 62
     7
 10
157.81721999999999
 20
99.095000000000013
 30
0.0
 40
3.0923400000000001
  1
14
 41
0.5
 72
     1
 11
158.84800000000001
 21
99.095000000000013
 31
0.0
  0
TEXT
  5
32
  8
0
 62
     7
 10
169.67699999999999
 20
124.064965
 30
0.0
 40
3.0923400000000001
  1
PJ1/2
 50
90.0
 41
0.5
 72
     1
 11
169.67699999999999
 21
127.41500000000001
 31
0.0
  0
TEXT
  5
33
  8
0
 62
     7
 10
122.837135
 20
145.19300000000001
 30
0.0
 40
3.0923400000000001
  1
123
 41
0.5
 72
     1
 11
124.64100000000001
 21
145.19300000000001
 31
0.0
  0
ARC
  5
34
  8
0
 62
     7
 10
106.739158
 20
74.362075000000004
 30
0.0
 40
11.746528
 50
214.86673400000001
 51
269.47510999999997
  0
ARC
  5
35
  8
0
 62
     7
 10
51.320101999999991
 20
127.245149
 30
0.0
 40
9.4999990000000007
 50
269.99950000000001
 51
359.99947100000003
  0
ARC
  5
36
  8
0
 62
     7
 10
51.319929000000002
 20
127.24514600000001
 30
0.0
 40
9.4999950000000002
 50
180.000529
 51
270.000539
  0
ARC
  5
37
  8
0
 62
     7
 10
51.320019000000002
 20
127.24506
 30
0.0
 40
9.5000850000000003
 50
90.0
 51
179.99996999999999
  0
ARC
  5
38
  8
0
 62
     7
 10
51.320015000000012
 20
127.24506
 30
0.0
 40
9.5000850000000003
 50
0.00001
 51
89.999980000000008
  0
LINE
  5
39
  8
0
 62
     7
 10
111.33199999999999
 20
83.153800000000004
 30
0.0
 11
103.95399999999999
 21
77.987799999999993
 31
0.0
  0
LINE
  5
3A
  8
0
 62
     7
 10
117.245
 20
75.878
 30
0.0
 11
109.309
 21
70.321700000000007
 31
0.0
  0
LINE
  5
3B
  8
0
 62
     7
 10
118.292
 20
117.836
 30
0.0
 11
118.292
 21
96.523899999999998
 31
0.0
  0
ARC
  5
3C
  8
0
 62
     7
 10
101.687521
 20
96.671094999999994
 30
0.0
 40
16.605367000000001
 50
305.50599900000009
 51
359.492165
  0
LINE
  5
3D
  8
0
  6
AIGENLINE001
 62
     7
 10
122.77800000000001
 20
125.75
 30
0.0
 11
122.77800000000001
 21
96.347899999999996
 31
0.0
  0
ARC
  5
3E
  8
0
  6
AIGENLINE001
 62
     7
 10
101.820885
 20
96.534343000000007
 30
0.0
 40
20.958411999999999
 50
305.50414499999999
 51
359.49022200000002
  0
LINE
  5
3F
  8
0
 62
     7
 10
127.627
 20
117.836
 30
0.0
 11
127.654
 21
95.904499999999999
 31
0.0
  0
ARC
  5
40
  8
0
 62
     7
 10
102.819344
 20
96.095993000000007
 30
0.0
 40
24.837022000000001
 50
305.507498
 51
359.48827299999999
  0
LINE
  5
41
  8
0
 62
     7
 10
104.238
 20
72.6434
 30
0.0
 11
96.421300000000016
 21
67.1708
 31
0.0
  0
LINE
  5
42
  8
0
  6
AIGENLINE001
 62
     7
 10
51.346899999999991
 20
230.81999999999999
 30
0.0
 11
51.346899999999991
 21
157.62799999999999
 31
0.0
  0
LINE
  5
43
  8
0
 62
     7
 10
59.288600000000002
 20
178.31999999999999
 30
0.0
 11
59.288600000000002
 21
177.476
 31
0.0
  0
LINE
  5
44
  8
0
 62
     7
 10
43.313399999999987
 20
178.31999999999999
 30
0.0
 11
43.313399999999987
 21
177.476
 31
0.0
  0
LINE
  5
45
  8
0
 62
     7
 10
42.63709999999999
 20
178.31999999999999
 30
0.0
 11
60.034399999999998
 21
178.31999999999999
 31
0.0
  0
LINE
  5
46
  8
0
 62
     7
 10
60.832999999999998
 20
221.34399999999999
 30
0.0
 11
60.832999999999998
 21
179.119
 31
0.0
  0
LINE
  5
47
  8
0
 62
     7
 10
42.63709999999999
 20
177.476
 30
0.0
 11
60.034399999999998
 21
177.476
 31
0.0
  0
LINE
  5
48
  8
0
 62
     7
 10
42.63709999999999
 20
160.642
 30
0.0
 11
60.034399999999998
 21
160.642
 31
0.0
  0
LINE
  5
49
  8
0
 62
     7
 10
60.832999999999998
 20
176.67699999999999
 30
0.0
 11
60.832999999999998
 21
161.441
 31
0.0
  0
ARC
  5
4A
  8
0
 62
     7
 10
60.003889000000001
 20
161.47132500000001
 30
0.0
 40
0.829687
 50
272.11033700000002
 51
357.90203100000002
  0
ARC
  5
4B
  8
0
 62
     7
 10
60.003722000000003
 20
176.64626899999999
 30
0.0
 40
0.82986
 50
2.1090759999999991
 51
87.878556999999986
  0
ARC
  5
4C
  8
0
 62
     7
 10
60.003937999999998
 20
179.14957699999999
 30
0.0
 40
0.8296629999999998
 50
272.107033
 51
357.85588899999999
  0
LINE
  5
4D
  8
0
 62
     7
 10
60.832999999999998
 20
221.34399999999999
 30
0.0
 11
60.034399999999998
 21
222.142
 31
0.0
  0
LINE
  5
4E
  8
0
 62
     7
 10
42.63709999999999
 20
222.142
 30
0.0
 11
60.034399999999998
 21
222.142
 31
0.0
  0
LINE
  5
4F
  8
0
 62
     7
 10
46.056399999999996
 20
228.33199999999999
 30
0.0
 11
46.056399999999996
 21
222.142
 31
0.0
  0
LINE
  5
50
  8
0
 62
     7
 10
56.615200000000002
 20
228.33199999999999
 30
0.0
 11
56.615200000000002
 21
222.142
 31
0.0
  0
LINE
  5
51
  8
0
 62
     7
 10
55.869599999999998
 20
229.142
 30
0.0
 11
55.869599999999998
 21
222.142
 31
0.0
  0
LINE
  5
52
  8
0
 62
     7
 10
46.802300000000002
 20
229.142
 30
0.0
 11
46.802300000000002
 21
222.142
 31
0.0
  0
LINE
  5
53
  8
0
 62
     7
 10
46.802300000000002
 20
229.142
 30
0.0
 11
55.869599999999998
 21
229.142
 31
0.0
  0
LINE
  5
54
  8
0
 62
     7
 10
46.802300000000002
 20
229.142
 30
0.0
 11
46.056399999999996
 21
228.33199999999999
 31
0.0
  0
LINE
  5
55
  8
0
 62
     7
 10
55.869599999999998
 20
229.142
 30
0.0
 11
56.615200000000002
 21
228.33199999999999
 31
0.0
  0
LINE
  5
56
  8
0
 62
     7
 10
46.056399999999996
 20
228.33199999999999
 30
0.0
 11
56.615200000000002
 21
228.33199999999999
 31
0.0
  0
LINE
  5
57
  8
0
 62
     7
 10
41.839100000000002
 20
221.34399999999999
 30
0.0
 11
41.839100000000002
 21
179.119
 31
0.0
  0
LINE
  5
58
  8
0
 62
     7
 10
41.839100000000002
 20
176.67699999999999
 30
0.0
 11
41.839100000000002
 21
161.441
 31
0.0
  0
ARC
  5
59
  8
0
 62
     7
 10
42.668334999999992
 20
161.47145499999999
 30
0.0
 40
0.829842
 50
182.10660100000001
 51
267.84398199999998
  0
ARC
  5
5A
  8
0
 62
     7
 10
42.667701000000001
 20
176.64694
 30
0.0
 40
0.829185
 50
92.11389699999998
 51
177.935519
  0
ARC
  5
5B
  8
0
 62
     7
 10
42.667647999999993
 20
179.149069
 30
0.0
 40
0.829156
 50
182.11028899999999
 51
267.88974100000001
  0
ARC
  5
5C
  8
0
 62
     7
 10
42.667667000000002
 20
221.31376700000001
 30
0.0
 40
0.8291629999999997
 50
92.111580999999987
 51
177.913118
  0
LINE
  5
5D
  8
0
  6
AIGENLINE002
 62
     7
 10
73.695700000000002
 20
128.86699999999999
 30
0.0
 11
73.695700000000002
 21
125.7
 31
0.0
  0
LINE
  5
5E
  8
0
  6
AIGENLINE002
 62
     7
 10
73.695700000000002
 20
125.70099999999999
 30
0.0
 11
60.6935
 21
125.70099999999999
 31
0.0
  0
LINE
  5
5F
  8
0
  6
AIGENLINE002
 62
     7
 10
73.695700000000002
 20
128.86699999999999
 30
0.0
 11
60.680700000000002
 21
128.86699999999999
 31
0.0
  0
LINE
  5
60
  8
0
 62
     7
 10
52.941499999999998
 20
104.869
 30
0.0
 11
49.775199999999998
 21
104.869
 31
0.0
  0
LINE
  5
61
  8
0
  6
AIGENLINE001
 62
     7
 10
113.99299999999999
 20
79.472700000000003
 30
0.0
 11
104.90300000000001
 21
73.109200000000001
 31
0.0
  0
LINE
  5
62
  8
0
 62
     7
 10
103.95399999999999
 20
77.987799999999993
 30
0.0
 11
106.63200000000001
 21
74.155100000000004
 31
0.0
  0
LINE
  5
63
  8
0
 62
     7
 10
106.63200000000001
 20
74.155100000000004
 30
0.0
 11
109.309
 21
70.322100000000006
 31
0.0
  0
LINE
  5
64
  8
0
 62
     7
 10
116.85599999999999
 20
75.606200000000001
 30
0.0
 11
111.492
 21
83.265399999999985
 31
0.0
  0
LINE
  5
65
  8
0
 62
     7
 10
106.63200000000001
 20
61.610799999999998
 30
0.0
 11
106.63200000000001
 21
98.920000000000016
 31
0.0
  0
LINE
  5
66
  8
0
 62
     7
 10
111.84999999999999
 20
119.381
 30
0.0
 11
111.004
 21
119.381
 31
0.0
  0
LINE
  5
67
  8
0
 62
     7
 10
111.84999999999999
 20
135.35599999999999
 30
0.0
 11
111.004
 21
135.35599999999999
 31
0.0
  0
LINE
  5
68
  8
0
 62
     7
 10
46.54679999999999
 20
119.03100000000001
 30
0.0
 11
46.54679999999999
 21
74.136899999999983
 31
0.0
  0
LINE
  5
69
  8
0
 62
     7
 10
55.909300000000002
 20
118.92700000000001
 30
0.0
 11
55.909300000000002
 21
74.136899999999983
 31
0.0
  0
LINE
  5
6A
  8
0
 62
     7
 10
49.775399999999998
 20
104.869
 30
0.0
 11
49.775399999999998
 21
117.872
 31
0.0
  0
LINE
  5
6B
  8
0
 62
     7
 10
52.941499999999998
 20
104.869
 30
0.0
 11
52.941499999999998
 21
117.884
 31
0.0
  0
LINE
  5
6C
  8
0
 62
     7
 10
111.84999999999999
 20
136.03200000000001
 30
0.0
 11
111.84999999999999
 21
118.63500000000001
 31
0.0
  0
LINE
  5
6D
  8
0
 62
     7
 10
154.87299999999999
 20
117.836
 30
0.0
 11
127.627
 21
117.836
 31
0.0
  0
LINE
  5
6E
  8
0
 62
     7
 10
118.29300000000001
 20
117.836
 30
0.0
 11
112.64700000000001
 21
117.836
 31
0.0
  0
LINE
  5
6F
  8
0
 62
     7
 10
111.004
 20
136.03200000000001
 30
0.0
 11
111.004
 21
118.63500000000001
 31
0.0
  0
LINE
  5
70
  8
0
 62
     7
 10
94.171099999999996
 20
136.03200000000001
 30
0.0
 11
94.171099999999996
 21
118.63500000000001
 31
0.0
  0
LINE
  5
71
  8
0
 62
     7
 10
95.325000000000003
 20
104.869
 30
0.0
 11
95.325000000000003
 21
117.836
 31
0.0
  0
LINE
  5
72
  8
0
 62
     7
 10
95.325000000000003
 20
104.869
 30
0.0
 11
98.512600000000006
 21
104.869
 31
0.0
  0
LINE
  5
73
  8
0
 62
     7
 10
98.491799999999998
 20
104.869
 30
0.0
 11
98.491799999999998
 21
117.836
 31
0.0
  0
LINE
  5
74
  8
0
 62
     7
 10
110.206
 20
117.836
 30
0.0
 11
98.491799999999998
 21
117.836
 31
0.0
  0
LINE
  5
75
  8
0
  6
AIGENLINE003
 62
     7
 10
95.325000000000003
 20
117.836
 30
0.0
 11
98.491799999999998
 21
117.836
 31
0.0
  0
ARC
  5
76
  8
0
 62
     7
 10
126.999825
 20
117.311651
 30
0.0
 40
0.8180960000000001
 50
36.824967999999998
 51
50.303335000000011
  0
ARC
  5
77
  8
0
 62
     7
 10
126.610603
 20
116.859008
 30
0.0
 40
1.415019
 50
49.883505
 51
60.811303000000009
  0
ARC
  5
78
  8
0
 62
     7
 10
126.025029
 20
115.843217
 30
0.0
 40
2.5874489999999999
 50
60.460813000000002
 51
70.027827000000002
  0
ARC
  5
79
  8
0
 62
     7
 10
125.24911299999999
 20
113.845969
 30
0.0
 40
4.7298390000000001
 50
69.457700000000003
 51
75.658752000000007
  0
ARC
  5
7A
  8
0
 62
     7
 10
124.37822300000001
 20
110.590211
 30
0.0
 40
8.0999410000000012
 50
75.394824
 51
81.746999999999986
  0
ARC
  5
7B
  8
0
 62
     7
 10
123.507267
 20
105.19375100000001
 30
0.0
 40
13.565816999999999
 50
81.378259999999997
 51
86.811841000000015
  0
ARC
  5
7C
  8
0
 62
     7
 10
123.182525
 20
100.720917
 30
0.0
 40
18.049947
 50
86.572233999999995
 51
97.40198700000002
  0
ARC
  5
7D
  8
0
 62
     7
 10
122.45077000000001
 20
106.941513
 30
0.0
 40
11.78716
 50
97.770172000000017
 51
103.076905
  0
ARC
  5
7E
  8
0
 62
     7
 10
121.40115
 20
111.602237
 30
0.0
 40
7.0098899999999986
 50
103.339519
 51
110.546291
  0
ARC
  5
7F
  8
0
 62
     7
 10
120.19671099999999
 20
114.893075
 30
0.0
 40
3.505774999999999
 50
110.98989899999999
 51
122.9044189999999
  0
LINE
  5
80
  8
0
 62
     7
 10
95.325000000000003
 20
117.836
 30
0.0
 11
94.969800000000006
 21
117.836
 31
0.0
  0
ARC
  5
81
  8
0
 62
     7
 10
95.000202999999999
 20
118.665582
 30
0.0
 40
0.829691
 50
182.11066099999999
 51
267.90172699999999
  0
ARC
  5
82
  8
0
 62
     7
 10
110.17531099999999
 20
118.66557
 30
0.0
 40
0.829686
 50
272.10984200000001
 51
357.89016800000002
  0
ARC
  5
83
  8
0
 62
     7
 10
112.678623
 20
118.665521
 30
0.0
 40
0.829662
 50
182.10653099999999
 51
267.844042
  0
ARC
  5
84
  8
0
 62
     7
 10
52.607359000000002
 20
79.410848999999985
 30
0.0
 40
3.2290499999999991
 50
0.17361
 51
37.462237999999999
  0
ARC
  5
85
  8
0
 62
     7
 10
51.92894299999999
 20
78.963267999999999
 30
0.0
 40
4.0401879999999988
 50
36.648628000000002
 51
57.892293999999993
  0
ARC
  5
86
  8
0
 62
     7
 10
51.369622999999997
 20
78.163741999999999
 30
0.0
 40
5.0149499999999989
 50
57.334584
 51
84.162976
  0
ARC
  5
87
  8
0
 62
     7
 10
51.238857000000003
 20
77.554994999999991
 30
0.0
 40
5.6342530000000002
 50
83.469633999999985
 51
90.025987999999984
  0
ARC
  5
88
  8
0
 62
     7
 10
51.24069699999999
 20
77.695677000000003
 30
0.0
 40
5.4935710000000002
 50
90.045845999999983
 51
116.88263499999999
  0
ARC
  5
89
  8
0
 62
     7
 10
50.838270999999999
 20
78.630538000000001
 30
0.0
 40
4.4782279999999988
 50
117.698593
 51
140.94757799999999
  0
ARC
  5
8A
  8
0
 62
     7
 10
50.098554
 20
79.309935999999993
 30
0.0
 40
3.4762889999999991
 50
141.96218500000001
 51
170.216331
  0
ARC
  5
8B
  8
0
 62
     7
 10
49.763255999999998
 20
79.421272000000002
 30
0.0
 40
3.1273919999999991
 50
171.182605
 51
180.011731
  0
ARC
  5
8C
  8
0
 62
     7
 10
52.291783000000002
 20
74.129366000000005
 30
0.0
 40
2.5016119999999988
 50
0.171552
 51
37.471071000000002
  0
ARC
  5
8D
  8
0
 62
     7
 10
51.784669999999998
 20
73.797522999999984
 30
0.0
 40
3.1062959999999991
 50
36.638497000000001
 51
55.841754999999999
  0
ARC
  5
8E
  8
0
 62
     7
 10
51.376932000000011
 20
73.249352000000002
 30
0.0
 40
3.7889550000000001
 50
55.393956000000003
 51
78.045244999999994
  0
ARC
  5
8F
  8
0
 62
     7
 10
51.236040000000003
 20
72.770900999999995
 30
0.0
 40
4.2863879999999988
 50
77.527534000000003
 51
90.104721000000012
  0
ARC
  5
90
  8
0
 62
     7
 10
51.23126899999999
 20
72.795672999999994
 30
0.0
 40
4.2616100000000001
 50
90.04118800000002
 51
116.303348
  0
ARC
  5
91
  8
0
 62
     7
 10
50.931004999999999
 20
73.505135999999993
 30
0.0
 40
3.4928430000000001
 50
117.0449
 51
139.582382
  0
ARC
  5
92
  8
0
 62
     7
 10
50.380132000000003
 20
74.030830000000009
 30
0.0
 40
2.7329460000000001
 50
140.48539199999999
 51
167.59738300000001
  0
ARC
  5
93
  8
0
 62
     7
 10
50.088501000000001
 20
74.137085999999996
 30
0.0
 40
2.4256479999999989
 50
168.569186
 51
180.00543799999991
  0
ARC
  5
94
  8
0
 62
     7
 10
50.164870000000001
 20
74.14434399999999
 30
0.0
 40
2.5020279999999988
 50
180.17148
 51
217.468065
  0
ARC
  5
95
  8
0
 62
     7
 10
50.671641999999999
 20
74.476313000000005
 30
0.0
 40
3.1065160000000001
 50
216.64179700000011
 51
235.84356299999999
  0
ARC
  5
96
  8
0
 62
     7
 10
51.078890999999999
 20
75.023837999999998
 30
0.0
 40
3.7883640000000001
 50
235.396018
 51
258.05128000000002
  0
ARC
  5
97
  8
0
 62
     7
 10
51.220306000000001
 20
75.504024999999999
 30
0.0
 40
4.2876019999999988
 50
257.53098499999999
 51
270.10556500000001
  0
ARC
  5
98
  8
0
 62
     7
 10
51.225141000000001
 20
75.478206999999983
 30
0.0
 40
4.2617779999999987
 50
270.041201
 51
296.30039199999999
  0
ARC
  5
99
  8
0
 62
     7
 10
51.525354
 20
74.768486999999993
 30
0.0
 40
3.4928019999999989
 50
297.04392200000001
 51
319.580397
  0
ARC
  5
9A
  8
0
 62
     7
 10
52.075820999999998
 20
74.242809999999992
 30
0.0
 40
2.7332259999999988
 50
320.488001
 51
347.59841899999998
  0
ARC
  5
9B
  8
0
 62
     7
 10
52.367026000000003
 20
74.136611999999985
 30
0.0
 40
2.4263590000000002
 50
348.57088500000009
 51
0.005772
  0
ARC
  5
9C
  8
0
 62
     7
 10
52.624732999999992
 20
74.126982999999996
 30
0.0
 40
3.2845399999999998
 50
0.17224
 51
37.47072
  0
ARC
  5
9D
  8
0
 62
     7
 10
51.915776000000001
 20
73.656835000000001
 30
0.0
 40
4.1336399999999989
 50
36.664563999999999
 51
59.255614000000001
  0
ARC
  5
9E
  8
0
 62
     7
 10
51.341439999999999
 20
72.803179999999998
 30
0.0
 40
5.1612419999999988
 50
58.620387999999998
 51
85.940601999999984
  0
ARC
  5
9F
  8
0
 62
     7
 10
51.229630999999991
 20
72.211119999999994
 30
0.0
 40
5.7601519999999988
 50
85.24811600000001
 51
90.014178999999984
  0
ARC
  5
A0
  8
0
 62
     7
 10
51.231704999999998
 20
72.364249000000001
 30
0.0
 40
5.607024
 50
90.035758999999985
 51
115.144555
  0
ARC
  5
A1
  8
0
 62
     7
 10
50.872011999999991
 20
73.257068000000004
 30
0.0
 40
4.646285999999999
 50
115.807447
 51
138.15707900000001
  0
ARC
  5
A2
  8
0
 62
     7
 10
50.151247999999988
 20
73.977305999999999
 30
0.0
 40
3.6292970000000002
 50
139.03716299999999
 51
166.644904
  0
ARC
  5
A3
  8
0
 62
     7
 10
49.731946999999998
 20
74.137088000000006
 30
0.0
 40
3.184966999999999
 50
167.69929400000001
 51
180.00417999999991
  0
ARC
  5
A4
  8
0
 62
     7
 10
49.831462999999999
 20
74.146730000000005
 30
0.0
 40
3.2844980000000001
 50
180.17226199999999
 51
217.471294
  0
ARC
  5
A5
  8
0
 62
     7
 10
50.539681999999992
 20
74.616054000000005
 30
0.0
 40
4.1325139999999987
 50
216.66196299999999
 51
239.25953100000001
  0
ARC
  5
A6
  8
0
 62
     7
 10
51.114798999999991
 20
75.470476000000005
 30
0.0
 40
5.1611750000000001
 50
238.62041099999999
 51
265.942159
  0
ARC
  5
A7
  8
0
 62
     7
 10
51.226773000000001
 20
76.063114999999996
 30
0.0
 40
5.760673999999999
 50
265.24835100000001
 51
270.01425
  0
ARC
  5
A8
  8
0
 62
     7
 10
51.224702000000001
 20
75.908946
 30
0.0
 40
5.6065059999999987
 50
270.03581100000002
 51
295.14575600000001
  0
ARC
  5
A9
  8
0
 62
     7
 10
51.584243999999998
 20
75.016553000000002
 30
0.0
 40
4.6462180000000002
 50
295.80834199999998
 51
318.157872
  0
ARC
  5
AA
  8
0
 62
     7
 10
52.305073
 20
74.296343999999991
 30
0.0
 40
3.6292010000000001
 50
319.03716600000013
 51
346.64557400000001
  0
ARC
  5
AB
  8
0
 62
     7
 10
52.724280000000007
 20
74.136626000000007
 30
0.0
 40
3.1849780000000001
 50
347.69933400000002
 51
0.004141
  0
LINE
  5
AC
  8
0
 62
     7
 10
142.66499999999999
 20
136.77500000000001
 30
0.0
 11
142.66499999999999
 21
117.905
 31
0.0
  0
LINE
  5
AD
  8
0
 62
     7
 10
142.66499999999999
 20
117.836
 30
0.0
 11
143.08699999999999
 21
120.23699999999999
 31
0.0
  0
LINE
  5
AE
  8
0
 62
     7
 10
143.08699999999999
 20
120.23699999999999
 30
0.0
 11
142.24100000000001
 21
120.23699999999999
 31
0.0
  0
LINE
  5
AF
  8
0
 62
     7
 10
142.24100000000001
 20
120.23699999999999
 30
0.0
 11
142.66499999999999
 21
117.836
 31
0.0
  0
LINE
  5
B0
  8
0
 62
     7
 10
142.66499999999999
 20
136.83099999999999
 30
0.0
 11
142.24100000000001
 21
134.43100000000001
 31
0.0
  0
LINE
  5
B1
  8
0
 62
     7
 10
142.24100000000001
 20
134.43100000000001
 30
0.0
 11
143.08699999999999
 21
134.43100000000001
 31
0.0
  0
LINE
  5
B2
  8
0
 62
     7
 10
143.08699999999999
 20
134.43100000000001
 30
0.0
 11
142.66499999999999
 21
136.83099999999999
 31
0.0
  0
LINE
  5
B3
  8
0
 62
     7
 10
107.26300000000001
 20
70.322100000000006
 30
0.0
 11
85.475899999999996
 21
70.322100000000006
 31
0.0
  0
LINE
  5
B4
  8
0
 62
     7
 10
86.509100000000004
 20
127.247
 30
0.0
 11
86.509100000000004
 21
70.264200000000002
 31
0.0
  0
LINE
  5
B5
  8
0
 62
     7
 10
97.1387
 20
67.602500000000006
 30
0.0
 11
98.361900000000006
 21
65.494399999999999
 31
0.0
  0
LINE
  5
B6
  8
0
 62
     7
 10
98.361900000000006
 20
65.494399999999999
 30
0.0
 11
99.009100000000004
 21
66.040099999999995
 31
0.0
  0
LINE
  5
B7
  8
0
 62
     7
 10
99.009100000000004
 20
66.040099999999995
 30
0.0
 11
97.1387
 21
67.602500000000006
 31
0.0
  0
LINE
  5
B8
  8
0
 62
     7
 10
106.574
 20
62.619799999999998
 30
0.0
 11
104.208
 21
63.205199999999998
 31
0.0
  0
LINE
  5
B9
  8
0
 62
     7
 10
104.208
 20
63.205199999999998
 30
0.0
 11
104.15000000000001
 21
62.360799999999998
 31
0.0
  0
LINE
  5
BA
  8
0
 62
     7
 10
104.15000000000001
 20
62.360799999999998
 30
0.0
 11
106.574
 21
62.619799999999998
 31
0.0
  0
LINE
  5
BB
  8
0
 62
     7
 10
86.509100000000004
 20
70.322400000000002
 30
0.0
 11
86.932400000000015
 21
72.722300000000004
 31
0.0
  0
LINE
  5
BC
  8
0
 62
     7
 10
86.932400000000015
 20
72.722300000000004
 30
0.0
 11
86.085899999999995
 21
72.722300000000004
 31
0.0
  0
LINE
  5
BD
  8
0
 62
     7
 10
86.085899999999995
 20
72.722300000000004
 30
0.0
 11
86.509100000000004
 21
70.322400000000002
 31
0.0
  0
LINE
  5
BE
  8
0
 62
     7
 10
86.509100000000004
 20
127.32299999999999
 30
0.0
 11
86.085899999999995
 21
124.923
 31
0.0
  0
LINE
  5
BF
  8
0
 62
     7
 10
86.085899999999995
 20
124.923
 30
0.0
 11
86.932400000000015
 21
124.923
 31
0.0
  0
LINE
  5
C0
  8
0
 62
     7
 10
86.932400000000015
 20
124.923
 30
0.0
 11
86.509100000000004
 21
127.32299999999999
 31
0.0
  0
LINE
  5
C1
  8
0
 62
     7
 10
155.56700000000001
 20
97.894400000000005
 30
0.0
 11
106.74299999999999
 21
97.894400000000005
 31
0.0
  0
LINE
  5
C2
  8
0
 62
     7
 10
106.63200000000001
 20
97.894400000000005
 30
0.0
 11
109.032
 21
97.471000000000004
 31
0.0
  0
LINE
  5
C3
  8
0
 62
     7
 10
109.032
 20
97.471000000000004
 30
0.0
 11
109.032
 21
98.317400000000006
 31
0.0
  0
LINE
  5
C4
  8
0
 62
     7
 10
109.032
 20
98.317400000000006
 30
0.0
 11
106.63200000000001
 21
97.894400000000005
 31
0.0
  0
LINE
  5
C5
  8
0
 62
     7
 10
155.63200000000001
 20
97.894400000000005
 30
0.0
 11
153.232
 21
98.317400000000006
 31
0.0
  0
LINE
  5
C6
  8
0
 62
     7
 10
153.232
 20
98.317400000000006
 30
0.0
 11
153.232
 21
97.471000000000004
 31
0.0
  0
LINE
  5
C7
  8
0
 62
     7
 10
153.232
 20
97.471000000000004
 30
0.0
 11
155.63200000000001
 21
97.894400000000005
 31
0.0
  0
LINE
  5
C8
  8
0
 62
     7
 10
47.767200000000003
 20
73.436099999999996
 30
0.0
 11
51.586199999999991
 21
71.2316
 31
0.0
  0
LINE
  5
C9
  8
0
 62
     7
 10
47.700200000000002
 20
74.562299999999993
 30
0.0
 11
52.902500000000003
 21
71.558199999999999
 31
0.0
  0
LINE
  5
CA
  8
0
 62
     7
 10
48.044199999999996
 20
75.450800000000001
 30
0.0
 11
53.8093
 21
72.122200000000007
 31
0.0
  0
LINE
  5
CB
  8
0
 62
     7
 10
48.673999999999992
 20
76.174599999999998
 30
0.0
 11
54.429400000000001
 21
72.851500000000001
 31
0.0
  0
LINE
  5
CC
  8
0
 62
     7
 10
49.592300000000002
 20
76.731700000000004
 30
0.0
 11
54.761000000000003
 21
73.747200000000007
 31
0.0
  0
LINE
  5
CD
  8
0
 62
     7
 10
50.929200000000002
 20
77.047300000000007
 30
0.0
 11
54.6738
 21
74.885099999999994
 31
0.0
  0
LINE
  5
CE
  8
0
 62
     7
 10
54.617899999999999
 20
73.231499999999997
 30
0.0
 11
51.129800000000003
 21
71.217500000000001
 31
0.0
  0
LINE
  5
CF
  8
0
 62
     7
 10
54.776699999999991
 20
74.410399999999996
 30
0.0
 11
49.7194
 21
71.490700000000004
 31
0.0
  0
LINE
  5
D0
  8
0
 62
     7
 10
54.4833
 20
75.328199999999995
 30
0.0
 11
48.7639
 21
72.02600000000001
 31
0.0
  0
LINE
  5
D1
  8
0
 62
     7
 10
53.894199999999998
 20
76.075400000000002
 30
0.0
 11
48.102600000000002
 21
72.731899999999996
 31
0.0
  0
LINE
  5
D2
  8
0
 62
     7
 10
53.023299999999999
 20
76.660099999999986
 30
0.0
 11
47.723500000000001
 21
73.600099999999983
 31
0.0
  0
LINE
  5
D3
  8
0
 62
     7
 10
51.769300000000001
 20
77.023200000000003
 30
0.0
 11
47.726899999999993
 21
74.689099999999996
 31
0.0
  0
LINE
  5
D4
  8
0
  6
AIGENLINE001
 62
     7
 10
85.242400000000004
 20
127.32299999999999
 30
0.0
 11
164.822
 21
127.32299999999999
 31
0.0
  0
LINE
  5
D5
  8
0
  6
AIGENLINE001
 62
     7
 10
38.956499999999998
 20
127.245
 30
0.0
 11
75.308899999999994
 21
127.245
 31
0.0
  0
LINE
  5
D6
  8
0
  6
AIGENLINE001
 62
     7
 10
51.32
 20
138.17099999999999
 30
0.0
 11
51.32
 21
68.075199999999995
 31
0.0
  0
LINE
  5
D7
  8
0
 62
     7
 10
154.87299999999999
 20
117.836
 30
0.0
 11
155.67099999999999
 21
118.63500000000001
 31
0.0
  0
LINE
  5
D8
  8
0
 62
     7
 10
155.67099999999999
 20
136.03200000000001
 30
0.0
 11
155.67099999999999
 21
118.63500000000001
 31
0.0
  0
LINE
  5
D9
  8
0
 62
     7
 10
161.86099999999999
 20
132.613
 30
0.0
 11
155.67099999999999
 21
132.613
 31
0.0
  0
LINE
  5
DA
  8
0
 62
     7
 10
161.86099999999999
 20
122.054
 30
0.0
 11
155.67099999999999
 21
122.054
 31
0.0
  0
LINE
  5
DB
  8
0
 62
     7
 10
155.63200000000001
 20
115.777
 30
0.0
 11
155.63200000000001
 21
97.056200000000004
 31
0.0
  0
LINE
  5
DC
  8
0
 62
     7
 10
162.542
 20
97.894400000000005
 30
0.0
 11
155.691
 21
97.894400000000005
 31
0.0
  0
LINE
  5
DD
  8
0
 62
     7
 10
155.63200000000001
 20
97.894400000000005
 30
0.0
 11
158.03200000000001
 21
97.471000000000004
 31
0.0
  0
LINE
  5
DE
  8
0
 62
     7
 10
158.03200000000001
 20
97.471000000000004
 30
0.0
 11
158.03200000000001
 21
98.317400000000006
 31
0.0
  0
LINE
  5
DF
  8
0
 62
     7
 10
158.03200000000001
 20
98.317400000000006
 30
0.0
 11
155.63200000000001
 21
97.894400000000005
 31
0.0
  0
LINE
  5
E0
  8
0
 62
     7
 10
162.60300000000001
 20
97.894400000000005
 30
0.0
 11
160.203
 21
98.317400000000006
 31
0.0
  0
LINE
  5
E1
  8
0
 62
     7
 10
160.203
 20
98.317400000000006
 30
0.0
 11
160.203
 21
97.471000000000004
 31
0.0
  0
LINE
  5
E2
  8
0
 62
     7
 10
160.203
 20
97.471000000000004
 30
0.0
 11
162.60300000000001
 21
97.894400000000005
 31
0.0
  0
LINE
  5
E3
  8
0
 62
     7
 10
162.67099999999999
 20
122.8
 30
0.0
 11
155.67099999999999
 21
122.8
 31
0.0
  0
LINE
  5
E4
  8
0
 62
     7
 10
162.67099999999999
 20
131.86699999999999
 30
0.0
 11
155.67099999999999
 21
131.86699999999999
 31
0.0
  0
LINE
  5
E5
  8
0
 62
     7
 10
162.67099999999999
 20
131.86699999999999
 30
0.0
 11
162.67099999999999
 21
122.8
 31
0.0
  0
LINE
  5
E6
  8
0
 62
     7
 10
162.67099999999999
 20
131.86699999999999
 30
0.0
 11
161.86099999999999
 21
132.613
 31
0.0
  0
LINE
  5
E7
  8
0
 62
     7
 10
162.67099999999999
 20
122.8
 30
0.0
 11
161.86099999999999
 21
122.054
 31
0.0
  0
LINE
  5
E8
  8
0
 62
     7
 10
170.905
 20
132.416
 30
0.0
 11
170.905
 21
122.202
 31
0.0
  0
LINE
  5
E9
  8
0
 62
     7
 10
170.905
 20
122.04300000000001
 30
0.0
 11
171.328
 21
124.443
 31
0.0
  0
LINE
  5
EA
  8
0
 62
     7
 10
171.328
 20
124.443
 30
0.0
 11
170.482
 21
124.443
 31
0.0
  0
LINE
  5
EB
  8
0
 62
     7
 10
170.482
 20
124.443
 30
0.0
 11
170.905
 21
122.04300000000001
 31
0.0
  0
LINE
  5
EC
  8
0
 62
     7
 10
170.905
 20
132.602
 30
0.0
 11
170.482
 21
130.202
 31
0.0
  0
LINE
  5
ED
  8
0
 62
     7
 10
170.482
 20
130.202
 30
0.0
 11
171.328
 21
130.202
 31
0.0
  0
LINE
  5
EE
  8
0
 62
     7
 10
171.328
 20
130.202
 30
0.0
 11
170.905
 21
132.602
 31
0.0
  0
LINE
  5
EF
  8
0
 62
     7
 10
162.60300000000001
 20
96.948999999999998
 30
0.0
 11
162.60300000000001
 21
120.706
 31
0.0
  0
LINE
  5
F0
  8
0
 62
     7
 10
171.607
 20
132.602
 30
0.0
 11
163.16
 21
132.602
 31
0.0
  0
LINE
  5
F1
  8
0
 62
     7
 10
171.749
 20
122.04300000000001
 30
0.0
 11
163.16
 21
122.04300000000001
 31
0.0
  0
LINE
  5
F2
  8
0
 62
     7
 10
161.86099999999999
 20
132.613
 30
0.0
 11
161.86099999999999
 21
122.054
 31
0.0
  0
LINE
  5
F3
  8
0
 62
     7
 10
154.87299999999999
 20
136.83000000000001
 30
0.0
 11
112.64700000000001
 21
136.83000000000001
 31
0.0
  0
LINE
  5
F4
  8
0
 62
     7
 10
110.206
 20
136.83000000000001
 30
0.0
 11
94.969800000000006
 21
136.83000000000001
 31
0.0
  0
ARC
  5
F5
  8
0
 62
     7
 10
95.000328999999994
 20
136.00112999999999
 30
0.0
 40
0.829842
 50
92.106589000000014
 51
177.84393499999999
  0
ARC
  5
F6
  8
0
 62
     7
 10
110.17582400000001
 20
136.00178099999999
 30
0.0
 40
0.8291739999999999
 50
2.1127660000000001
 51
87.924312999999998
  0
ARC
  5
F7
  8
0
 62
     7
 10
112.677947
 20
136.001992
 30
0.0
 40
0.828982
 50
92.111016000000006
 51
177.90132199999999
  0
LINE
  5
F8
  8
0
 62
     7
 10
94.132000000000005
 20
146.042
 30
0.0
 11
94.132000000000005
 21
137.851
 31
0.0
  0
LINE
  5
F9
  8
0
 62
     7
 10
155.56700000000001
 20
144.27199999999999
 30
0.0
 11
94.162999999999997
 21
144.27199999999999
 31
0.0
  0
LINE
  5
FA
  8
0
 62
     7
 10
94.131600000000006
 20
144.27199999999999
 30
0.0
 11
96.531700000000015
 21
143.84899999999999
 31
0.0
  0
LINE
  5
FB
  8
0
 62
     7
 10
96.531700000000015
 20
143.84899999999999
 30
0.0
 11
96.531700000000015
 21
144.69499999999999
 31
0.0
  0
LINE
  5
FC
  8
0
 62
     7
 10
96.531700000000015
 20
144.69499999999999
 30
0.0
 11
94.131600000000006
 21
144.27199999999999
 31
0.0
  0
LINE
  5
FD
  8
0
 62
     7
 10
155.63200000000001
 20
144.27199999999999
 30
0.0
 11
153.232
 21
144.69499999999999
 31
0.0
  0
LINE
  5
FE
  8
0
 62
     7
 10
153.232
 20
144.69499999999999
 30
0.0
 11
153.232
 21
143.84899999999999
 31
0.0
  0
LINE
  5
FF
  8
0
 62
     7
 10
153.232
 20
143.84899999999999
 30
0.0
 11
155.63200000000001
 21
144.27199999999999
 31
0.0
  0
ARC
  5
100
  8
0
 62
     7
 10
154.84247999999999
 20
136.00181599999999
 30
0.0
 40
0.829152
 50
2.110449
 51
87.901905999999997
  0
LINE
  5
101
  8
0
 62
     7
 10
155.63200000000001
 20
145.749
 30
0.0
 11
155.63200000000001
 21
137.851
 31
0.0
  0
LINE
  5
102
  8
_________2
 62
     7
 10
205.30000000000001
 20
127.411
 30
0.0
 11
183.55000000000001
 21
127.411
 31
0.0
  0
LINE
  5
103
  8
_________2
 62
     7
 10
100.3
 20
-4.0910799999999998
 30
0.0
 11
100.3
 21
-21.071400000000001
 31
0.0
  0
LINE
  5
104
  8
_________2
 62
     7
 10
100.3
 20
275.93099999999998
 30
0.0
 11
100.3
 21
258.911
 31
0.0
  0
LINE
  5
105
  8
_________2
 62
     7
 10
17.049499999999998
 20
127.411
 30
0.0
 11
-4.7008599999999987
 21
127.411
 31
0.0
  0
LINE
  5
106
  8
_________2
 62
     7
 10
76.741
 20
29.8047
 30
0.0
 11
74.554699999999997
 21
29.8047
 31
0.0
  0
LINE
  5
107
  8
_________2
 62
     7
 10
77.233699999999999
 20
29.8047
 30
0.0
 11
76.981499999999997
 21
29.8047
 31
0.0
  0
LINE
  5
108
  8
_________2
 62
     7
 10
77.726299999999995
 20
29.8047
 30
0.0
 11
80.651200000000003
 21
29.8047
 31
0.0
  0
LINE
  5
109
  8
_________2
 62
     7
 10
77.233699999999999
 20
29.8047
 30
0.0
 11
77.485200000000006
 21
29.8047
 31
0.0
  0
LINE
  5
10A
  8
_________2
 62
     7
 10
70.836799999999997
 20
29.8047
 30
0.0
 11
68.650499999999994
 21
29.8047
 31
0.0
  0
LINE
  5
10B
  8
_________2
 62
     7
 10
71.329400000000007
 20
29.8047
 30
0.0
 11
71.077200000000005
 21
29.8047
 31
0.0
  0
LINE
  5
10C
  8
_________2
 62
     7
 10
71.329400000000007
 20
30.2974
 30
0.0
 11
71.329400000000007
 21
32.484400000000001
 31
0.0
  0
LINE
  5
10D
  8
_________2
 62
     7
 10
71.329400000000007
 20
29.8047
 30
0.0
 11
71.329400000000007
 21
30.056899999999999
 31
0.0
  0
LINE
  5
10E
  8
_________2
 62
     7
 10
71.822100000000006
 20
29.8047
 30
0.0
 11
74.009
 21
29.8047
 31
0.0
  0
LINE
  5
10F
  8
_________2
 62
     7
 10
71.329400000000007
 20
29.8047
 30
0.0
 11
71.581599999999995
 21
29.8047
 31
0.0
  0
LINE
  5
110
  8
_________2
 62
     7
 10
71.329400000000007
 20
29.312799999999999
 30
0.0
 11
71.329400000000007
 21
27.125800000000002
 31
0.0
  0
LINE
  5
111
  8
_________2
 62
     7
 10
71.329400000000007
 20
29.8047
 30
0.0
 11
71.329400000000007
 21
29.5532
 31
0.0
  0
LINE
  5
112
  8
_________2
 62
     7
 10
75.040499999999994
 20
28.5852
 30
0.0
 11
80.218500000000006
 21
27.720400000000001
 31
0.0
  0
LINE
  5
113
  8
_________2
 62
     7
 10
75.040499999999994
 20
31.0243
 30
0.0
 11
80.218500000000006
 21
31.889700000000001
 31
0.0
  0
LINE
  5
114
  8
_________2
 62
     7
 10
80.218500000000006
 20
27.720400000000001
 30
0.0
 11
80.218500000000006
 21
31.889700000000001
 31
0.0
  0
LINE
  5
115
  8
_________2
 62
     7
 10
75.040499999999994
 20
28.5852
 30
0.0
 11
75.040499999999994
 21
31.0243
 31
0.0
  0
ARC
  5
116
  8
_________2
 62
     7
 10
71.282522999999983
 20
29.757836000000001
 30
0.0
 40
1.267347
 50
2.1211329999999999
 51
87.878856999999996
  0
ARC
  5
117
  8
_________2
 62
     7
 10
71.375959999999992
 20
29.758213000000001
 30
0.0
 40
1.2669559999999991
 50
92.104701000000006
 51
177.89526900000001
  0
ARC
  5
118
  8
_________2
 62
     7
 10
71.376357999999996
 20
29.851671
 30
0.0
 40
1.2673680000000001
 50
182.12203600000001
 51
267.877993
  0
ARC
  5
119
  8
_________2
 62
     7
 10
71.282522999999983
 20
29.851649999999999
 30
0.0
 40
1.267347
 50
272.12114300000002
 51
357.87886700000001
  0
ARC
  5
11A
  8
_________2
 62
     7
 10
71.329430000000002
 20
29.804742999999998
 30
0.0
 40
2.0849849999999992
 50
0.00001
 51
89.999980000000008
  0
ARC
  5
11B
  8
_________2
 62
     7
 10
71.329431
 20
29.804742999999998
 30
0.0
 40
2.0849849999999992
 50
90.0
 51
179.99996999999999
  0
ARC
  5
11C
  8
_________2
 62
     7
 10
71.408771999999999
 20
29.884799999999998
 30
0.0
 40
2.165807
 50
182.1183979999999
 51
267.90056900000002
  0
ARC
  5
11D
  8
_________2
 62
     7
 10
71.249459000000002
 20
29.885429999999999
 30
0.0
 40
2.1664590000000001
 50
272.11546800000002
 51
357.86560400000002
  0
TEXT
  5
11E
  8
_________2
 62
     7
 10
104.604
 20
1.6794899999999999
 30
0.0
 40
3.0923400000000001
  1
図番
 41
0.5
  0
LINE
  5
11F
  8
_________2
 62
     7
 10
103.55
 20
5.9087199999999989
 30
0.0
 11
183.55099999999999
 21
5.9087199999999989
 31
0.0
  0
TEXT
  5
120
  8
_________2
 62
     7
 10
104.604
 20
11.6793
 30
0.0
 40
3.0923400000000001
  1
品番
 41
0.5
  0
TEXT
  5
121
  8
_________2
 62
     7
 10
104.604
 20
31.818100000000001
 30
0.0
 40
3.0923400000000001
  1
名称
 41
0.5
  0
TEXT
  5
122
  8
_________2
 62
     7
 10
91.845058333333341
 20
26.821999999999999
 30
0.0
 40
3.6545800000000002
  1
mm
 41
0.5
 72
     1
 11
93.367800000000003
 21
26.821999999999999
 31
0.0
  0
TEXT
  5
123
  8
_________2
 62
     7
 10
85.643199999999993
 20
31.818100000000001
 30
0.0
 40
3.0923400000000001
  1
単位
 41
0.5
  0
TEXT
  5
124
  8
_________2
 62
     7
 10
85.643199999999993
 20
19.410799999999998
 30
0.0
 40
3.0923400000000001
  1
尺度
 41
0.5
  0
TEXT
  5
125
  8
_________2
 62
     7
 10
90.548758666666686
 20
13.2179
 30
0.0
 40
3.6545800000000002
  1
1 ： 2
 41
0.5
 72
     1
 11
93.959699999999998
 21
13.2179
 31
0.0
  0
TEXT
  5
126
  8
_________2
 62
     7
 10
137.64545000000001
 20
9.1078600000000005
 30
0.0
 40
3.9357000000000002
  1
VLRB4R
 41
0.5
 72
     1
 11
143.54900000000001
 21
9.1078600000000005
 31
0.0
  0
TEXT
  5
127
  8
_________2
 62
     7
 10
137.64545000000001
 20
-0.8926299999999999
 30
0.0
 40
3.9357000000000002
  1
VLRB4R
 41
0.5
 72
     1
 11
143.54900000000001
 21
-0.8926299999999999
 31
0.0
  0
TEXT
  5
128
  8
_________2
 62
     7
 10
24.5868
 20
0.707283
 30
0.0
 40
3.9357000000000002
  1
（社）日本水道協会認証品
 41
0.5
  0
TEXT
  5
129
  8
_________2
 62
     7
 10
109.178
 20
24.2257
 30
0.0
 40
3.9357000000000002
  1
ボラ　立水栓
 41
0.5
  0
TEXT
  5
12A
  8
_________2
 62
     7
 10
39.425300333333333
 20
13.603
 30
0.0
 40
3.6545800000000002
  1
早川
 41
0.5
 72
     1
 11
41.313499999999998
 21
13.603
 31
0.0
  0
TEXT
  5
12B
  8
_________2
 62
     7
 10
20.789690666666669
 20
13.603
 30
0.0
 40
3.6545800000000002
  1
石原
 41
0.5
 72
     1
 11
22.738800000000001
 21
13.603
 31
0.0
  0
TEXT
  5
12C
  8
_________2
 62
     7
 10
67.7851
 20
13.2179
 30
0.0
 40
3.6545800000000002
  1
16.02.01
 41
0.5
  0
TEXT
  5
12D
  8
_________2
 62
     7
 10
66.593100000000007
 20
19.410799999999998
 30
0.0
 40
3.0923400000000001
  1
日付
 41
0.5
  0
TEXT
  5
12E
  8
_________2
 62
     7
 10
29.639399999999998
 20
19.410799999999998
 30
0.0
 40
3.0923400000000001
  1
検図
 41
0.5
  0
TEXT
  5
12F
  8
_________2
 62
     7
 10
18.021100000000001
 20
5.21143
 30
0.0
 40
3.0923400000000001
  1
備考
 41
0.5
  0
TEXT
  5
130
  8
_________2
 62
     7
 10
18.021100000000001
 20
19.410799999999998
 30
0.0
 40
3.0923400000000001
  1
製図
 41
0.5
  0
TEXT
  5
131
  8
_________2
 62
     7
 10
23.788465333333338
 20
27.936800000000002
 30
0.0
 40
4.4979399999999989
  1
セラトレーディング株式会社
 41
0.5
 72
     1
 11
41.180500000000002
 21
27.936800000000002
 31
0.0
  0
LINE
  5
132
  8
_________2
 62
     7
 10
183.55099999999999
 20
-4.0910799999999998
 30
0.0
 11
17.049499999999998
 21
-4.0910799999999998
 31
0.0
  0
LINE
  5
133
  8
_________2
 62
     7
 10
17.049499999999998
 20
-4.0910799999999998
 30
0.0
 11
17.049499999999998
 21
258.911
 31
0.0
  0
LINE
  5
134
  8
_________2
 62
     7
 10
17.049499999999998
 20
258.911
 30
0.0
 11
183.55099999999999
 21
258.911
 31
0.0
  0
LINE
  5
135
  8
_________2
 62
     7
 10
183.55099999999999
 20
258.911
 30
0.0
 11
183.55099999999999
 21
-4.0910799999999998
 31
0.0
  0
LINE
  5
136
  8
_________2
 62
     7
 10
65.549199999999999
 20
9.4089600000000004
 30
0.0
 11
65.549199999999999
 21
35.908799999999999
 31
0.0
  0
LINE
  5
137
  8
_________2
 62
     7
 10
84.549700000000016
 20
9.4089600000000004
 30
0.0
 11
84.549700000000016
 21
35.908799999999999
 31
0.0
  0
LINE
  5
138
  8
_________2
 62
     7
 10
103.55
 20
-4.0910799999999998
 30
0.0
 11
103.55
 21
35.908799999999999
 31
0.0
  0
LINE
  5
139
  8
_________2
 62
     7
 10
28.549299999999999
 20
9.4089600000000004
 30
0.0
 11
28.549299999999999
 21
23.409199999999998
 31
0.0
  0
LINE
  5
13A
  8
_________2
 62
     7
 10
17.049499999999998
 20
9.4089600000000004
 30
0.0
 11
103.55
 21
9.4089600000000004
 31
0.0
  0
LINE
  5
13B
  8
_________2
 62
     7
 10
17.049499999999998
 20
23.409199999999998
 30
0.0
 11
103.55
 21
23.409199999999998
 31
0.0
  0
LINE
  5
13C
  8
_________2
 62
     7
 10
103.55
 20
15.9085
 30
0.0
 11
183.55099999999999
 21
15.9085
 31
0.0
  0
LINE
  5
13D
  8
_________2
 62
     7
 10
17.049499999999998
 20
35.908799999999999
 30
0.0
 11
183.55099999999999
 21
35.908799999999999
 31
0.0
  0
TEXT
  5
13E
  8
_________2
 62
     7
 10
141.05481
 20
39.0687
 30
0.0
 40
3.9357000000000002
  1
注：色番号はカタログを参照ください
 41
0.5
 72
     2
 11
180.54300000000001
 21
39.0687
 31
0.0
  0
ENDSEC
  0
EOF
