  0
SECTION
  2
HEADER
  9
$ACADVER
  1
AC1009
  9
$INSBASE
 10
0.0
 20
0.0
 30
0.0
  9
$EXTMIN
 10
-4.7012099999999988
 20
-21.070999999999991
 30
0.0
  9
$EXTMAX
 10
205.30099999999999
 20
275.93099999999993
 30
0.0
  9
$LIMMIN
 10
0.0
 20
0.0
  9
$LIMMAX
 10
12.0
 20
9.0
  9
$ORTHOMODE
 70
     0
  9
$REGENMODE
 70
     1
  9
$FILLMODE
 70
     1
  9
$QTEXTMODE
 70
     0
  9
$MIRRTEXT
 70
     1
  9
$DRAGMODE
 70
     2
  9
$LTSCALE
 40
1.0
  9
$OSMODE
 70
    37
  9
$ATTMODE
 70
     1
  9
$TEXTSIZE
 40
0.0
  9
$TRACEWID
 40
0.05
  9
$TEXTSTYLE
  7
STANDARD
  9
$CLAYER
  8
0
  9
$CELTYPE
  6
CONTINUOUS
  9
$CECOLOR
 62
   256
  9
$DIMSCALE
 40
1.0
  9
$DIMASZ
 40
0.18
  9
$DIMEXO
 40
0.0625
  9
$DIMDLI
 40
0.38
  9
$DIMRND
 40
0.0
  9
$DIMDLE
 40
0.0
  9
$DIMEXE
 40
0.18
  9
$DIMTP
 40
0.0
  9
$DIMTM
 40
0.0
  9
$DIMTXT
 40
0.18
  9
$DIMCEN
 40
0.09
  9
$DIMTSZ
 40
0.0
  9
$DIMTOL
 70
     0
  9
$DIMLIM
 70
     0
  9
$DIMTIH
 70
     1
  9
$DIMTOH
 70
     1
  9
$DIMSE1
 70
     0
  9
$DIMSE2
 70
     0
  9
$DIMTAD
 70
     0
  9
$DIMZIN
 70
     0
  9
$DIMBLK
  1

  9
$DIMASO
 70
     1
  9
$DIMSHO
 70
     1
  9
$DIMPOST
  1

  9
$DIMAPOST
  1

  9
$DIMALT
 70
     0
  9
$DIMALTD
 70
     2
  9
$DIMALTF
 40
25.399999999999999
  9
$DIMLFAC
 40
1.0
  9
$DIMTOFL
 70
     0
  9
$DIMTVP
 40
0.0
  9
$DIMTIX
 70
     0
  9
$DIMSOXD
 70
     0
  9
$DIMSAH
 70
     0
  9
$DIMBLK1
  1

  9
$DIMBLK2
  1

  9
$DIMSTYLE
  2
STANDARD
  9
$DIMCLRD
 70
     0
  9
$DIMCLRE
 70
     0
  9
$DIMCLRT
 70
     0
  9
$DIMTFAC
 40
1.0
  9
$DIMGAP
 40
0.09
  9
$LUNITS
 70
     2
  9
$LUPREC
 70
     4
  9
$SKETCHINC
 40
0.1
  9
$FILLETRAD
 40
0.0
  9
$AUNITS
 70
     0
  9
$AUPREC
 70
     0
  9
$MENU
  1
.
  9
$ELEVATION
 40
0.0
  9
$PELEVATION
 40
0.0
  9
$THICKNESS
 40
0.0
  9
$LIMCHECK
 70
     0
  9
$BLIPMODE
 70
     0
  9
$CHAMFERA
 40
0.0
  9
$CHAMFERB
 40
0.0
  9
$SKPOLY
 70
     0
  9
$TDCREATE
 40
2444972.375
  9
$TDUPDATE
 40
2457043.2480542469
  9
$TDINDWG
 40
0.0000052315
  9
$TDUSRTIMER
 40
0.0000052315
  9
$USRTIMER
 70
     1
  9
$ANGBASE
 50
0.0
  9
$ANGDIR
 70
     0
  9
$PDMODE
 70
     0
  9
$PDSIZE
 40
0.0
  9
$PLINEWID
 40
0.0
  9
$COORDS
 70
     1
  9
$SPLFRAME
 70
     0
  9
$SPLINETYPE
 70
     6
  9
$SPLINESEGS
 70
     8
  9
$ATTDIA
 70
     0
  9
$ATTREQ
 70
     1
  9
$HANDLING
 70
     1
  9
$HANDSEED
  5
179
  9
$SURFTAB1
 70
     6
  9
$SURFTAB2
 70
     6
  9
$SURFTYPE
 70
     6
  9
$SURFU
 70
     6
  9
$SURFV
 70
     6
  9
$UCSNAME
  2

  9
$UCSORG
 10
0.0
 20
0.0
 30
0.0
  9
$UCSXDIR
 10
1.0
 20
0.0
 30
0.0
  9
$UCSYDIR
 10
0.0
 20
1.0
 30
0.0
  9
$PUCSNAME
  2

  9
$PUCSORG
 10
0.0
 20
0.0
 30
0.0
  9
$PUCSXDIR
 10
1.0
 20
0.0
 30
0.0
  9
$PUCSYDIR
 10
0.0
 20
1.0
 30
0.0
  9
$USERI1
 70
     0
  9
$USERI2
 70
     0
  9
$USERI3
 70
     0
  9
$USERI4
 70
     0
  9
$USERI5
 70
     0
  9
$USERR1
 40
0.0
  9
$USERR2
 40
0.0
  9
$USERR3
 40
0.0
  9
$USERR4
 40
0.0
  9
$USERR5
 40
0.0
  9
$WORLDVIEW
 70
     1
  9
$SHADEDGE
 70
     3
  9
$SHADEDIF
 70
    70
  9
$TILEMODE
 70
     1
  9
$MAXACTVP
 70
    48
  9
$PLIMCHECK
 70
     0
  9
$PEXTMIN
 10
1.0000000000000000E+020
 20
1.0000000000000000E+020
 30
1.0000000000000000E+020
  9
$PEXTMAX
 10
-1.0000000000000000E+020
 20
-1.0000000000000000E+020
 30
-1.0000000000000000E+020
  9
$PLIMMIN
 10
0.0
 20
0.0
  9
$PLIMMAX
 10
12.0
 20
9.0
  9
$UNITMODE
 70
     0
  9
$VISRETAIN
 70
     1
  9
$PLINEGEN
 70
     0
  9
$PSLTSCALE
 70
     1
  0
ENDSEC
  0
SECTION
  2
TABLES
  0
TABLE
  2
VPORT
 70
     2
  0
VPORT
  2
*ACTIVE
 70
     0
 10
0.0
 20
0.0
 11
1.0
 21
1.0
 12
200.34006747553701
 22
127.42999999999989
 13
0.0
 23
0.0
 14
1.0
 24
1.0
 15
0.0
 25
0.0
 16
0.0
 26
0.0
 36
1.0
 17
0.0
 27
0.0
 37
0.0
 40
299.4701606648199
 41
2.2894736842105261
 42
50.0
 43
0.0
 44
0.0
 50
0.0
 51
0.0
 71
     0
 72
   100
 73
     1
 74
     1
 75
     0
 76
     0
 77
     0
 78
     0
  0
ENDTAB
  0
TABLE
  2
LTYPE
 70
     4
  0
LTYPE
  2
CONTINUOUS
 70
     0
  3
Solid line
 72
    65
 73
     0
 40
0.0
  0
LTYPE
  2
AIGENLINE001
 70
     0
  3
generate AI->DXF Converter
 72
    65
 73
     2
 40
1.5522299999999991
 49
0.776115
 49
-0.776115
  0
LTYPE
  2
AIGENLINE002
 70
     0
  3
generate AI->DXF Converter
 72
    65
 73
     2
 40
0.9999879999999999
 49
0.499994
 49
-0.499994
  0
LTYPE
  2
AIGENLINE003
 70
     0
  3
generate AI->DXF Converter
 72
    65
 73
     4
 40
5.8561449999999988
 49
3.5278
 49
-0.776115
 49
0.776115
 49
-0.776115
  0
ENDTAB
  0
TABLE
  2
LAYER
 70
     2
  0
LAYER
  2
0
 70
     0
 62
     7
  6
CONTINUOUS
  0
LAYER
  2
_________2
 70
     0
 62
     7
  6
CONTINUOUS
  0
ENDTAB
  0
TABLE
  2
STYLE
 70
     1
  0
STYLE
  2
STANDARD
 70
     0
 40
0.0
 41
0.0
 50
0.0
 71
     0
 42
0.0
  3
TXT
  4
EXTFONT.SHX
  0
ENDTAB
  0
TABLE
  2
VIEW
 70
     0
  0
ENDTAB
  0
TABLE
  2
UCS
 70
     0
  0
ENDTAB
  0
TABLE
  2
APPID
 70
     1
  0
APPID
  2
ACAD
 70
     0
  0
ENDTAB
  0
TABLE
  2
DIMSTYLE
 70
     1
  0
DIMSTYLE
  2
STANDARD
 70
     0
  3

  4

  5

  6

  7

 40
1.0
 41
0.18
 42
0.0625
 43
0.38
 44
0.18
 45
0.0
 46
0.0
 47
0.0
 48
0.0
140
0.18
141
0.09
142
0.0
143
25.399999999999999
144
1.0
145
0.0
146
1.0
147
0.09
 71
     0
 72
     0
 73
     1
 74
     1
 75
     0
 76
     0
 77
     0
 78
     0
170
     0
171
     2
172
     0
173
     0
174
     0
175
     0
176
     0
177
     0
178
     0
  0
ENDTAB
  0
ENDSEC
  0
SECTION
  2
BLOCKS
  0
BLOCK
  8
0
  2
$MODEL_SPACE
 70
     0
 10
0.0
 20
0.0
 30
0.0
  3
$MODEL_SPACE
  1

  0
ENDBLK
  5
1A
  8
0
  0
BLOCK
 67
     1
  8
0
  2
$PAPER_SPACE
 70
     0
 10
0.0
 20
0.0
 30
0.0
  3
$PAPER_SPACE
  1

  0
ENDBLK
  5
17
 67
     1
  8
0
  0
ENDSEC
  0
SECTION
  2
ENTITIES
  0
TEXT
  5
24
  8
0
 62
     7
 10
120.30578749999999
 20
156.5389999999999
 30
0.0
 40
3.660169999999999
  1
R30
 41
0.5
 72
     2
 11
124.8809999999999
 21
156.5389999999999
 31
0.0
  0
TEXT
  5
25
  8
0
 62
     7
 10
65.957373333333322
 20
173.17500000000001
 30
0.0
 40
3.660169999999999
  1
%%c46
 41
0.5
 72
     2
 11
70.837599999999995
 21
173.17500000000001
 31
0.0
  0
TEXT
  5
26
  8
0
 62
     7
 10
179.57299999999989
 20
175.6188866666667
 30
0.0
 40
3.660169999999999
  1
352
 50
90.0
 41
0.5
 72
     1
 11
179.57299999999989
 21
178.059
 31
0.0
  0
TEXT
  5
27
  8
0
 62
     7
 10
139.45388666666659
 20
139.51599999999991
 30
0.0
 40
3.660169999999999
  1
352
 41
0.5
 72
     1
 11
141.89400000000001
 21
139.51599999999991
 31
0.0
  0
TEXT
  5
28
  8
0
 62
     7
 10
138.86799999999991
 20
100.5974220833333
 30
0.0
 40
3.660169999999999
  1
110
 50
90.0
 41
0.5
 72
     1
 11
138.86799999999991
 21
102.27500000000001
 31
0.0
  0
TEXT
  5
29
  8
0
 62
     7
 10
102.31699999999999
 20
95.541407916666657
 30
0.0
 40
3.660169999999999
  1
140
 50
90.0
 41
0.5
 72
     1
 11
102.31699999999999
 21
97.524000000000015
 31
0.0
  0
TEXT
  5
2A
  8
0
 62
     7
 10
96.0762
 20
102.2489291666666
 30
0.0
 40
3.660169999999999
  1
65
 50
90.0
 41
0.5
 72
     1
 11
96.0762
 21
103.774
 31
0.0
  0
TEXT
  5
2B
  8
0
 62
     7
 10
98.876400000000004
 20
176.13788666666659
 30
0.0
 40
3.660169999999999
  1
385
 50
90.0
 41
0.5
 72
     1
 11
98.876400000000004
 21
178.578
 31
0.0
  0
TEXT
  5
2C
  8
0
 62
     7
 10
93.839100833333333
 20
138.42599999999999
 30
0.0
 40
3.660169999999999
  1
10
 41
0.5
 72
     2
 11
95.974199999999996
 21
138.42599999999999
 31
0.0
  0
TEXT
  5
2D
  8
0
 62
     7
 10
20.633700000000001
 20
138.42599999999999
 30
0.0
 40
3.660169999999999
  1
10
 41
0.5
  0
TEXT
  5
2E
  8
0
 62
     7
 10
56.072286666666663
 20
138.42599999999999
 30
0.0
 40
3.660169999999999
  1
365
 41
0.5
 72
     1
 11
58.5124
 21
138.42599999999999
 31
0.0
  0
TEXT
  5
2F
  8
0
 62
     7
 10
56.376900833333337
 20
76.4392
 30
0.0
 40
3.660169999999999
  1
200
 41
0.5
 72
     1
 11
58.512
 21
76.4392
 31
0.0
  0
TEXT
  5
30
  8
0
 62
     7
 10
56.071886666666657
 20
131.6989999999999
 30
0.0
 40
3.660169999999999
  1
385
 41
0.5
 72
     1
 11
58.512
 21
131.6989999999999
 31
0.0
  0
TEXT
  5
31
  8
0
 62
     7
 10
132.1335466666666
 20
128.77199999999999
 30
0.0
 40
3.660169999999999
  1
カウンター切込寸法
 41
0.5
 72
     1
 11
141.89400000000001
 21
128.77199999999999
 31
0.0
  0
ARC
  5
32
  8
0
 62
     7
 10
65.010701999999995
 20
116.33811
 30
0.0
 40
28.354994000000001
 50
316.57730099999992
 51
319.89606499999991
  0
ARC
  5
33
  8
0
 62
     7
 10
73.085168999999993
 20
108.8239919999999
 30
0.0
 40
17.325717999999991
 50
304.41123900000002
 51
316.27084899999988
  0
ARC
  5
34
  8
0
 62
     7
 10
38.936244999999992
 20
157.18547000000001
 30
0.0
 40
76.527243999999996
 50
303.77391999999998
 51
305.04202400000003
  0
ARC
  5
35
  8
0
 62
     7
 10
59.913015000000001
 20
125.940968
 30
0.0
 40
38.894348000000001
 50
300.47089
 51
303.67474299999998
  0
ARC
  5
36
  8
0
 62
     7
 10
67.120975000000001
 20
113.859228
 30
0.0
 40
24.826242999999991
 50
293.67519800000002
 51
300.27289500000001
  0
ARC
  5
37
  8
0
 62
     7
 10
68.943883
 20
109.98811000000001
 30
0.0
 40
20.549262999999989
 50
290.475844
 51
293.35445800000002
  0
ARC
  5
38
  8
0
 62
     7
 10
52.085335999999991
 20
116.4026659999999
 30
0.0
 40
28.451875000000001
 50
220.1096069999999
 51
223.417067
  0
ARC
  5
39
  8
0
 62
     7
 10
43.938575
 20
108.8239919999999
 30
0.0
 40
17.325717999999991
 50
223.72917100000001
 51
235.58878000000001
  0
ARC
  5
3A
  8
0
 62
     7
 10
78.087497999999997
 20
157.18547000000001
 30
0.0
 40
76.527243999999996
 50
234.95799600000001
 51
236.2261
  0
ARC
  5
3B
  8
0
 62
     7
 10
57.109531999999987
 20
125.9391509999999
 30
0.0
 40
38.89217399999999
 50
236.32525899999999
 51
239.52929800000001
  0
ARC
  5
3C
  8
0
 62
     7
 10
49.901007
 20
113.8557159999999
 30
0.0
 40
24.822319
 50
239.72656000000001
 51
246.32529
  0
ARC
  5
3D
  8
0
 62
     7
 10
48.079859999999989
 20
109.98811000000001
 30
0.0
 40
20.549262999999989
 50
246.64556200000001
 51
249.5241759999999
  0
LINE
  5
3E
  8
0
 62
     7
 10
115.1699999999999
 20
152.17400000000001
 30
0.0
 11
114.02499999999991
 21
150.191
 31
0.0
  0
LINE
  5
3F
  8
0
 62
     7
 10
114.02499999999991
 20
150.191
 30
0.0
 11
116.008
 21
151.33699999999999
 31
0.0
  0
LINE
  5
40
  8
0
 62
     7
 10
116.008
 20
151.33699999999999
 30
0.0
 11
115.1699999999999
 21
152.17400000000001
 31
0.0
  0
LINE
  5
41
  8
0
 62
     7
 10
119.672
 20
155.83899999999991
 30
0.0
 11
114.02499999999991
 21
150.191
 31
0.0
  0
LINE
  5
42
  8
0
 62
     7
 10
119.672
 20
155.83899999999991
 30
0.0
 11
124.8809999999999
 21
155.83899999999991
 31
0.0
  0
LINE
  5
43
  8
0
 62
     7
 10
53.818399999999997
 20
181.91399999999999
 30
0.0
 11
55.801400000000001
 21
180.76900000000001
 31
0.0
  0
LINE
  5
44
  8
0
 62
     7
 10
55.801400000000001
 20
180.76900000000001
 30
0.0
 11
54.65659999999999
 21
182.7519999999999
 31
0.0
  0
LINE
  5
45
  8
0
 62
     7
 10
54.65659999999999
 20
182.7519999999999
 30
0.0
 11
53.818399999999997
 21
181.91399999999999
 31
0.0
  0
LINE
  5
46
  8
0
 62
     7
 10
63.205300000000001
 20
174.20299999999989
 30
0.0
 11
61.222700000000003
 21
175.3479999999999
 31
0.0
  0
LINE
  5
47
  8
0
 62
     7
 10
61.222700000000003
 20
175.3479999999999
 30
0.0
 11
62.3675
 21
173.36500000000001
 31
0.0
  0
LINE
  5
48
  8
0
 62
     7
 10
62.3675
 20
173.36500000000001
 30
0.0
 11
63.205300000000001
 21
174.20299999999989
 31
0.0
  0
LINE
  5
49
  8
0
 62
     7
 10
53.190399999999997
 20
183.38099999999989
 30
0.0
 11
64.096199999999996
 21
172.47399999999999
 31
0.0
  0
LINE
  5
4A
  8
0
 62
     7
 10
64.096199999999996
 20
172.47399999999999
 30
0.0
 11
70.837599999999995
 21
172.47399999999999
 31
0.0
  0
LINE
  5
4B
  8
0
 62
     7
 10
180.85900000000001
 20
205.1809999999999
 30
0.0
 11
180.26599999999991
 21
207.39299999999989
 31
0.0
  0
LINE
  5
4C
  8
0
 62
     7
 10
180.26599999999991
 20
207.39299999999989
 30
0.0
 11
179.67399999999989
 21
205.1809999999999
 31
0.0
  0
LINE
  5
4D
  8
0
 62
     7
 10
179.67399999999989
 20
205.1809999999999
 30
0.0
 11
180.85900000000001
 21
205.1809999999999
 31
0.0
  0
LINE
  5
4E
  8
0
 62
     7
 10
179.6879999999999
 20
150.93700000000001
 30
0.0
 11
180.28099999999989
 21
148.726
 31
0.0
  0
LINE
  5
4F
  8
0
 62
     7
 10
180.28099999999989
 20
148.726
 30
0.0
 11
180.87299999999991
 21
150.93700000000001
 31
0.0
  0
LINE
  5
50
  8
0
 62
     7
 10
180.87299999999991
 20
150.93700000000001
 30
0.0
 11
179.6879999999999
 21
150.93700000000001
 31
0.0
  0
LINE
  5
51
  8
0
 62
     7
 10
180.273
 20
207.392
 30
0.0
 11
180.273
 21
148.727
 31
0.0
  0
LINE
  5
52
  8
0
 62
     7
 10
169.02799999999999
 20
148.726
 30
0.0
 11
180.98099999999991
 21
148.726
 31
0.0
  0
LINE
  5
53
  8
0
 62
     7
 10
169.02799999999999
 20
207.39299999999989
 30
0.0
 11
180.98099999999991
 21
207.39299999999989
 31
0.0
  0
LINE
  5
54
  8
0
 62
     7
 10
169.02000000000001
 20
138.23099999999991
 30
0.0
 11
171.23099999999991
 21
138.82299999999989
 31
0.0
  0
LINE
  5
55
  8
0
 62
     7
 10
171.23099999999991
 20
138.82299999999989
 30
0.0
 11
169.02000000000001
 21
139.416
 31
0.0
  0
LINE
  5
56
  8
0
 62
     7
 10
169.02000000000001
 20
139.416
 30
0.0
 11
169.02000000000001
 21
138.23099999999991
 31
0.0
  0
LINE
  5
57
  8
0
 62
     7
 10
114.77200000000001
 20
139.40100000000001
 30
0.0
 11
112.56099999999989
 21
138.809
 31
0.0
  0
LINE
  5
58
  8
0
 62
     7
 10
112.56099999999989
 20
138.809
 30
0.0
 11
114.77200000000001
 21
138.21600000000001
 31
0.0
  0
LINE
  5
59
  8
0
 62
     7
 10
114.77200000000001
 20
138.21600000000001
 30
0.0
 11
114.77200000000001
 21
139.40100000000001
 31
0.0
  0
LINE
  5
5A
  8
0
 62
     7
 10
171.23099999999991
 20
138.816
 30
0.0
 11
112.685
 21
138.816
 31
0.0
  0
LINE
  5
5B
  8
0
 62
     7
 10
112.56099999999989
 20
150.92699999999999
 30
0.0
 11
112.56099999999989
 21
138.10900000000001
 31
0.0
  0
LINE
  5
5C
  8
0
 62
     7
 10
171.227
 20
150.92699999999999
 30
0.0
 11
171.227
 21
138.10900000000001
 31
0.0
  0
LINE
  5
5D
  8
0
 62
     7
 10
103.60299999999999
 20
106.98
 30
0.0
 11
103.01000000000001
 21
109.191
 31
0.0
  0
LINE
  5
5E
  8
0
 62
     7
 10
103.01000000000001
 20
109.191
 30
0.0
 11
102.417
 21
106.98
 31
0.0
  0
LINE
  5
5F
  8
0
 62
     7
 10
102.417
 20
106.98
 30
0.0
 11
103.60299999999999
 21
106.98
 31
0.0
  0
LINE
  5
60
  8
0
 62
     7
 10
102.432
 20
88.068600000000004
 30
0.0
 11
103.02500000000001
 21
85.857500000000002
 31
0.0
  0
LINE
  5
61
  8
0
 62
     7
 10
103.02500000000001
 20
85.857500000000002
 30
0.0
 11
103.617
 21
88.068600000000004
 31
0.0
  0
LINE
  5
62
  8
0
 62
     7
 10
103.617
 20
88.068600000000004
 30
0.0
 11
102.432
 21
88.068600000000004
 31
0.0
  0
LINE
  5
63
  8
0
 62
     7
 10
103.017
 20
109.19
 30
0.0
 11
103.017
 21
85.858199999999997
 31
0.0
  0
LINE
  5
64
  8
0
 62
     7
 10
97.361400000000003
 20
106.98
 30
0.0
 11
96.768900000000002
 21
109.191
 31
0.0
  0
LINE
  5
65
  8
0
 62
     7
 10
96.768900000000002
 20
109.191
 30
0.0
 11
96.176299999999998
 21
106.98
 31
0.0
  0
LINE
  5
66
  8
0
 62
     7
 10
96.176299999999998
 20
106.98
 30
0.0
 11
97.361400000000003
 21
106.98
 31
0.0
  0
LINE
  5
67
  8
0
 62
     7
 10
96.190799999999996
 20
100.5679999999999
 30
0.0
 11
96.783299999999997
 21
98.357100000000003
 31
0.0
  0
LINE
  5
68
  8
0
 62
     7
 10
96.783299999999997
 20
98.357100000000003
 30
0.0
 11
97.375900000000001
 21
100.5679999999999
 31
0.0
  0
LINE
  5
69
  8
0
 62
     7
 10
97.375900000000001
 20
100.5679999999999
 30
0.0
 11
96.190799999999996
 21
100.5679999999999
 31
0.0
  0
LINE
  5
6A
  8
0
 62
     7
 10
96.776399999999995
 20
109.19
 30
0.0
 11
96.776399999999995
 21
98.357799999999983
 31
0.0
  0
LINE
  5
6B
  8
0
 62
     7
 10
100.16200000000001
 20
207.9309999999999
 30
0.0
 11
99.569100000000006
 21
210.143
 31
0.0
  0
LINE
  5
6C
  8
0
 62
     7
 10
99.569100000000006
 20
210.143
 30
0.0
 11
98.976500000000001
 21
207.9309999999999
 31
0.0
  0
LINE
  5
6D
  8
0
 62
     7
 10
98.976500000000001
 20
207.9309999999999
 30
0.0
 11
100.16200000000001
 21
207.9309999999999
 31
0.0
  0
LINE
  5
6E
  8
0
 62
     7
 10
98.991
 20
148.1879999999999
 30
0.0
 11
99.583500000000015
 21
145.97699999999989
 31
0.0
  0
LINE
  5
6F
  8
0
 62
     7
 10
99.583500000000015
 20
145.97699999999989
 30
0.0
 11
100.1759999999999
 21
148.1879999999999
 31
0.0
  0
LINE
  5
70
  8
0
 62
     7
 10
100.1759999999999
 20
148.1879999999999
 30
0.0
 11
98.991
 21
148.1879999999999
 31
0.0
  0
LINE
  5
71
  8
0
 62
     7
 10
99.576599999999999
 20
210.142
 30
0.0
 11
99.576599999999999
 21
145.97799999999989
 31
0.0
  0
LINE
  5
72
  8
0
 62
     7
 10
90.945400000000006
 20
109.191
 30
0.0
 11
103.70999999999989
 21
109.191
 31
0.0
  0
LINE
  5
73
  8
0
 62
     7
 10
89.509699999999995
 20
98.357100000000003
 30
0.0
 11
97.483400000000003
 21
98.357100000000003
 31
0.0
  0
LINE
  5
74
  8
0
 62
     7
 10
76.229399999999984
 20
85.857500000000002
 30
0.0
 11
103.72499999999999
 21
85.857500000000002
 31
0.0
  0
LINE
  5
75
  8
0
 62
     7
 10
86.558700000000002
 20
145.97699999999989
 30
0.0
 11
100.28399999999991
 21
145.97699999999989
 31
0.0
  0
LINE
  5
76
  8
0
 62
     7
 10
86.558700000000002
 20
210.14400000000001
 30
0.0
 11
100.28399999999991
 21
210.14400000000001
 31
0.0
  0
LINE
  5
77
  8
0
 62
     7
 10
88.929299999999984
 20
137.72599999999991
 30
0.0
 11
95.974199999999996
 21
137.72599999999991
 31
0.0
  0
LINE
  5
78
  8
0
 62
     7
 10
92.807500000000005
 20
137.14099999999999
 30
0.0
 11
90.596100000000007
 21
137.733
 31
0.0
  0
LINE
  5
79
  8
0
 62
     7
 10
90.596100000000007
 20
137.733
 30
0.0
 11
92.807500000000005
 21
138.32599999999991
 31
0.0
  0
LINE
  5
7A
  8
0
 62
     7
 10
92.807500000000005
 20
138.32599999999991
 30
0.0
 11
92.807500000000005
 21
137.14099999999999
 31
0.0
  0
LINE
  5
7B
  8
0
 62
     7
 10
28.095400000000001
 20
137.72599999999991
 30
0.0
 11
21.050499999999989
 21
137.72599999999991
 31
0.0
  0
LINE
  5
7C
  8
0
 62
     7
 10
24.217300000000002
 20
137.14099999999999
 30
0.0
 11
26.428699999999999
 21
137.733
 31
0.0
  0
LINE
  5
7D
  8
0
 62
     7
 10
26.428699999999999
 20
137.733
 30
0.0
 11
24.217300000000002
 21
138.32599999999991
 31
0.0
  0
LINE
  5
7E
  8
0
 62
     7
 10
24.217300000000002
 20
138.32599999999991
 30
0.0
 11
24.217300000000002
 21
137.14099999999999
 31
0.0
  0
LINE
  5
7F
  8
0
 62
     7
 10
86.717899999999986
 20
137.14099999999999
 30
0.0
 11
88.929299999999984
 21
137.733
 31
0.0
  0
LINE
  5
80
  8
0
 62
     7
 10
88.929299999999984
 20
137.733
 30
0.0
 11
86.717899999999986
 21
138.32599999999991
 31
0.0
  0
LINE
  5
81
  8
0
 62
     7
 10
86.717899999999986
 20
138.32599999999991
 30
0.0
 11
86.717899999999986
 21
137.14099999999999
 31
0.0
  0
LINE
  5
82
  8
0
 62
     7
 10
30.307200000000002
 20
138.31100000000001
 30
0.0
 11
28.095400000000001
 21
137.71899999999991
 31
0.0
  0
LINE
  5
83
  8
0
 62
     7
 10
28.095400000000001
 20
137.71899999999991
 30
0.0
 11
30.307200000000002
 21
137.126
 31
0.0
  0
LINE
  5
84
  8
0
 62
     7
 10
30.307200000000002
 20
137.126
 30
0.0
 11
30.307200000000002
 21
138.31100000000001
 31
0.0
  0
LINE
  5
85
  8
0
 62
     7
 10
88.929299999999984
 20
137.72599999999991
 30
0.0
 11
28.095400000000001
 21
137.72599999999991
 31
0.0
  0
LINE
  5
86
  8
0
 62
     7
 10
72.968400000000003
 20
75.154200000000003
 30
0.0
 11
75.179900000000004
 21
75.746799999999993
 31
0.0
  0
LINE
  5
87
  8
0
 62
     7
 10
75.179900000000004
 20
75.746799999999993
 30
0.0
 11
72.968400000000003
 21
76.339299999999994
 31
0.0
  0
LINE
  5
88
  8
0
 62
     7
 10
72.968400000000003
 20
76.339299999999994
 30
0.0
 11
72.968400000000003
 21
75.154200000000003
 31
0.0
  0
LINE
  5
89
  8
0
 62
     7
 10
44.056699999999992
 20
76.3249
 30
0.0
 11
41.844900000000003
 21
75.732299999999995
 31
0.0
  0
LINE
  5
8A
  8
0
 62
     7
 10
41.844900000000003
 20
75.732299999999995
 30
0.0
 11
44.056699999999992
 21
75.139700000000005
 31
0.0
  0
LINE
  5
8B
  8
0
 62
     7
 10
44.056699999999992
 20
75.139700000000005
 30
0.0
 11
44.056699999999992
 21
76.3249
 31
0.0
  0
LINE
  5
8C
  8
0
 62
     7
 10
75.179900000000004
 20
75.739199999999997
 30
0.0
 11
41.844900000000003
 21
75.739199999999997
 31
0.0
  0
LINE
  5
8D
  8
0
 62
     7
 10
41.844900000000003
 20
85.157399999999996
 30
0.0
 11
41.844900000000003
 21
75.039100000000005
 31
0.0
  0
LINE
  5
8E
  8
0
 62
     7
 10
75.179900000000004
 20
85.157399999999996
 30
0.0
 11
75.179900000000004
 21
75.039100000000005
 31
0.0
  0
LINE
  5
8F
  8
0
 62
     7
 10
88.384299999999996
 20
130.4139999999999
 30
0.0
 11
90.595699999999994
 21
131.00700000000001
 31
0.0
  0
LINE
  5
90
  8
0
 62
     7
 10
90.595699999999994
 20
131.00700000000001
 30
0.0
 11
88.384299999999996
 21
131.5989999999999
 31
0.0
  0
LINE
  5
91
  8
0
 62
     7
 10
88.384299999999996
 20
131.5989999999999
 30
0.0
 11
88.384299999999996
 21
130.4139999999999
 31
0.0
  0
LINE
  5
92
  8
0
 62
     7
 10
28.640499999999999
 20
131.58500000000001
 30
0.0
 11
26.428699999999999
 21
130.99199999999999
 31
0.0
  0
LINE
  5
93
  8
0
 62
     7
 10
26.428699999999999
 20
130.99199999999999
 30
0.0
 11
28.640499999999999
 21
130.40000000000001
 31
0.0
  0
LINE
  5
94
  8
0
 62
     7
 10
28.640499999999999
 20
130.40000000000001
 30
0.0
 11
28.640499999999999
 21
131.58500000000001
 31
0.0
  0
LINE
  5
95
  8
0
 62
     7
 10
90.595699999999994
 20
130.99899999999991
 30
0.0
 11
26.428699999999999
 21
130.99899999999991
 31
0.0
  0
LINE
  5
96
  8
0
 62
     7
 10
28.095400000000001
 20
150.364
 30
0.0
 11
28.095400000000001
 21
137.02600000000001
 31
0.0
  0
LINE
  5
97
  8
0
 62
     7
 10
26.428699999999999
 20
150.227
 30
0.0
 11
26.428699999999999
 21
130.292
 31
0.0
  0
LINE
  5
98
  8
0
 62
     7
 10
88.929299999999984
 20
150.364
 30
0.0
 11
88.929299999999984
 21
137.02600000000001
 31
0.0
  0
LINE
  5
99
  8
0
 62
     7
 10
90.595699999999994
 20
150.227
 30
0.0
 11
90.595699999999994
 21
130.30699999999999
 31
0.0
  0
LINE
  5
9A
  8
0
 62
     7
 10
140.15299999999991
 20
106.98
 30
0.0
 11
139.55999999999989
 21
109.191
 31
0.0
  0
LINE
  5
9B
  8
0
 62
     7
 10
139.55999999999989
 20
109.191
 30
0.0
 11
138.96799999999999
 21
106.98
 31
0.0
  0
LINE
  5
9C
  8
0
 62
     7
 10
138.96799999999999
 20
106.98
 30
0.0
 11
140.15299999999991
 21
106.98
 31
0.0
  0
LINE
  5
9D
  8
0
 62
     7
 10
138.982
 20
93.068799999999996
 30
0.0
 11
139.5749999999999
 21
90.856999999999999
 31
0.0
  0
LINE
  5
9E
  8
0
 62
     7
 10
139.5749999999999
 20
90.856999999999999
 30
0.0
 11
140.167
 21
93.068799999999996
 31
0.0
  0
LINE
  5
9F
  8
0
 62
     7
 10
140.167
 20
93.068799999999996
 30
0.0
 11
138.982
 21
93.068799999999996
 31
0.0
  0
LINE
  5
A0
  8
0
 62
     7
 10
139.5679999999999
 20
109.19
 30
0.0
 11
139.5679999999999
 21
90.857699999999994
 31
0.0
  0
ARC
  5
A1
  8
0
  6
AIGENLINE001
 62
     7
 10
150.70148399999999
 20
111.673901
 30
0.0
 40
21.751341
 50
349.59890399999989
 51
353.44524000000001
  0
ARC
  5
A2
  8
0
  6
AIGENLINE001
 62
     7
 10
155.0088439999999
 20
111.0113909999999
 30
0.0
 40
17.395607999999999
 50
315.72828700000002
 51
349.18383299999999
  0
ARC
  5
A3
  8
0
  6
AIGENLINE001
 62
     7
 10
153.178347
 20
112.692134
 30
0.0
 40
19.879712999999992
 50
304.92228499999999
 51
315.94250199999999
  0
ARC
  5
A4
  8
0
  6
AIGENLINE001
 62
     7
 10
150.818364
 20
115.89544099999991
 30
0.0
 40
23.857420999999992
 50
296.01272599999987
 51
305.16542199999998
  0
ARC
  5
A5
  8
0
  6
AIGENLINE001
 62
     7
 10
148.204105
 20
120.950423
 30
0.0
 40
29.547149999999998
 50
289.20528000000002
 51
296.2695819999999
  0
ARC
  5
A6
  8
0
  6
AIGENLINE001
 62
     7
 10
145.64377400000001
 20
127.91706599999991
 30
0.0
 40
36.968517999999989
 50
282.96502199999998
 51
289.40077300000002
  0
ARC
  5
A7
  8
0
  6
AIGENLINE001
 62
     7
 10
143.3337919999999
 20
137.201795
 30
0.0
 40
46.535115999999988
 50
278.55988300000001
 51
283.17188199999993
  0
ARC
  5
A8
  8
0
  6
AIGENLINE001
 62
     7
 10
141.83740599999999
 20
146.342962
 30
0.0
 40
55.797311000000001
 50
276.0593859999999
 51
278.68220200000002
  0
LINE
  5
A9
  8
0
 62
     7
 10
159.51400000000001
 20
90.737199999999987
 30
0.0
 11
141.89400000000001
 21
90.737199999999987
 31
0.0
  0
LINE
  5
AA
  8
0
 62
     7
 10
171.80500000000001
 20
98.357100000000003
 30
0.0
 11
141.89400000000001
 21
98.357100000000003
 31
0.0
  0
ARC
  5
AB
  8
0
 62
     7
 10
133.53595499999989
 20
109.540531
 30
0.0
 40
40.458157
 50
345.96035999999998
 51
358.33568199999991
  0
ARC
  5
AC
  8
0
 62
     7
 10
139.09446899999989
 20
108.2847439999999
 30
0.0
 40
34.761284000000003
 50
344.41260799999998
 51
345.74578300000002
  0
ARC
  5
AD
  8
0
 62
     7
 10
173.144372
 20
108.3578949999999
 30
0.0
 40
0.8335930000000001
 50
2.131680999999999
 51
87.892916000000014
  0
ARC
  5
AE
  8
0
 62
     7
 10
173.2956189999999
 20
108.38721099999999
 30
0.0
 40
0.681771
 50
358.17293199999989
 51
0.14202
  0
ARC
  5
AF
  8
0
 62
     7
 10
171.7866479999999
 20
99.182731000000004
 30
0.0
 40
0.8258680000000001
 50
271.26620400000002
 51
343.20606700000002
  0
LINE
  5
B0
  8
0
 62
     7
 10
158.56100000000001
 20
85.857500000000002
 30
0.0
 11
141.89400000000001
 21
85.857500000000002
 31
0.0
  0
LINE
  5
B1
  8
0
 62
     7
 10
173.17500000000001
 20
109.191
 30
0.0
 11
141.89400000000001
 21
109.191
 31
0.0
  0
ARC
  5
B2
  8
0
 62
     7
 10
170.698733
 20
97.544248999999994
 30
0.0
 40
0.812828
 50
90.320110999999983
 51
139.466701
  0
ARC
  5
B3
  8
0
 62
     7
 10
159.760389
 20
90.125185999999985
 30
0.0
 40
0.6596700000000001
 50
111.9227919999999
 51
175.13671199999999
  0
LINE
  5
B4
  8
0
 62
     7
 10
158.566
 20
85.857500000000002
 30
0.0
 11
159.10299999999989
 21
90.181100000000001
 31
0.0
  0
LINE
  5
B5
  8
0
  6
AIGENLINE001
 62
     7
 10
147.727
 20
90.857399999999984
 30
0.0
 11
145.727
 21
87.524199999999979
 31
0.0
  0
LINE
  5
B6
  8
0
  6
AIGENLINE001
 62
     7
 10
147.727
 20
90.857399999999984
 30
0.0
 11
141.89400000000001
 21
90.857399999999984
 31
0.0
  0
LINE
  5
B7
  8
0
  6
AIGENLINE001
 62
     7
 10
145.727
 20
87.524199999999979
 30
0.0
 11
141.89400000000001
 21
87.524199999999979
 31
0.0
  0
LINE
  5
B8
  8
0
  6
AIGENLINE002
 62
     7
 10
145.727
 20
87.524199999999979
 30
0.0
 11
145.727
 21
85.857500000000002
 31
0.0
  0
ARC
  5
B9
  8
0
  6
AIGENLINE001
 62
     7
 10
133.08626100000001
 20
111.673901
 30
0.0
 40
21.751341
 50
186.55477999999991
 51
190.40111599999989
  0
ARC
  5
BA
  8
0
  6
AIGENLINE001
 62
     7
 10
128.77890099999999
 20
111.0113909999999
 30
0.0
 40
17.395607999999999
 50
190.81618700000001
 51
224.27173300000001
  0
ARC
  5
BB
  8
0
  6
AIGENLINE001
 62
     7
 10
130.60939799999991
 20
112.692134
 30
0.0
 40
19.879712999999992
 50
224.05751799999999
 51
235.07773399999999
  0
ARC
  5
BC
  8
0
  6
AIGENLINE001
 62
     7
 10
132.96938099999991
 20
115.89544099999991
 30
0.0
 40
23.857420999999992
 50
234.83459799999989
 51
243.98729399999991
  0
ARC
  5
BD
  8
0
  6
AIGENLINE001
 62
     7
 10
135.58364
 20
120.950423
 30
0.0
 40
29.547149999999998
 50
243.73043799999999
 51
250.7947399999999
  0
ARC
  5
BE
  8
0
  6
AIGENLINE001
 62
     7
 10
138.14397099999991
 20
127.91706599999991
 30
0.0
 40
36.968517999999989
 50
250.59924699999999
 51
257.03499799999992
  0
ARC
  5
BF
  8
0
  6
AIGENLINE001
 62
     7
 10
140.45395300000001
 20
137.201795
 30
0.0
 40
46.535115999999988
 50
256.82813799999991
 51
261.44013699999988
  0
ARC
  5
C0
  8
0
  6
AIGENLINE001
 62
     7
 10
141.9503389999999
 20
146.342962
 30
0.0
 40
55.797311000000001
 50
261.31781799999987
 51
263.94063399999987
  0
LINE
  5
C1
  8
0
 62
     7
 10
124.2739999999999
 20
90.737199999999987
 30
0.0
 11
141.89400000000001
 21
90.737199999999987
 31
0.0
  0
LINE
  5
C2
  8
0
 62
     7
 10
111.9829999999999
 20
98.357100000000003
 30
0.0
 11
141.89400000000001
 21
98.357100000000003
 31
0.0
  0
ARC
  5
C3
  8
0
 62
     7
 10
150.25178999999989
 20
109.540531
 30
0.0
 40
40.458157
 50
181.66433799999999
 51
194.03965999999991
  0
ARC
  5
C4
  8
0
 62
     7
 10
144.69327599999991
 20
108.2847439999999
 30
0.0
 40
34.761284000000003
 50
194.2542369999999
 51
195.587412
  0
ARC
  5
C5
  8
0
 62
     7
 10
110.643373
 20
108.3578949999999
 30
0.0
 40
0.8335930000000001
 50
92.107064000000008
 51
177.8683
  0
ARC
  5
C6
  8
0
 62
     7
 10
110.49211199999991
 20
108.38721099999999
 30
0.0
 40
0.681758
 50
179.8579409999999
 51
181.82710800000001
  0
ARC
  5
C7
  8
0
 62
     7
 10
112.001097
 20
99.182731000000004
 30
0.0
 40
0.8258680000000001
 50
196.79395299999999
 51
268.73381499999999
  0
LINE
  5
C8
  8
0
 62
     7
 10
125.2269999999999
 20
85.857500000000002
 30
0.0
 11
141.89400000000001
 21
85.857500000000002
 31
0.0
  0
LINE
  5
C9
  8
0
 62
     7
 10
110.613
 20
109.191
 30
0.0
 11
141.89400000000001
 21
109.191
 31
0.0
  0
ARC
  5
CA
  8
0
 62
     7
 10
113.089353
 20
97.544235999999998
 30
0.0
 40
0.8128399999999999
 50
40.533836000000001
 51
89.703880999999996
  0
ARC
  5
CB
  8
0
 62
     7
 10
148.3224219999999
 20
116.401112
 30
0.0
 40
28.449466000000001
 50
316.58266900000001
 51
319.89041600000002
  0
ARC
  5
CC
  8
0
 62
     7
 10
156.46909600000001
 20
108.82189699999989
 30
0.0
 40
17.322997999999998
 50
304.41036800000001
 51
316.2718319999999
  0
ARC
  5
CD
  8
0
 62
     7
 10
122.31841799999999
 20
157.18547000000001
 30
0.0
 40
76.527243999999996
 50
303.77391999999998
 51
305.04202400000003
  0
ARC
  5
CE
  8
0
 62
     7
 10
143.29638399999999
 20
125.9391509999999
 30
0.0
 40
38.89217399999999
 50
300.47072200000002
 51
303.67476099999988
  0
ARC
  5
CF
  8
0
 62
     7
 10
150.504728
 20
113.856031
 30
0.0
 40
24.822682999999991
 50
293.67483299999998
 51
300.2734549999999
  0
ARC
  5
D0
  8
0
 62
     7
 10
152.32098500000001
 20
110.00082999999999
 30
0.0
 40
20.562951999999999
 50
290.47668399999992
 51
293.35339499999998
  0
ARC
  5
D1
  8
0
 62
     7
 10
135.465667
 20
116.401112
 30
0.0
 40
28.449466000000001
 50
220.10960299999999
 51
223.41735099999991
  0
ARC
  5
D2
  8
0
 62
     7
 10
127.31899300000001
 20
108.82189699999989
 30
0.0
 40
17.322997999999998
 50
223.72818699999999
 51
235.58965199999989
  0
ARC
  5
D3
  8
0
 62
     7
 10
124.027356
 20
90.125185999999985
 30
0.0
 40
0.6596700000000001
 50
4.863268999999999
 51
68.077188000000007
  0
ARC
  5
D4
  8
0
 62
     7
 10
161.46967100000001
 20
157.18547000000001
 30
0.0
 40
76.527243999999996
 50
234.95799600000001
 51
236.2261
  0
ARC
  5
D5
  8
0
 62
     7
 10
140.49170499999991
 20
125.9391509999999
 30
0.0
 40
38.89217399999999
 50
236.32525899999999
 51
239.52929800000001
  0
ARC
  5
D6
  8
0
 62
     7
 10
133.28336200000001
 20
113.856031
 30
0.0
 40
24.822682999999991
 50
239.72656499999991
 51
246.325187
  0
ARC
  5
D7
  8
0
 62
     7
 10
131.467105
 20
110.00082999999999
 30
0.0
 40
20.562951999999999
 50
246.64662499999989
 51
249.52333599999989
  0
LINE
  5
D8
  8
0
 62
     7
 10
125.22199999999999
 20
85.857500000000002
 30
0.0
 11
124.685
 21
90.181100000000001
 31
0.0
  0
LINE
  5
D9
  8
0
  6
AIGENLINE001
 62
     7
 10
136.06
 20
90.857399999999984
 30
0.0
 11
138.06100000000001
 21
87.524199999999979
 31
0.0
  0
LINE
  5
DA
  8
0
  6
AIGENLINE001
 62
     7
 10
136.06
 20
90.857399999999984
 30
0.0
 11
141.89400000000001
 21
90.857399999999984
 31
0.0
  0
LINE
  5
DB
  8
0
  6
AIGENLINE001
 62
     7
 10
138.06100000000001
 20
87.524199999999979
 30
0.0
 11
141.89400000000001
 21
87.524199999999979
 31
0.0
  0
LINE
  5
DC
  8
0
  6
AIGENLINE002
 62
     7
 10
138.06100000000001
 20
87.524199999999979
 30
0.0
 11
138.06100000000001
 21
85.857500000000002
 31
0.0
  0
LINE
  5
DD
  8
0
  6
AIGENLINE003
 62
     7
 10
141.89400000000001
 20
112.524
 30
0.0
 11
141.89400000000001
 21
82.523999999999987
 31
0.0
  0
LINE
  5
DE
  8
0
 62
     7
 10
76.132300000000001
 20
90.737199999999987
 30
0.0
 11
58.5124
 21
90.737199999999987
 31
0.0
  0
LINE
  5
DF
  8
0
 62
     7
 10
88.423199999999994
 20
98.357100000000003
 30
0.0
 11
58.5124
 21
98.357100000000003
 31
0.0
  0
ARC
  5
E0
  8
0
 62
     7
 10
50.140062999999998
 20
109.5409529999999
 30
0.0
 40
40.472397999999991
 50
345.964786
 51
358.33566999999988
  0
ARC
  5
E1
  8
0
 62
     7
 10
55.753923
 20
108.27364900000001
 30
0.0
 40
34.719035999999988
 50
344.41216700000001
 51
345.74696199999988
  0
ARC
  5
E2
  8
0
 62
     7
 10
89.763051000000004
 20
108.3582429999999
 30
0.0
 40
0.8332450000000001
 50
2.108579999999999
 51
87.891409999999979
  0
ARC
  5
E3
  8
0
 62
     7
 10
89.916158999999993
 20
108.387179
 30
0.0
 40
0.679575
 50
358.16975000000002
 51
0.145202
  0
ARC
  5
E4
  8
0
 62
     7
 10
88.406077999999994
 20
99.181765000000013
 30
0.0
 40
0.8248790000000001
 50
271.19224199999991
 51
343.25541399999997
  0
LINE
  5
E5
  8
0
 62
     7
 10
75.179299999999984
 20
85.857500000000002
 30
0.0
 11
58.5124
 21
85.857500000000002
 31
0.0
  0
LINE
  5
E6
  8
0
 62
     7
 10
89.793700000000015
 20
109.191
 30
0.0
 11
58.5124
 21
109.191
 31
0.0
  0
ARC
  5
E7
  8
0
 62
     7
 10
87.317665000000005
 20
97.542974999999984
 30
0.0
 40
0.814103
 50
90.336783999999994
 51
139.42545899999999
  0
ARC
  5
E8
  8
0
 62
     7
 10
76.377393000000012
 20
90.126456000000005
 30
0.0
 40
0.6580560000000001
 50
111.86973399999999
 51
175.23569599999999
  0
LINE
  5
E9
  8
0
 62
     7
 10
75.1845
 20
85.857500000000002
 30
0.0
 11
75.721599999999995
 21
90.181100000000001
 31
0.0
  0
LINE
  5
EA
  8
0
 62
     7
 10
40.892200000000003
 20
90.737199999999987
 30
0.0
 11
58.5124
 21
90.737199999999987
 31
0.0
  0
LINE
  5
EB
  8
0
 62
     7
 10
28.601199999999999
 20
98.357100000000003
 30
0.0
 11
58.5124
 21
98.357100000000003
 31
0.0
  0
ARC
  5
EC
  8
0
 62
     7
 10
66.870133999999993
 20
109.540531
 30
0.0
 40
40.458157
 50
181.66433799999999
 51
194.03965999999991
  0
ARC
  5
ED
  8
0
 62
     7
 10
61.311618999999993
 20
108.2847439999999
 30
0.0
 40
34.761284000000003
 50
194.2542369999999
 51
195.587412
  0
ARC
  5
EE
  8
0
 62
     7
 10
27.261717000000001
 20
108.3578949999999
 30
0.0
 40
0.8335930000000001
 50
92.107064000000008
 51
177.8683
  0
ARC
  5
EF
  8
0
 62
     7
 10
27.108259999999991
 20
108.387179
 30
0.0
 40
0.679562
 50
179.854759
 51
181.83028999999991
  0
ARC
  5
F0
  8
0
 62
     7
 10
28.619165999999989
 20
99.182368999999994
 30
0.0
 40
0.8255
 50
196.77541199999999
 51
268.75235600000002
  0
LINE
  5
F1
  8
0
 62
     7
 10
41.845399999999998
 20
85.857500000000002
 30
0.0
 11
58.5124
 21
85.857500000000002
 31
0.0
  0
LINE
  5
F2
  8
0
 62
     7
 10
27.231100000000001
 20
109.191
 30
0.0
 11
58.5124
 21
109.191
 31
0.0
  0
ARC
  5
F3
  8
0
 62
     7
 10
29.707111999999999
 20
97.542974999999984
 30
0.0
 40
0.814103
 50
40.574520999999997
 51
89.663195999999999
  0
ARC
  5
F4
  8
0
 62
     7
 10
40.646729999999991
 20
90.125821000000016
 30
0.0
 40
0.6587600000000001
 50
4.8145889999999989
 51
68.125868000000011
  0
LINE
  5
F5
  8
0
 62
     7
 10
41.840299999999992
 20
85.857500000000002
 30
0.0
 11
41.303199999999997
 21
90.181100000000001
 31
0.0
  0
ARC
  5
F6
  8
0
 62
     7
 10
83.758550999999997
 20
203.30653199999989
 30
0.0
 40
5.1707769999999993
 50
0.00001
 51
89.999980000000008
  0
ARC
  5
F7
  8
0
 62
     7
 10
83.758724000000001
 20
152.8147229999999
 30
0.0
 40
5.1706050000000001
 50
269.99811099999988
 51
359.99808100000001
  0
ARC
  5
F8
  8
0
 62
     7
 10
83.758550999999997
 20
203.305498
 30
0.0
 40
6.8371810000000002
 50
0.00001
 51
89.999980000000008
  0
ARC
  5
F9
  8
0
 62
     7
 10
83.758550999999997
 20
152.81420600000001
 30
0.0
 40
6.8371810000000002
 50
270.00002000000001
 51
359.99998999999991
  0
LINE
  5
FA
  8
0
 62
     7
 10
88.929299999999984
 20
203.30699999999999
 30
0.0
 11
88.929299999999984
 21
152.81399999999999
 31
0.0
  0
LINE
  5
FB
  8
0
 62
     7
 10
58.5124
 20
208.477
 30
0.0
 11
83.758600000000015
 21
208.477
 31
0.0
  0
LINE
  5
FC
  8
0
 62
     7
 10
58.5124
 20
210.14400000000001
 30
0.0
 11
83.758600000000015
 21
210.14400000000001
 31
0.0
  0
LINE
  5
FD
  8
0
 62
     7
 10
83.758600000000015
 20
147.64400000000001
 30
0.0
 11
58.5124
 21
147.64400000000001
 31
0.0
  0
LINE
  5
FE
  8
0
 62
     7
 10
83.758600000000015
 20
145.97699999999989
 30
0.0
 11
58.5124
 21
145.97699999999989
 31
0.0
  0
LINE
  5
FF
  8
0
 62
     7
 10
90.595699999999994
 20
203.30500000000001
 30
0.0
 11
90.595699999999994
 21
152.81399999999999
 31
0.0
  0
ARC
  5
100
  8
0
 62
     7
 10
33.266224999999999
 20
203.30653199999989
 30
0.0
 40
5.1707769999999993
 50
90.0
 51
179.99996999999991
  0
ARC
  5
101
  8
0
 62
     7
 10
33.266050999999997
 20
152.81472099999999
 30
0.0
 40
5.1706029999999989
 50
180.00191899999999
 51
270.00192900000002
  0
ARC
  5
102
  8
0
 62
     7
 10
33.266052999999999
 20
203.30532599999989
 30
0.0
 40
6.8373530000000002
 50
89.998556999999991
 51
179.998527
  0
ARC
  5
103
  8
0
 62
     7
 10
33.266050999999997
 20
152.81437600000001
 30
0.0
 40
6.8373509999999991
 50
180.001453
 51
270.001463
  0
ARC
  5
104
  8
0
 62
     7
 10
58.512215000000012
 20
178.0591639999999
 30
0.0
 40
5.8334460000000004
 50
270.001712
 51
0.001682
  0
ARC
  5
105
  8
0
 62
     7
 10
58.512560000000001
 20
178.05916199999999
 30
0.0
 40
5.8334440000000001
 50
179.998278
 51
269.9983279999999
  0
ARC
  5
106
  8
0
 62
     7
 10
58.512388999999999
 20
178.059335
 30
0.0
 40
5.8332739999999994
 50
90.0
 51
179.99996999999991
  0
ARC
  5
107
  8
0
 62
     7
 10
58.51238699999999
 20
178.059335
 30
0.0
 40
5.8332739999999994
 50
0.00001
 51
89.999980000000008
  0
ARC
  5
108
  8
0
 62
     7
 10
58.512388000000001
 20
178.059336
 30
0.0
 40
3.8333829999999991
 50
270.00002000000001
 51
359.99998999999991
  0
ARC
  5
109
  8
0
 62
     7
 10
58.512388000000001
 20
178.059335
 30
0.0
 40
3.8333809999999988
 50
179.99996999999991
 51
270.00002000000001
  0
ARC
  5
10A
  8
0
 62
     7
 10
58.512388999999999
 20
178.059335
 30
0.0
 40
3.8333829999999991
 50
90.0
 51
179.99996999999991
  0
ARC
  5
10B
  8
0
 62
     7
 10
58.512388000000001
 20
178.059335
 30
0.0
 40
3.8333829999999991
 50
0.00001
 51
89.999980000000008
  0
ARC
  5
10C
  8
0
 62
     7
 10
166.22759600000001
 20
153.72681799999989
 30
0.0
 40
4.9999000000000002
 50
270.00002000000001
 51
359.99998999999991
  0
ARC
  5
10D
  8
0
 62
     7
 10
166.22759600000001
 20
202.392887
 30
0.0
 40
4.9999000000000002
 50
0.00001
 51
89.999980000000008
  0
LINE
  5
10E
  8
0
 62
     7
 10
141.89400000000001
 20
148.726
 30
0.0
 11
166.22799999999989
 21
148.726
 31
0.0
  0
LINE
  5
10F
  8
0
 62
     7
 10
141.89400000000001
 20
207.39299999999989
 30
0.0
 11
166.22799999999989
 21
207.39299999999989
 31
0.0
  0
LINE
  5
110
  8
0
 62
     7
 10
171.227
 20
202.393
 30
0.0
 11
171.227
 21
153.727
 31
0.0
  0
ARC
  5
111
  8
0
 62
     7
 10
117.560492
 20
153.7268159999999
 30
0.0
 40
4.9998979999999991
 50
179.99996999999991
 51
270.00002000000001
  0
ARC
  5
112
  8
0
 62
     7
 10
117.56049299999989
 20
202.392887
 30
0.0
 40
4.9999000000000002
 50
90.0
 51
179.99996999999991
  0
LINE
  5
113
  8
0
 62
     7
 10
141.89400000000001
 20
148.726
 30
0.0
 11
117.5599999999999
 21
148.726
 31
0.0
  0
LINE
  5
114
  8
0
  6
AIGENLINE003
 62
     7
 10
58.5124
 20
112.524
 30
0.0
 11
58.5124
 21
82.523999999999987
 31
0.0
  0
LINE
  5
115
  8
0
  6
AIGENLINE003
 62
     7
 10
58.5124
 20
212.393
 30
0.0
 11
58.5124
 21
143.726
 31
0.0
  0
LINE
  5
116
  8
0
  6
AIGENLINE003
 62
     7
 10
92.845699999999994
 20
178.059
 30
0.0
 11
24.178699999999999
 21
178.059
 31
0.0
  0
LINE
  5
117
  8
0
  6
AIGENLINE003
 62
     7
 10
141.89400000000001
 20
210.726
 30
0.0
 11
141.89400000000001
 21
145.39199999999991
 31
0.0
  0
LINE
  5
118
  8
0
  6
AIGENLINE003
 62
     7
 10
174.56099999999989
 20
178.059
 30
0.0
 11
109.227
 21
178.059
 31
0.0
  0
LINE
  5
119
  8
0
 62
     7
 10
141.89400000000001
 20
207.39299999999989
 30
0.0
 11
117.5599999999999
 21
207.39299999999989
 31
0.0
  0
LINE
  5
11A
  8
0
 62
     7
 10
112.56099999999989
 20
202.393
 30
0.0
 11
112.56099999999989
 21
153.727
 31
0.0
  0
LINE
  5
11B
  8
0
 62
     7
 10
28.095400000000001
 20
203.30699999999999
 30
0.0
 11
28.095400000000001
 21
152.81399999999999
 31
0.0
  0
LINE
  5
11C
  8
0
 62
     7
 10
58.5124
 20
208.477
 30
0.0
 11
33.266199999999998
 21
208.477
 31
0.0
  0
LINE
  5
11D
  8
0
 62
     7
 10
58.5124
 20
210.14400000000001
 30
0.0
 11
33.266199999999998
 21
210.14400000000001
 31
0.0
  0
LINE
  5
11E
  8
0
 62
     7
 10
33.266199999999998
 20
147.64400000000001
 30
0.0
 11
58.5124
 21
147.64400000000001
 31
0.0
  0
LINE
  5
11F
  8
0
 62
     7
 10
33.266199999999998
 20
145.97699999999989
 30
0.0
 11
58.5124
 21
145.97699999999989
 31
0.0
  0
LINE
  5
120
  8
0
 62
     7
 10
26.428699999999999
 20
203.30500000000001
 30
0.0
 11
26.428699999999999
 21
152.81399999999999
 31
0.0
  0
LINE
  5
121
  8
_________2
 62
     7
 10
152.4499999999999
 20
258.911
 30
0.0
 11
152.4499999999999
 21
244.91099999999989
 31
0.0
  0
LINE
  5
122
  8
_________2
 62
     7
 10
169.8059999999999
 20
258.911
 30
0.0
 11
169.8059999999999
 21
244.91099999999989
 31
0.0
  0
TEXT
  5
123
  8
_________2
 62
     7
 10
172.13725049999991
 20
247.06099999999989
 30
0.0
 40
3.9929099999999988
  1
ホワイト
 41
0.5
 72
     1
 11
176.59599999999989
 21
247.06099999999989
 31
0.0
  0
TEXT
  5
124
  8
_________2
 62
     7
 10
174.4664479999999
 20
254.06200000000001
 30
0.0
 40
3.9929099999999988
  1
仕上
 41
0.5
 72
     1
 11
176.59599999999989
 21
254.06200000000001
 31
0.0
  0
TEXT
  5
125
  8
_________2
 62
     7
 10
154.31514999999999
 20
247.06200000000001
 30
0.0
 40
3.9929099999999988
  1
VR4441R
 41
0.5
 72
     1
 11
160.97
 21
247.06200000000001
 31
0.0
  0
TEXT
  5
126
  8
_________2
 62
     7
 10
158.84044800000001
 20
254.06200000000001
 30
0.0
 40
3.9929099999999988
  1
品番
 41
0.5
 72
     1
 11
160.97
 21
254.06200000000001
 31
0.0
  0
LINE
  5
127
  8
_________2
 62
     7
 10
152.4499999999999
 20
244.91099999999989
 30
0.0
 11
183.55099999999999
 21
244.91099999999989
 31
0.0
  0
LINE
  5
128
  8
_________2
 62
     7
 10
152.4499999999999
 20
251.91099999999989
 30
0.0
 11
183.55099999999999
 21
251.91099999999989
 31
0.0
  0
TEXT
  5
129
  8
_________2
 62
     7
 10
39.078280833333331
 20
13.603400000000001
 30
0.0
 40
4.3256500000000004
  1
早川
 41
0.5
 72
     1
 11
41.313200000000002
 21
13.603400000000001
 31
0.0
  0
TEXT
  5
12A
  8
_________2
 62
     7
 10
24.586400000000001
 20
0.707627
 30
0.0
 40
4.6583899999999989
  1
重量：6.6kg、オーバーフローなし
 41
0.5
  0
TEXT
  5
12B
  8
_________2
 62
     7
 10
109.179
 20
24.226099999999999
 30
0.0
 40
4.6583899999999989
  1
ウォータージュエル 洗面器
 41
0.5
  0
LINE
  5
12C
  8
_________2
 62
     7
 10
205.30099999999999
 20
127.411
 30
0.0
 11
183.55099999999999
 21
127.411
 31
0.0
  0
LINE
  5
12D
  8
_________2
 62
     7
 10
100.2999999999999
 20
-4.0910799999999998
 30
0.0
 11
100.2999999999999
 21
-21.070999999999991
 31
0.0
  0
LINE
  5
12E
  8
_________2
 62
     7
 10
100.2999999999999
 20
275.93099999999993
 30
0.0
 11
100.2999999999999
 21
258.911
 31
0.0
  0
LINE
  5
12F
  8
_________2
 62
     7
 10
17.049199999999988
 20
127.411
 30
0.0
 11
-4.7012099999999988
 21
127.411
 31
0.0
  0
LINE
  5
130
  8
_________2
 62
     7
 10
76.740700000000004
 20
29.8047
 30
0.0
 11
74.554400000000001
 21
29.8047
 31
0.0
  0
LINE
  5
131
  8
_________2
 62
     7
 10
77.2333
 20
29.8047
 30
0.0
 11
76.981099999999984
 21
29.8047
 31
0.0
  0
LINE
  5
132
  8
_________2
 62
     7
 10
77.725999999999999
 20
29.8047
 30
0.0
 11
80.650899999999993
 21
29.8047
 31
0.0
  0
LINE
  5
133
  8
_________2
 62
     7
 10
77.2333
 20
29.8047
 30
0.0
 11
77.485500000000002
 21
29.8047
 31
0.0
  0
LINE
  5
134
  8
_________2
 62
     7
 10
70.837100000000007
 20
29.8047
 30
0.0
 11
68.650199999999998
 21
29.8047
 31
0.0
  0
LINE
  5
135
  8
_________2
 62
     7
 10
71.329099999999997
 20
29.8047
 30
0.0
 11
71.077600000000004
 21
29.8047
 31
0.0
  0
LINE
  5
136
  8
_________2
 62
     7
 10
71.329099999999997
 20
30.2974
 30
0.0
 11
71.329099999999997
 21
32.484400000000001
 31
0.0
  0
LINE
  5
137
  8
_________2
 62
     7
 10
71.329099999999997
 20
29.8047
 30
0.0
 11
71.329099999999997
 21
30.057300000000001
 31
0.0
  0
LINE
  5
138
  8
_________2
 62
     7
 10
71.821700000000007
 20
29.8047
 30
0.0
 11
74.008700000000005
 21
29.8047
 31
0.0
  0
LINE
  5
139
  8
_________2
 62
     7
 10
71.329099999999997
 20
29.8047
 30
0.0
 11
71.581299999999985
 21
29.8047
 31
0.0
  0
LINE
  5
13A
  8
_________2
 62
     7
 10
71.329099999999997
 20
29.312799999999999
 30
0.0
 11
71.329099999999997
 21
27.126200000000001
 31
0.0
  0
LINE
  5
13B
  8
_________2
 62
     7
 10
71.329099999999997
 20
29.8047
 30
0.0
 11
71.329099999999997
 21
29.5532
 31
0.0
  0
LINE
  5
13C
  8
_________2
 62
     7
 10
75.040199999999999
 20
28.5852
 30
0.0
 11
80.218199999999996
 21
27.720400000000001
 31
0.0
  0
LINE
  5
13D
  8
_________2
 62
     7
 10
75.040199999999999
 20
31.024699999999999
 30
0.0
 11
80.218199999999996
 21
31.8901
 31
0.0
  0
LINE
  5
13E
  8
_________2
 62
     7
 10
80.218199999999996
 20
27.720400000000001
 30
0.0
 11
80.218199999999996
 21
31.8901
 31
0.0
  0
LINE
  5
13F
  8
_________2
 62
     7
 10
75.040199999999999
 20
28.5852
 30
0.0
 11
75.040199999999999
 21
31.024699999999999
 31
0.0
  0
ARC
  5
140
  8
_________2
 62
     7
 10
71.282501999999994
 20
29.757801000000001
 30
0.0
 40
1.267714
 50
2.1220840000000001
 51
87.894083999999992
  0
ARC
  5
141
  8
_________2
 62
     7
 10
71.375640000000004
 20
29.758545999999999
 30
0.0
 40
1.2669680000000001
 50
92.105782999999988
 51
177.91037
  0
ARC
  5
142
  8
_________2
 62
     7
 10
71.376013999999998
 20
29.851671
 30
0.0
 40
1.2673680000000001
 50
182.12203600000001
 51
267.877993
  0
ARC
  5
143
  8
_________2
 62
     7
 10
71.282195999999999
 20
29.852347999999999
 30
0.0
 40
1.2680439999999991
 50
272.11916400000001
 51
357.84848499999993
  0
ARC
  5
144
  8
_________2
 62
     7
 10
71.248716999999985
 20
29.724731999999989
 30
0.0
 40
2.1668310000000002
 50
2.1161439999999989
 51
87.874379000000005
  0
ARC
  5
145
  8
_________2
 62
     7
 10
71.408756000000011
 20
29.726146
 30
0.0
 40
2.165392999999999
 50
92.108508999999998
 51
177.91986499999999
  0
ARC
  5
146
  8
_________2
 62
     7
 10
71.409094999999994
 20
29.884751999999999
 30
0.0
 40
2.1657829999999998
 50
182.117133
 51
267.88289700000001
  0
ARC
  5
147
  8
_________2
 62
     7
 10
71.249115000000003
 20
29.885429999999989
 30
0.0
 40
2.1664590000000001
 50
272.11546800000002
 51
357.86560400000002
  0
TEXT
  5
148
  8
_________2
 62
     7
 10
104.605
 20
1.6794899999999999
 30
0.0
 40
3.660169999999999
  1
図番
 41
0.5
  0
LINE
  5
149
  8
_________2
 62
     7
 10
103.55
 20
5.9087199999999989
 30
0.0
 11
183.55099999999999
 21
5.9087199999999989
 31
0.0
  0
TEXT
  5
14A
  8
_________2
 62
     7
 10
104.605
 20
11.679299999999991
 30
0.0
 40
3.660169999999999
  1
品番
 41
0.5
  0
TEXT
  5
14B
  8
_________2
 62
     7
 10
104.605
 20
31.8184
 30
0.0
 40
3.660169999999999
  1
名称
 41
0.5
  0
TEXT
  5
14C
  8
_________2
 62
     7
 10
91.565145833333347
 20
26.822299999999998
 30
0.0
 40
4.3256500000000004
  1
mm
 41
0.5
 72
     1
 11
93.367500000000007
 21
26.822299999999998
 31
0.0
  0
TEXT
  5
14D
  8
_________2
 62
     7
 10
85.642899999999983
 20
31.8184
 30
0.0
 40
3.660169999999999
  1
単位
 41
0.5
  0
TEXT
  5
14E
  8
_________2
 62
     7
 10
85.642899999999983
 20
19.410799999999991
 30
0.0
 40
3.660169999999999
  1
尺度
 41
0.5
  0
TEXT
  5
14F
  8
_________2
 62
     7
 10
89.922126666666671
 20
13.218199999999991
 30
0.0
 40
4.3256500000000004
  1
1 ： 6
 41
0.5
 72
     1
 11
93.959400000000016
 21
13.218199999999991
 31
0.0
  0
TEXT
  5
150
  8
_________2
 62
     7
 10
135.7860166666666
 20
9.1082000000000001
 30
0.0
 40
4.6583899999999989
  1
VR4441R
 41
0.5
 72
     1
 11
143.55000000000001
 21
9.1082000000000001
 31
0.0
  0
TEXT
  5
151
  8
_________2
 62
     7
 10
135.7860166666666
 20
-0.8926299999999999
 30
0.0
 40
4.6583899999999989
  1
VR4441R
 41
0.5
 72
     1
 11
143.55000000000001
 21
-0.8926299999999999
 31
0.0
  0
TEXT
  5
152
  8
_________2
 62
     7
 10
20.432186666666659
 20
13.603400000000001
 30
0.0
 40
4.3256500000000004
  1
菅原
 41
0.5
 72
     1
 11
22.73919999999999
 21
13.603400000000001
 31
0.0
  0
TEXT
  5
153
  8
_________2
 62
     7
 10
67.785399999999996
 20
13.218199999999991
 30
0.0
 40
4.3256500000000004
  1
15.01.16
 41
0.5
  0
TEXT
  5
154
  8
_________2
 62
     7
 10
66.592699999999994
 20
19.410799999999991
 30
0.0
 40
3.660169999999999
  1
日付
 41
0.5
  0
TEXT
  5
155
  8
_________2
 62
     7
 10
29.638999999999999
 20
19.410799999999991
 30
0.0
 40
3.660169999999999
  1
検図
 41
0.5
  0
TEXT
  5
156
  8
_________2
 62
     7
 10
18.020700000000001
 20
5.21143
 30
0.0
 40
3.660169999999999
  1
備考
 41
0.5
  0
TEXT
  5
157
  8
_________2
 62
     7
 10
18.020700000000001
 20
19.410799999999991
 30
0.0
 40
3.660169999999999
  1
製図
 41
0.5
  0
TEXT
  5
158
  8
_________2
 62
     7
 10
20.594530666666682
 20
27.936800000000002
 30
0.0
 40
5.3238799999999991
  1
セラトレーディング株式会社
 41
0.5
 72
     1
 11
41.180199999999999
 21
27.936800000000002
 31
0.0
  0
LINE
  5
159
  8
_________2
 62
     7
 10
183.55099999999999
 20
-4.0910799999999998
 30
0.0
 11
17.049199999999988
 21
-4.0910799999999998
 31
0.0
  0
LINE
  5
15A
  8
_________2
 62
     7
 10
17.049199999999988
 20
-4.0910799999999998
 30
0.0
 11
17.049199999999988
 21
258.911
 31
0.0
  0
LINE
  5
15B
  8
_________2
 62
     7
 10
17.049199999999988
 20
258.911
 30
0.0
 11
183.55099999999999
 21
258.911
 31
0.0
  0
LINE
  5
15C
  8
_________2
 62
     7
 10
183.55099999999999
 20
258.911
 30
0.0
 11
183.55099999999999
 21
-4.0910799999999998
 31
0.0
  0
LINE
  5
15D
  8
_________2
 62
     7
 10
65.549599999999998
 20
9.4092999999999982
 30
0.0
 11
65.549599999999998
 21
35.909100000000002
 31
0.0
  0
LINE
  5
15E
  8
_________2
 62
     7
 10
84.549400000000006
 20
9.4092999999999982
 30
0.0
 11
84.549400000000006
 21
35.909100000000002
 31
0.0
  0
LINE
  5
15F
  8
_________2
 62
     7
 10
103.55
 20
-4.0910799999999998
 30
0.0
 11
103.55
 21
35.909100000000002
 31
0.0
  0
LINE
  5
160
  8
_________2
 62
     7
 10
28.548999999999999
 20
9.4092999999999982
 30
0.0
 11
28.548999999999999
 21
23.409199999999998
 31
0.0
  0
LINE
  5
161
  8
_________2
 62
     7
 10
17.049199999999988
 20
9.4092999999999982
 30
0.0
 11
103.55
 21
9.4092999999999982
 31
0.0
  0
LINE
  5
162
  8
_________2
 62
     7
 10
17.049199999999988
 20
23.409199999999998
 30
0.0
 11
103.55
 21
23.409199999999998
 31
0.0
  0
LINE
  5
163
  8
_________2
 62
     7
 10
103.55
 20
15.9085
 30
0.0
 11
183.55099999999999
 21
15.9085
 31
0.0
  0
LINE
  5
164
  8
_________2
 62
     7
 10
17.049199999999988
 20
35.909100000000002
 30
0.0
 11
183.55099999999999
 21
35.909100000000002
 31
0.0
  0
ENDSEC
  0
EOF
