  0
SECTION
  2
HEADER
  9
$ACADVER
  1
AC1009
  9
$INSBASE
 10
0.0
 20
0.0
 30
0.0
  9
$EXTMIN
 10
0.238058
 20
0.4482100000000001
 30
0.0
  9
$EXTMAX
 10
210.24000000000001
 20
297.44999999999999
 30
0.0
  9
$LIMMIN
 10
0.0
 20
0.0
  9
$LIMMAX
 10
12.0
 20
9.0
  9
$ORTHOMODE
 70
     0
  9
$REGENMODE
 70
     1
  9
$FILLMODE
 70
     1
  9
$QTEXTMODE
 70
     0
  9
$MIRRTEXT
 70
     1
  9
$DRAGMODE
 70
     2
  9
$LTSCALE
 40
1.0
  9
$OSMODE
 70
    37
  9
$ATTMODE
 70
     1
  9
$TEXTSIZE
 40
0.0
  9
$TRACEWID
 40
0.05
  9
$TEXTSTYLE
  7
STANDARD
  9
$CLAYER
  8
0
  9
$CELTYPE
  6
CONTINUOUS
  9
$CECOLOR
 62
   256
  9
$DIMSCALE
 40
1.0
  9
$DIMASZ
 40
0.18
  9
$DIMEXO
 40
0.0625
  9
$DIMDLI
 40
0.38
  9
$DIMRND
 40
0.0
  9
$DIMDLE
 40
0.0
  9
$DIMEXE
 40
0.18
  9
$DIMTP
 40
0.0
  9
$DIMTM
 40
0.0
  9
$DIMTXT
 40
0.18
  9
$DIMCEN
 40
0.09
  9
$DIMTSZ
 40
0.0
  9
$DIMTOL
 70
     0
  9
$DIMLIM
 70
     0
  9
$DIMTIH
 70
     1
  9
$DIMTOH
 70
     1
  9
$DIMSE1
 70
     0
  9
$DIMSE2
 70
     0
  9
$DIMTAD
 70
     0
  9
$DIMZIN
 70
     0
  9
$DIMBLK
  1

  9
$DIMASO
 70
     1
  9
$DIMSHO
 70
     1
  9
$DIMPOST
  1

  9
$DIMAPOST
  1

  9
$DIMALT
 70
     0
  9
$DIMALTD
 70
     2
  9
$DIMALTF
 40
25.399999999999999
  9
$DIMLFAC
 40
1.0
  9
$DIMTOFL
 70
     0
  9
$DIMTVP
 40
0.0
  9
$DIMTIX
 70
     0
  9
$DIMSOXD
 70
     0
  9
$DIMSAH
 70
     0
  9
$DIMBLK1
  1

  9
$DIMBLK2
  1

  9
$DIMSTYLE
  2
STANDARD
  9
$DIMCLRD
 70
     0
  9
$DIMCLRE
 70
     0
  9
$DIMCLRT
 70
     0
  9
$DIMTFAC
 40
1.0
  9
$DIMGAP
 40
0.09
  9
$LUNITS
 70
     2
  9
$LUPREC
 70
     4
  9
$SKETCHINC
 40
0.1
  9
$FILLETRAD
 40
0.0
  9
$AUNITS
 70
     0
  9
$AUPREC
 70
     0
  9
$MENU
  1
.
  9
$ELEVATION
 40
0.0
  9
$PELEVATION
 40
0.0
  9
$THICKNESS
 40
0.0
  9
$LIMCHECK
 70
     0
  9
$BLIPMODE
 70
     0
  9
$CHAMFERA
 40
0.0
  9
$CHAMFERB
 40
0.0
  9
$SKPOLY
 70
     0
  9
$TDCREATE
 40
2444972.375
  9
$TDUPDATE
 40
2457436.2650689702
  9
$TDINDWG
 40
0.0000277083
  9
$TDUSRTIMER
 40
0.0000277083
  9
$USRTIMER
 70
     1
  9
$ANGBASE
 50
0.0
  9
$ANGDIR
 70
     0
  9
$PDMODE
 70
     0
  9
$PDSIZE
 40
0.0
  9
$PLINEWID
 40
0.0
  9
$COORDS
 70
     1
  9
$SPLFRAME
 70
     0
  9
$SPLINETYPE
 70
     6
  9
$SPLINESEGS
 70
     8
  9
$ATTDIA
 70
     1
  9
$ATTREQ
 70
     1
  9
$HANDLING
 70
     1
  9
$HANDSEED
  5
348
  9
$SURFTAB1
 70
     6
  9
$SURFTAB2
 70
     6
  9
$SURFTYPE
 70
     6
  9
$SURFU
 70
     6
  9
$SURFV
 70
     6
  9
$UCSNAME
  2

  9
$UCSORG
 10
0.0
 20
0.0
 30
0.0
  9
$UCSXDIR
 10
1.0
 20
0.0
 30
0.0
  9
$UCSYDIR
 10
0.0
 20
1.0
 30
0.0
  9
$PUCSNAME
  2

  9
$PUCSORG
 10
0.0
 20
0.0
 30
0.0
  9
$PUCSXDIR
 10
1.0
 20
0.0
 30
0.0
  9
$PUCSYDIR
 10
0.0
 20
1.0
 30
0.0
  9
$USERI1
 70
     0
  9
$USERI2
 70
     0
  9
$USERI3
 70
     0
  9
$USERI4
 70
     0
  9
$USERI5
 70
     0
  9
$USERR1
 40
0.0
  9
$USERR2
 40
0.0
  9
$USERR3
 40
0.0
  9
$USERR4
 40
0.0
  9
$USERR5
 40
0.0
  9
$WORLDVIEW
 70
     1
  9
$SHADEDGE
 70
     3
  9
$SHADEDIF
 70
    70
  9
$TILEMODE
 70
     1
  9
$MAXACTVP
 70
    48
  9
$PLIMCHECK
 70
     0
  9
$PEXTMIN
 10
1.0000000000000000E+020
 20
1.0000000000000000E+020
 30
1.0000000000000000E+020
  9
$PEXTMAX
 10
-1.0000000000000000E+020
 20
-1.0000000000000000E+020
 30
-1.0000000000000000E+020
  9
$PLIMMIN
 10
0.0
 20
0.0
  9
$PLIMMAX
 10
12.0
 20
9.0
  9
$UNITMODE
 70
     0
  9
$VISRETAIN
 70
     1
  9
$PLINEGEN
 70
     0
  9
$PSLTSCALE
 70
     1
  0
ENDSEC
  0
SECTION
  2
TABLES
  0
TABLE
  2
VPORT
 70
     1
  0
VPORT
  2
*ACTIVE
 70
     0
 10
0.0
 20
0.0
 11
1.0
 21
1.0
 12
170.6464204695861
 22
148.72499999999991
 13
0.0
 23
0.0
 14
1.0
 24
1.0
 15
0.0
 25
0.0
 16
0.0
 26
0.0
 36
1.0
 17
0.0
 27
0.0
 37
0.0
 40
283.9561120433716
 41
2.1001926782273599
 42
50.0
 43
0.0
 44
0.0
 50
0.0
 51
0.0
 71
     0
 72
   100
 73
     1
 74
     1
 75
     0
 76
     0
 77
     0
 78
     0
  0
ENDTAB
  0
TABLE
  2
LTYPE
 70
     4
  0
LTYPE
  2
CONTINUOUS
 70
     0
  3
Solid line
 72
    65
 73
     0
 40
0.0
  0
LTYPE
  2
AIGENLINE001
 70
     0
  3
generate AI->DXF Converter
 72
    65
 73
     4
 40
5.8561449999999988
 49
3.5278
 49
-0.776115
 49
0.776115
 49
-0.776115
  0
LTYPE
  2
AIGENLINE002
 70
     0
  3
generate AI->DXF Converter
 72
    65
 73
     6
 40
7.4083750000000004
 49
3.5278
 49
-0.776115
 49
0.776115
 49
-0.776115
 49
0.776115
 49
-0.776115
  0
LTYPE
  2
AIGENLINE003
 70
     0
  3
generate AI->DXF Converter
 72
    65
 73
     2
 40
1.5522299999999991
 49
0.776115
 49
-0.776115
  0
ENDTAB
  0
TABLE
  2
LAYER
 70
     2
  0
LAYER
  2
0
 70
     0
 62
     7
  6
CONTINUOUS
  0
LAYER
  2
_________2
 70
     0
 62
     7
  6
CONTINUOUS
  0
ENDTAB
  0
TABLE
  2
STYLE
 70
     1
  0
STYLE
  2
STANDARD
 70
     0
 40
0.0
 41
0.0
 50
0.0
 71
     0
 42
0.0
  3
TXT
  4
EXTFONT.SHX
  0
ENDTAB
  0
TABLE
  2
VIEW
 70
     0
  0
ENDTAB
  0
TABLE
  2
UCS
 70
     0
  0
ENDTAB
  0
TABLE
  2
APPID
 70
     3
  0
APPID
  2
ACAD
 70
     0
  0
APPID
  2
ACAD_NAV_VCDISPLAY
 70
     0
  0
APPID
  2
ACAD_MLEADERVER
 70
     0
  0
ENDTAB
  0
TABLE
  2
DIMSTYLE
 70
     1
  0
DIMSTYLE
  2
STANDARD
 70
     0
  3

  4

  5

  6

  7

 40
1.0
 41
0.18
 42
0.0625
 43
0.38
 44
0.18
 45
0.0
 46
0.0
 47
0.0
 48
0.0
140
0.18
141
0.09
142
0.0
143
25.399999999999999
144
1.0
145
0.0
146
1.0
147
0.09
 71
     0
 72
     0
 73
     1
 74
     1
 75
     0
 76
     0
 77
     0
 78
     0
170
     0
171
     2
172
     0
173
     0
174
     0
175
     0
176
     0
177
     0
178
     0
  0
ENDTAB
  0
ENDSEC
  0
SECTION
  2
BLOCKS
  0
BLOCK
  8
0
  2
$MODEL_SPACE
 70
     0
 10
0.0
 20
0.0
 30
0.0
  3
$MODEL_SPACE
  1

  0
ENDBLK
  5
1A
  8
0
  0
BLOCK
 67
     1
  8
0
  2
$PAPER_SPACE
 70
     0
 10
0.0
 20
0.0
 30
0.0
  3
$PAPER_SPACE
  1

  0
ENDBLK
  5
17
 67
     1
  8
0
  0
ENDSEC
  0
SECTION
  2
ENTITIES
  0
TEXT
  5
24
  8
0
 62
     7
 10
169.3542875
 20
100.17100000000001
 30
0.0
 40
3.0923400000000001
  1
230
 41
0.5
 72
     1
 11
171.28700000000001
 21
100.17100000000001
 31
0.0
  0
TEXT
  5
25
  8
0
 62
     7
 10
62.249087499999987
 20
179.51400000000001
 30
0.0
 40
3.0923400000000001
  1
760
 41
0.5
 72
     1
 11
64.181799999999996
 21
179.51400000000001
 31
0.0
  0
TEXT
  5
26
  8
0
 62
     7
 10
57.635630000000013
 20
248.07599999999999
 30
0.0
 40
3.0923400000000001
  1
100
 41
0.5
 72
     1
 11
59.181800000000003
 21
248.07599999999999
 31
0.0
  0
TEXT
  5
27
  8
0
 62
     7
 10
67.635729999999995
 20
248.07599999999999
 30
0.0
 40
3.0923400000000001
  1
100
 41
0.5
 72
     1
 11
69.181899999999999
 21
248.07599999999999
 31
0.0
  0
TEXT
  5
28
  8
0
 62
     7
 10
62.249087499999987
 20
132.553
 30
0.0
 40
3.0923400000000001
  1
280
 41
0.5
 72
     1
 11
64.181799999999996
 21
132.553
 31
0.0
  0
TEXT
  5
29
  8
0
 62
     7
 10
139.15075999999999
 20
178.07400000000001
 30
0.0
 40
3.0923400000000001
  1
カウンター切込寸法
 41
0.5
 72
     1
 11
147.39699999999999
 21
178.07400000000001
 31
0.0
  0
TEXT
  5
2A
  8
0
 62
     7
 10
145.46428750000001
 20
188.65799999999999
 30
0.0
 40
3.0923400000000001
  1
680
 41
0.5
 72
     1
 11
147.39699999999999
 21
188.65799999999999
 31
0.0
  0
TEXT
  5
2B
  8
0
 62
     7
 10
62.377934999999987
 20
170.72900000000001
 30
0.0
 40
3.0923400000000001
  1
800
 41
0.5
 72
     1
 11
64.181799999999996
 21
170.72900000000001
 31
0.0
  0
TEXT
  5
2C
  8
0
 62
     7
 10
45.215400000000002
 20
243.96700000000001
 30
0.0
 40
3.0923400000000001
  1
%%c35
 41
0.5
  0
TEXT
  5
2D
  8
0
 62
     7
 10
121.087965
 20
203.654
 30
0.0
 40
3.0923400000000001
  1
R10
 41
0.5
 72
     2
 11
124.438
 21
203.654
 31
0.0
  0
TEXT
  5
2E
  8
0
 62
     7
 10
166.95645400000001
 20
241.214
 30
0.0
 40
3.0923400000000001
  1
壁
 41
0.5
 72
     1
 11
167.678
 21
241.214
 31
0.0
  0
TEXT
  5
2F
  8
0
 62
     7
 10
159.22917799999999
 20
207.96899999999999
 30
0.0
 40
3.0923400000000001
  1
排水口
 41
0.5
 72
     2
 11
164.28
 21
207.96899999999999
 31
0.0
  0
TEXT
  5
30
  8
0
 62
     7
 10
73.441280000000006
 20
207.96899999999999
 30
0.0
 40
3.0923400000000001
  1
%%c46
 41
0.5
 72
     2
 11
77.564400000000006
 21
207.96899999999999
 31
0.0
  0
TEXT
  5
31
  8
0
 62
     7
 10
110.069
 20
120.4493725
 30
0.0
 40
3.0923400000000001
  1
50
 50
90.0
 41
0.5
 72
     1
 11
110.069
 21
121.60899999999999
 31
0.0
  0
TEXT
  5
32
  8
0
 62
     7
 10
116.23099999999999
 20
118.4493725
 30
0.0
 40
3.0923400000000001
  1
90
 50
90.0
 41
0.5
 72
     1
 11
116.23099999999999
 21
119.60899999999999
 31
0.0
  0
TEXT
  5
33
  8
0
 62
     7
 10
157.107
 20
117.1916775
 30
0.0
 40
3.0923400000000001
  1
110
 50
90.0
 41
0.5
 72
     1
 11
157.107
 21
118.60899999999999
 31
0.0
  0
TEXT
  5
34
  8
0
 62
     7
 10
123.378
 20
114.05513500000001
 30
0.0
 40
3.0923400000000001
  1
165
 50
90.0
 41
0.5
 72
     1
 11
123.378
 21
115.85899999999999
 31
0.0
  0
TEXT
  5
35
  8
0
 62
     7
 10
94.582599999999999
 20
207.22513499999999
 30
0.0
 40
3.0923400000000001
  1
315
 50
90.0
 41
0.5
 72
     1
 11
94.582599999999999
 21
209.029
 31
0.0
  0
TEXT
  5
36
  8
0
 62
     7
 10
87.456699999999998
 20
226.6193725
 30
0.0
 40
3.0923400000000001
  1
60
 50
90.0
 41
0.5
 72
     1
 11
87.456699999999998
 21
227.779
 31
0.0
  0
TEXT
  5
37
  8
0
 62
     7
 10
87.456699999999998
 20
232.640525
 30
0.0
 40
3.0923400000000001
  1
65
 50
90.0
 41
0.5
 72
     1
 11
87.456699999999998
 21
233.929
 31
0.0
  0
TEXT
  5
38
  8
0
 62
     7
 10
94.582599999999999
 20
229.22513499999999
 30
0.0
 40
3.0923400000000001
  1
125
 50
90.0
 41
0.5
 72
     1
 11
94.582599999999999
 21
231.029
 31
0.0
  0
TEXT
  5
39
  8
0
 62
     7
 10
136.34399999999999
 20
223.84628749999999
 30
0.0
 40
3.0923400000000001
  1
230
 50
90.0
 41
0.5
 72
     1
 11
136.34399999999999
 21
225.779
 31
0.0
  0
TEXT
  5
3A
  8
0
 62
     7
 10
185.36199999999999
 20
215.47513499999999
 30
0.0
 40
3.0923400000000001
  1
400
 50
90.0
 41
0.5
 72
     1
 11
185.36199999999999
 21
217.279
 31
0.0
  0
TEXT
  5
3B
  8
0
 62
     7
 10
108.286
 20
212.34628749999999
 30
0.0
 40
3.0923400000000001
  1
460
 50
90.0
 41
0.5
 72
     1
 11
108.286
 21
214.279
 31
0.0
  0
TEXT
  5
3C
  8
0
 62
     7
 10
94.582599999999999
 20
185.13399999999999
 30
0.0
 40
3.0923400000000001
  1
20
 50
90.0
 41
0.5
  0
LINE
  5
3D
  8
0
  6
AIGENLINE001
 62
     7
 10
179.31700000000001
 20
119.10899999999999
 30
0.0
 11
185.255
 21
119.10899999999999
 31
0.0
  0
LINE
  5
3E
  8
0
 62
     7
 10
166.012
 20
240.16499999999999
 30
0.0
 11
167.678
 21
237.279
 31
0.0
  0
LINE
  5
3F
  8
0
 62
     7
 10
167.678
 20
237.279
 30
0.0
 11
169.34399999999999
 21
240.16499999999999
 31
0.0
  0
LINE
  5
40
  8
0
 62
     7
 10
169.34399999999999
 20
240.16499999999999
 30
0.0
 11
166.012
 21
240.16499999999999
 31
0.0
  0
LINE
  5
41
  8
0
 62
     7
 10
113.39700000000001
 20
237.279
 30
0.0
 11
110.649
 21
237.279
 31
0.0
  0
LINE
  5
42
  8
0
 62
     7
 10
187.46299999999999
 20
237.279
 30
0.0
 11
181.39699999999999
 21
237.279
 31
0.0
  0
ARC
  5
43
  8
0
 62
     7
 10
180.39693399999999
 20
198.27864299999999
 30
0.0
 40
1.0002040000000001
 50
269.98521899999997
 51
359.98518899999999
  0
ARC
  5
44
  8
0
 62
     7
 10
114.39692700000001
 20
198.27864199999999
 30
0.0
 40
1.0002040000000001
 50
180.01481100000001
 51
270.01482099999998
  0
LINE
  5
45
  8
0
 62
     7
 10
181.39699999999999
 20
237.279
 30
0.0
 11
181.39699999999999
 21
198.27799999999999
 31
0.0
  0
LINE
  5
46
  8
0
 62
     7
 10
113.39700000000001
 20
237.279
 30
0.0
 11
113.39700000000001
 21
198.27799999999999
 31
0.0
  0
LINE
  5
47
  8
0
 62
     7
 10
114.39700000000001
 20
197.27799999999999
 30
0.0
 11
180.39699999999999
 21
197.27799999999999
 31
0.0
  0
LINE
  5
48
  8
0
  6
AIGENLINE002
 62
     7
 10
113.39700000000001
 20
237.279
 30
0.0
 11
181.39699999999999
 21
237.279
 31
0.0
  0
ARC
  5
49
  8
0
  6
AIGENLINE003
 62
     7
 10
170.68080699999999
 20
123.593962
 30
0.0
 40
0.5147840000000001
 50
91.232873999999995
 51
163.55959300000001
  0
ARC
  5
4A
  8
0
  6
AIGENLINE003
 62
     7
 10
150.15541300000001
 20
116.39031
 30
0.0
 40
3.030146999999999
 50
223.31123600000001
 51
267.25039199999998
  0
ARC
  5
4B
  8
0
  6
AIGENLINE003
 62
     7
 10
138.567668
 20
123.601811
 30
0.0
 40
0.5068220000000001
 50
45.379454000000003
 51
89.714283999999978
  0
ARC
  5
4C
  8
0
 62
     7
 10
167.356527
 20
114.32463
 30
0.0
 40
2.2356590000000001
 50
291.072361
 51
329.686353
  0
ARC
  5
4D
  8
0
 62
     7
 10
167.47751600000001
 20
114.14048699999999
 30
0.0
 40
2.0208689999999989
 50
270.04797300000001
 51
289.74847
  0
LINE
  5
4E
  8
0
 62
     7
 10
182.78700000000001
 20
99.470900000000015
 30
0.0
 11
159.78700000000001
 21
99.470900000000015
 31
0.0
  0
LINE
  5
4F
  8
0
 62
     7
 10
159.78700000000001
 20
105.651
 30
0.0
 11
159.78700000000001
 21
98.770799999999994
 31
0.0
  0
LINE
  5
50
  8
0
 62
     7
 10
182.78700000000001
 20
111.61199999999999
 30
0.0
 11
182.78700000000001
 21
98.770799999999994
 31
0.0
  0
LINE
  5
51
  8
0
 62
     7
 10
180.577
 20
98.878699999999995
 30
0.0
 11
182.78700000000001
 21
99.470900000000015
 31
0.0
  0
LINE
  5
52
  8
0
 62
     7
 10
182.78700000000001
 20
99.470900000000015
 30
0.0
 11
180.577
 21
100.063
 31
0.0
  0
LINE
  5
53
  8
0
 62
     7
 10
180.577
 20
100.063
 30
0.0
 11
180.577
 21
98.878699999999995
 31
0.0
  0
LINE
  5
54
  8
0
 62
     7
 10
161.99700000000001
 20
100.063
 30
0.0
 11
159.78700000000001
 21
99.470900000000015
 31
0.0
  0
LINE
  5
55
  8
0
 62
     7
 10
159.78700000000001
 20
99.470900000000015
 30
0.0
 11
161.99700000000001
 21
98.878699999999995
 31
0.0
  0
LINE
  5
56
  8
0
 62
     7
 10
161.99700000000001
 20
98.878699999999995
 30
0.0
 11
161.99700000000001
 21
100.063
 31
0.0
  0
ARC
  5
57
  8
0
  6
AIGENLINE003
 62
     7
 10
165.75801999999999
 20
115.255359
 30
0.0
 40
2.0576769999999991
 50
273.744123
 51
346.51304099999999
  0
ARC
  5
58
  8
0
 62
     7
 10
147.27482000000001
 20
115.67914500000001
 30
0.0
 40
3.5596540000000001
 50
216.54905299999999
 51
269.51448799999997
  0
LINE
  5
59
  8
0
  6
AIGENLINE003
 62
     7
 10
157.48599999999999
 20
112.10899999999999
 30
0.0
 11
162.083
 21
112.10899999999999
 31
0.0
  0
LINE
  5
5A
  8
0
  6
AIGENLINE003
 62
     7
 10
155.786
 20
113.10899999999999
 30
0.0
 11
163.78
 21
113.10899999999999
 31
0.0
  0
ARC
  5
5B
  8
0
 62
     7
 10
170.26279700000001
 20
112.135403
 30
0.0
 40
1.523879999999999
 50
310.03289799999999
 51
359.58789000000002
  0
ARC
  5
5C
  8
0
 62
     7
 10
167.241961
 20
109.620469
 30
0.0
 40
1.5120039999999999
 50
270.13900000000001
 51
309.43246399999998
  0
ARC
  5
5D
  8
0
 62
     7
 10
181.28689299999999
 20
113.79808
 30
0.0
 40
1.5000039999999999
 50
270.00002000000001
 51
359.99999000000003
  0
ARC
  5
5E
  8
0
 62
     7
 10
181.28551999999999
 20
113.80254499999999
 30
0.0
 40
1.5044690000000001
 50
263.279988
 51
270.05233099999998
  0
LINE
  5
5F
  8
0
 62
     7
 10
163.28700000000001
 20
108.108
 30
0.0
 11
167.24600000000001
 21
108.108
 31
0.0
  0
LINE
  5
60
  8
0
 62
     7
 10
156.286
 20
107.60899999999999
 30
0.0
 11
163.28700000000001
 21
107.60899999999999
 31
0.0
  0
LINE
  5
61
  8
0
 62
     7
 10
138.82900000000001
 20
115.10899999999999
 30
0.0
 11
182.78700000000001
 21
115.10899999999999
 31
0.0
  0
ARC
  5
62
  8
0
 62
     7
 10
138.76014000000001
 20
115.570446
 30
0.0
 40
0.4319460000000001
 50
201.65025199999999
 51
229.713392
  0
ARC
  5
63
  8
0
 62
     7
 10
138.82769400000001
 20
115.632019
 30
0.0
 40
0.522728
 50
228.42890399999999
 51
270.09710699999999
  0
ARC
  5
64
  8
0
 62
     7
 10
163.65084300000001
 20
125.53681899999999
 30
0.0
 40
26.94745300000001
 50
184.81202599999989
 51
187.15868800000001
  0
ARC
  5
65
  8
0
 62
     7
 10
181.75210799999999
 20
127.660241
 30
0.0
 40
45.172477000000001
 50
186.96986999999999
 51
192.75112100000001
  0
ARC
  5
66
  8
0
 62
     7
 10
160.71740399999999
 20
123.016476
 30
0.0
 40
23.631847
 50
193.026207
 51
197.04146
  0
ARC
  5
67
  8
0
 62
     7
 10
149.634863
 20
119.698427
 30
0.0
 40
12.063745000000001
 50
197.40015
 51
200.81741
  0
ARC
  5
68
  8
0
 62
     7
 10
137.51722799999999
 20
123.37844699999999
 30
0.0
 40
0.730876
 50
92.501499999999993
 51
178.33980199999999
  0
ARC
  5
69
  8
0
 62
     7
 10
137.344774
 20
123.39040300000001
 30
0.0
 40
0.5581920000000001
 50
179.05371099999999
 51
191.79674099999991
  0
LINE
  5
6A
  8
0
 62
     7
 10
181.10900000000001
 20
112.30800000000001
 30
0.0
 11
163.78700000000001
 21
113.60899999999999
 31
0.0
  0
LINE
  5
6B
  8
0
 62
     7
 10
182.78700000000001
 20
124.10899999999999
 30
0.0
 11
137.48500000000001
 21
124.10899999999999
 31
0.0
  0
ARC
  5
6C
  8
0
  6
AIGENLINE003
 62
     7
 10
77.782220999999993
 20
119.108814
 30
0.0
 40
1.0002040000000001
 50
179.98516900000001
 51
269.98521899999997
  0
ARC
  5
6D
  8
0
  6
AIGENLINE003
 62
     7
 10
77.820032999999995
 20
119.070823
 30
0.0
 40
1.0387200000000001
 50
92.100432999999981
 51
177.88966600000001
  0
LINE
  5
6E
  8
0
  6
AIGENLINE003
 62
     7
 10
77.781999999999996
 20
120.10899999999999
 30
0.0
 11
78.581900000000005
 21
120.10899999999999
 31
0.0
  0
ARC
  5
6F
  8
0
  6
AIGENLINE003
 62
     7
 10
78.543307999999996
 20
119.070104
 30
0.0
 40
1.039458999999999
 50
2.148474999999999
 51
87.871256000000017
  0
ARC
  5
70
  8
0
  6
AIGENLINE003
 62
     7
 10
78.581746999999993
 20
119.108901
 30
0.0
 40
1.000289999999999
 50
270.00988699999999
 51
0.009857
  0
LINE
  5
71
  8
0
  6
AIGENLINE003
 62
     7
 10
78.581900000000005
 20
118.10899999999999
 30
0.0
 11
77.781999999999996
 21
118.10899999999999
 31
0.0
  0
LINE
  5
72
  8
0
  6
AIGENLINE001
 62
     7
 10
75.361299999999986
 20
119.10899999999999
 30
0.0
 11
81.299299999999988
 21
119.10899999999999
 31
0.0
  0
LINE
  5
73
  8
0
 62
     7
 10
64.181799999999996
 20
248.07599999999999
 30
0.0
 11
64.181799999999996
 21
240.15899999999999
 31
0.0
  0
LINE
  5
74
  8
0
 62
     7
 10
74.181799999999996
 20
248.07599999999999
 30
0.0
 11
74.181799999999996
 21
235.422
 31
0.0
  0
LINE
  5
75
  8
0
 62
     7
 10
74.181799999999996
 20
247.376
 30
0.0
 11
54.181699999999992
 21
247.376
 31
0.0
  0
LINE
  5
76
  8
0
 62
     7
 10
54.181699999999992
 20
248.07599999999999
 30
0.0
 11
54.181699999999992
 21
235.422
 31
0.0
  0
LINE
  5
77
  8
0
 62
     7
 10
61.971499999999999
 20
246.78299999999999
 30
0.0
 11
64.181799999999996
 21
247.376
 31
0.0
  0
LINE
  5
78
  8
0
 62
     7
 10
64.181799999999996
 20
247.376
 30
0.0
 11
61.971499999999999
 21
247.96700000000001
 31
0.0
  0
LINE
  5
79
  8
0
 62
     7
 10
61.971499999999999
 20
247.96700000000001
 30
0.0
 11
61.971499999999999
 21
246.78299999999999
 31
0.0
  0
LINE
  5
7A
  8
0
 62
     7
 10
71.971400000000003
 20
246.78299999999999
 30
0.0
 11
74.181799999999996
 21
247.376
 31
0.0
  0
LINE
  5
7B
  8
0
 62
     7
 10
74.181799999999996
 20
247.376
 30
0.0
 11
71.971400000000003
 21
247.96700000000001
 31
0.0
  0
LINE
  5
7C
  8
0
 62
     7
 10
71.971400000000003
 20
247.96700000000001
 30
0.0
 11
71.971400000000003
 21
246.78299999999999
 31
0.0
  0
LINE
  5
7D
  8
0
 62
     7
 10
66.392200000000003
 20
247.96700000000001
 30
0.0
 11
64.181799999999996
 21
247.376
 31
0.0
  0
LINE
  5
7E
  8
0
 62
     7
 10
64.181799999999996
 20
247.376
 30
0.0
 11
66.392200000000003
 21
246.78299999999999
 31
0.0
  0
LINE
  5
7F
  8
0
 62
     7
 10
66.392200000000003
 20
246.78299999999999
 30
0.0
 11
66.392200000000003
 21
247.96700000000001
 31
0.0
  0
LINE
  5
80
  8
0
 62
     7
 10
56.392099999999999
 20
247.96700000000001
 30
0.0
 11
54.181699999999992
 21
247.376
 31
0.0
  0
LINE
  5
81
  8
0
 62
     7
 10
54.181699999999992
 20
247.376
 30
0.0
 11
56.392099999999999
 21
246.78299999999999
 31
0.0
  0
LINE
  5
82
  8
0
 62
     7
 10
56.392099999999999
 20
246.78299999999999
 30
0.0
 11
56.392099999999999
 21
247.96700000000001
 31
0.0
  0
LINE
  5
83
  8
0
 62
     7
 10
78.181899999999999
 20
132.553
 30
0.0
 11
78.181899999999999
 21
122.199
 31
0.0
  0
LINE
  5
84
  8
0
  6
AIGENLINE001
 62
     7
 10
78.181899999999999
 20
121.499
 30
0.0
 11
78.181899999999999
 21
116.92100000000001
 31
0.0
  0
ARC
  5
85
  8
0
  6
AIGENLINE003
 62
     7
 10
49.782029999999999
 20
119.108814
 30
0.0
 40
1.0002040000000001
 50
179.98516900000001
 51
269.98521899999997
  0
ARC
  5
86
  8
0
  6
AIGENLINE003
 62
     7
 10
49.819842999999999
 20
119.070823
 30
0.0
 40
1.0387200000000001
 50
92.100432999999981
 51
177.88966600000001
  0
LINE
  5
87
  8
0
  6
AIGENLINE003
 62
     7
 10
49.781799999999997
 20
120.10899999999999
 30
0.0
 11
50.581699999999998
 21
120.10899999999999
 31
0.0
  0
ARC
  5
88
  8
0
  6
AIGENLINE003
 62
     7
 10
50.543118
 20
119.070104
 30
0.0
 40
1.039458999999999
 50
2.148474999999999
 51
87.871256000000017
  0
ARC
  5
89
  8
0
  6
AIGENLINE003
 62
     7
 10
50.581555999999999
 20
119.108901
 30
0.0
 40
1.000289999999999
 50
270.00988699999999
 51
0.009857
  0
LINE
  5
8A
  8
0
  6
AIGENLINE003
 62
     7
 10
50.581699999999998
 20
118.10899999999999
 30
0.0
 11
49.781799999999997
 21
118.10899999999999
 31
0.0
  0
ARC
  5
8B
  8
0
  6
AIGENLINE003
 62
     7
 10
147.30967100000001
 20
214.36633800000001
 30
0.0
 40
2.389521999999999
 50
272.092781
 51
357.89435800000001
  0
ARC
  5
8C
  8
0
  6
AIGENLINE003
 62
     7
 10
147.48549800000001
 20
214.36693099999999
 30
0.0
 40
2.3901629999999998
 50
182.11931299999989
 51
267.87642599999998
  0
ARC
  5
8D
  8
0
  6
AIGENLINE003
 62
     7
 10
147.48468199999999
 20
214.19079099999999
 30
0.0
 40
2.3893230000000001
 50
92.104730000000004
 51
177.89524
  0
ARC
  5
8E
  8
0
  6
AIGENLINE003
 62
     7
 10
147.39727500000001
 20
214.27819700000009
 30
0.0
 40
2.3003049999999989
 50
0.008591
 51
90.008560999999986
  0
LINE
  5
8F
  8
0
 62
     7
 10
124.438
 20
202.95400000000001
 30
0.0
 11
119.07299999999999
 21
202.95400000000001
 31
0.0
  0
LINE
  5
90
  8
0
 62
     7
 10
113.69
 20
197.571
 30
0.0
 11
119.07299999999999
 21
202.95400000000001
 31
0.0
  0
LINE
  5
91
  8
0
 62
     7
 10
114.834
 20
199.553
 30
0.0
 11
113.69
 21
197.571
 31
0.0
  0
LINE
  5
92
  8
0
 62
     7
 10
113.69
 20
197.571
 30
0.0
 11
115.67100000000001
 21
198.71600000000001
 31
0.0
  0
LINE
  5
93
  8
0
 62
     7
 10
115.67100000000001
 20
198.71600000000001
 30
0.0
 11
114.834
 21
199.553
 31
0.0
  0
LINE
  5
94
  8
0
 62
     7
 10
164.28
 20
207.26900000000001
 30
0.0
 11
154.40700000000001
 21
207.26900000000001
 31
0.0
  0
LINE
  5
95
  8
0
  6
AIGENLINE001
 62
     7
 10
147.39699999999999
 20
239.459
 30
0.0
 11
147.39699999999999
 21
193.946
 31
0.0
  0
LINE
  5
96
  8
0
 62
     7
 10
149.024
 20
212.65199999999999
 30
0.0
 11
154.40700000000001
 21
207.26900000000001
 31
0.0
  0
LINE
  5
97
  8
0
 62
     7
 10
151.005
 20
211.50800000000001
 30
0.0
 11
149.024
 21
212.65199999999999
 31
0.0
  0
LINE
  5
98
  8
0
 62
     7
 10
149.024
 20
212.65199999999999
 30
0.0
 11
150.16800000000001
 21
210.66999999999999
 31
0.0
  0
LINE
  5
99
  8
0
 62
     7
 10
150.16800000000001
 20
210.66999999999999
 30
0.0
 11
151.005
 21
211.50800000000001
 31
0.0
  0
LINE
  5
9A
  8
0
 62
     7
 10
137.04400000000001
 20
237.279
 30
0.0
 11
137.04400000000001
 21
214.279
 31
0.0
  0
LINE
  5
9B
  8
0
 62
     7
 10
136.34399999999999
 20
214.279
 30
0.0
 11
142.315
 21
214.279
 31
0.0
  0
LINE
  5
9C
  8
0
  6
AIGENLINE001
 62
     7
 10
143.089
 20
214.279
 30
0.0
 11
152.286
 21
214.279
 31
0.0
  0
ARC
  5
9D
  8
0
 62
     7
 10
64.181844999999996
 20
214.27854300000001
 30
0.0
 40
4.000125999999999
 50
270.00002000000001
 51
359.99999000000003
  0
ARC
  5
9E
  8
0
 62
     7
 10
64.181931000000006
 20
214.27845600000001
 30
0.0
 40
4.0000390000000001
 50
179.99873700000001
 51
269.998786
  0
ARC
  5
9F
  8
0
 62
     7
 10
64.181845999999993
 20
214.27854199999999
 30
0.0
 40
3.9999539999999998
 50
90.0
 51
179.99996999999999
  0
ARC
  5
A0
  8
0
 62
     7
 10
64.181931000000006
 20
214.27845600000001
 30
0.0
 40
4.0000400000000003
 50
0.001244
 51
90.001214000000004
  0
LINE
  5
A1
  8
0
 62
     7
 10
67.849199999999996
 20
110.651
 30
0.0
 11
64.181799999999996
 21
110.651
 31
0.0
  0
LINE
  5
A2
  8
0
 62
     7
 10
67.605599999999995
 20
107.60899999999999
 30
0.0
 11
64.181799999999996
 21
107.60899999999999
 31
0.0
  0
LINE
  5
A3
  8
0
 62
     7
 10
67.677599999999984
 20
110.288
 30
0.0
 11
67.605599999999995
 21
107.60899999999999
 31
0.0
  0
ARC
  5
A4
  8
0
 62
     7
 10
68.065926000000005
 20
110.371726
 30
0.0
 40
0.353764
 50
127.785318
 51
147.632563
  0
ARC
  5
A5
  8
0
 62
     7
 10
68.200831999999991
 20
110.267713
 30
0.0
 40
0.5236270000000001
 50
145.921907
 51
177.75826000000001
  0
LINE
  5
A6
  8
0
 62
     7
 10
69.204800000000006
 20
111.79000000000001
 30
0.0
 11
67.849199999999996
 21
110.651
 31
0.0
  0
ARC
  5
A7
  8
0
 62
     7
 10
69.522296999999995
 20
111.603962
 30
0.0
 40
0.3063
 50
88.485951
 51
97.461825000000005
  0
ARC
  5
A8
  8
0
 62
     7
 10
69.555043999999995
 20
111.351586
 30
0.0
 40
0.560792
 50
97.430586000000034
 51
128.64581699999999
  0
ARC
  5
A9
  8
0
 62
     7
 10
71.892555999999999
 20
102.86715100000001
 30
0.0
 40
9.3772699999999993
 50
75.455757999999989
 51
79.445203000000006
  0
ARC
  5
AA
  8
0
 62
     7
 10
70.152711999999994
 20
94.092943999999974
 30
0.0
 40
18.322006999999999
 50
79.122526000000008
 51
82.272951000000006
  0
ARC
  5
AB
  8
0
 62
     7
 10
69.138085000000004
 20
87.144154
 30
0.0
 40
25.344221999999998
 50
82.112164000000007
 51
87.436406000000005
  0
ARC
  5
AC
  8
0
 62
     7
 10
69.701631000000006
 20
99.032456999999994
 30
0.0
 40
13.442646
 50
87.569564999999983
 51
92.003363000000007
  0
LINE
  5
AD
  8
0
 62
     7
 10
69.231700000000004
 20
112.467
 30
0.0
 11
64.181799999999996
 21
112.467
 31
0.0
  0
LINE
  5
AE
  8
0
 62
     7
 10
74.240600000000001
 20
111.807
 30
0.0
 11
74.248500000000007
 21
111.943
 31
0.0
  0
LINE
  5
AF
  8
0
 62
     7
 10
69.5304
 20
111.91
 30
0.0
 11
70.728300000000004
 21
111.91
 31
0.0
  0
LINE
  5
B0
  8
0
 62
     7
 10
69.231700000000004
 20
111.961
 30
0.0
 11
64.181799999999996
 21
111.961
 31
0.0
  0
ARC
  5
B1
  8
0
 62
     7
 10
70.596218000000007
 20
102.575751
 30
0.0
 40
9.3166580000000003
 50
82.67853199999999
 51
84.340924999999999
  0
ARC
  5
B2
  8
0
 62
     7
 10
69.337965999999994
 20
90.001294999999985
 30
0.0
 40
21.953907999999998
 50
84.309168
 51
87.115723999999986
  0
ARC
  5
B3
  8
0
 62
     7
 10
69.240514000000005
 20
90.536682999999996
 30
0.0
 40
21.424461999999998
 50
86.783389999999983
 51
90.023565000000005
  0
ARC
  5
B4
  8
0
 62
     7
 10
71.67055400000001
 20
102.001839
 30
0.0
 40
9.7420899999999993
 50
78.873756
 51
80.443781999999999
  0
ARC
  5
B5
  8
0
 62
     7
 10
69.225910999999996
 20
87.740484999999993
 30
0.0
 40
24.211428000000002
 50
80.341743000000008
 51
83.936211
  0
ARC
  5
B6
  8
0
 62
     7
 10
73.714014000000006
 20
111.858363
 30
0.0
 40
0.339512
 50
241.20871199999999
 51
249.59173200000001
  0
ARC
  5
B7
  8
0
 62
     7
 10
73.803784999999991
 20
112.10414299999999
 30
0.0
 40
0.6011720000000002
 50
249.74123599999999
 51
281.96598299999999
  0
LINE
  5
B8
  8
0
 62
     7
 10
73.930800000000005
 20
111.51600000000001
 30
0.0
 11
73.765100000000004
 21
111.514
 31
0.0
  0
ARC
  5
B9
  8
0
 62
     7
 10
73.910844999999995
 20
111.847723
 30
0.0
 40
0.332155
 50
273.03419100000002
 51
353.04298399999999
  0
LINE
  5
BA
  8
0
 62
     7
 10
92.567899999999995
 20
112.12
 30
0.0
 11
80.7239
 21
112.12
 31
0.0
  0
ARC
  5
BB
  8
0
 62
     7
 10
92.553670999999994
 20
113.12436
 30
0.0
 40
1.004842
 50
270.810768
 51
349.761754
  0
LINE
  5
BC
  8
0
 62
     7
 10
93.7864
 20
114.32899999999999
 30
0.0
 11
93.542500000000004
 21
112.946
 31
0.0
  0
ARC
  5
BD
  8
0
 62
     7
 10
73.142747999999983
 20
212.25623300000001
 30
0.0
 40
100.31909400000001
 50
270.63134700000001
 51
271.12454700000001
  0
ARC
  5
BE
  8
0
 62
     7
 10
70.210681999999991
 20
370.88228099999998
 30
0.0
 40
258.97219799999999
 50
271.084362
 51
272.11526300000003
  0
ARC
  5
BF
  8
0
 62
     7
 10
79.401978999999997
 20
141.405202
 30
0.0
 40
29.320957
 50
270.71776499999999
 51
271.68504000000001
  0
ARC
  5
C0
  8
0
 62
     7
 10
78.687601999999998
 20
165.87937199999999
 30
0.0
 40
53.805549999999997
 50
271.679081
 51
273.48214200000001
  0
ARC
  5
C1
  8
0
 62
     7
 10
76.407612
 20
207.05903699999999
 30
0.0
 40
95.047935999999993
 50
273.346293
 51
276.66814799999997
  0
ARC
  5
C2
  8
0
 62
     7
 10
82.912179000000009
 20
150.03870000000001
 30
0.0
 40
37.658363000000001
 50
276.91241300000002
 51
278.40212200000002
  0
ARC
  5
C3
  8
0
 62
     7
 10
87.846439000000004
 20
120.685802
 30
0.0
 40
7.921691
 50
274.11437000000001
 51
278.36036799999999
  0
ARC
  5
C4
  8
0
 62
     7
 10
87.194348000000005
 20
125.386374
 30
0.0
 40
12.667182
 50
278.18715300000002
 51
283.95681999999999
  0
ARC
  5
C5
  8
0
 62
     7
 10
85.594284999999999
 20
132.30597700000001
 30
0.0
 40
19.768764000000001
 50
283.62027799999998
 51
294.88160599999998
  0
ARC
  5
C6
  8
0
 62
     7
 10
88.630698999999993
 20
125.667333
 30
0.0
 40
12.468830000000001
 50
295.05898400000001
 51
300.70476100000002
  0
ARC
  5
C7
  8
0
 62
     7
 10
91.078344999999999
 20
121.420557
 30
0.0
 40
7.5678770000000002
 50
301.18895800000001
 51
303.35080699999997
  0
LINE
  5
C8
  8
0
 62
     7
 10
101.342
 20
115.10899999999999
 30
0.0
 11
64.181799999999996
 21
115.10899999999999
 31
0.0
  0
ARC
  5
C9
  8
0
 62
     7
 10
101.364841
 20
115.539631
 30
0.0
 40
0.430923
 50
267.01892700000002
 51
295.135199
  0
ARC
  5
CA
  8
0
 62
     7
 10
101.33628299999999
 20
115.627934
 30
0.0
 40
0.5231240000000001
 50
293.85878000000002
 51
335.51036299999998
  0
ARC
  5
CB
  8
0
 62
     7
 10
87.426943999999992
 20
122.03313900000001
 30
0.0
 40
15.836392999999999
 50
335.28188999999998
 51
338.46810699999997
  0
ARC
  5
CC
  8
0
 62
     7
 10
75.213506999999993
 20
126.973705
 30
0.0
 40
29.010999000000002
 50
338.24450899999999
 51
340.761797
  0
ARC
  5
CD
  8
0
 62
     7
 10
61.255516
 20
131.9281
 30
0.0
 40
43.822057999999998
 50
340.65900499999998
 51
346.47878200000002
  0
ARC
  5
CE
  8
0
 62
     7
 10
78.674233000000001
 20
127.674999
 30
0.0
 40
25.891805999999999
 50
346.61737099999999
 51
349.160956
  0
ARC
  5
CF
  8
0
 62
     7
 10
89.179759000000004
 20
125.626109
 30
0.0
 40
15.188454999999999
 50
349.29964899999999
 51
351.09996100000001
  0
ARC
  5
D0
  8
0
 62
     7
 10
103.461743
 20
123.383173
 30
0.0
 40
0.73145
 50
351.59734500000002
 51
77.366591999999997
  0
ARC
  5
D1
  8
0
 62
     7
 10
103.53312699999999
 20
123.68508300000001
 30
0.0
 40
0.4212520000000001
 50
77.859549000000001
 51
85.604252000000002
  0
ARC
  5
D2
  8
0
 62
     7
 10
103.502797
 20
123.554445
 30
0.0
 40
0.5541990000000001
 50
83.512482999999989
 51
90.456126999999995
  0
LINE
  5
D3
  8
0
 62
     7
 10
64.181799999999996
 20
124.10899999999999
 30
0.0
 11
103.498
 21
124.10899999999999
 31
0.0
  0
LINE
  5
D4
  8
0
 62
     7
 10
60.514899999999997
 20
110.651
 30
0.0
 11
64.181799999999996
 21
110.651
 31
0.0
  0
LINE
  5
D5
  8
0
 62
     7
 10
60.758400000000002
 20
107.60899999999999
 30
0.0
 11
64.181799999999996
 21
107.60899999999999
 31
0.0
  0
LINE
  5
D6
  8
0
 62
     7
 10
60.686100000000003
 20
110.288
 30
0.0
 11
60.758400000000002
 21
107.60899999999999
 31
0.0
  0
ARC
  5
D7
  8
0
 62
     7
 10
60.332856000000007
 20
110.298686
 30
0.0
 40
0.353385
 50
358.29874000000001
 51
18.123508000000001
  0
ARC
  5
D8
  8
0
 62
     7
 10
60.166317000000006
 20
110.260256
 30
0.0
 40
0.5238390000000001
 50
16.451802000000001
 51
48.289383000000001
  0
LINE
  5
D9
  8
0
 62
     7
 10
59.158900000000003
 20
111.79000000000001
 30
0.0
 11
60.514899999999997
 21
110.651
 31
0.0
  0
ARC
  5
DA
  8
0
 62
     7
 10
58.95407500000001
 20
111.562862
 30
0.0
 40
0.305513
 50
47.908651999999996
 51
56.873821999999997
  0
ARC
  5
DB
  8
0
 62
     7
 10
58.813491000000013
 20
111.349452
 30
0.0
 40
0.561065
 50
56.760516000000003
 51
87.941345999999996
  0
ARC
  5
DC
  8
0
 62
     7
 10
58.699519999999993
 20
103.05210099999999
 30
0.0
 40
9.4247130000000006
 50
87.369931999999977
 51
91.339232999999993
  0
ARC
  5
DD
  8
0
 62
     7
 10
58.808630999999998
 20
94.147196999999991
 30
0.0
 40
18.330003000000001
 50
91.029636999999994
 51
94.178608999999994
  0
ARC
  5
DE
  8
0
 62
     7
 10
59.248358000000003
 20
87.152043999999989
 30
0.0
 40
25.338701
 50
94.017721999999978
 51
99.342811999999995
  0
ARC
  5
DF
  8
0
 62
     7
 10
57.345989000000003
 20
98.903106000000008
 30
0.0
 40
13.434723999999999
 50
99.473101999999997
 51
103.908779
  0
LINE
  5
E0
  8
0
 62
     7
 10
59.131999999999991
 20
112.467
 30
0.0
 11
64.181799999999996
 21
112.467
 31
0.0
  0
LINE
  5
E1
  8
0
 62
     7
 10
54.123499999999993
 20
111.807
 30
0.0
 11
54.115600000000001
 21
111.943
 31
0.0
  0
LINE
  5
E2
  8
0
 62
     7
 10
58.83359999999999
 20
111.91
 30
0.0
 11
57.63539999999999
 21
111.91
 31
0.0
  0
LINE
  5
E3
  8
0
 62
     7
 10
59.131999999999991
 20
111.961
 30
0.0
 11
64.181799999999996
 21
111.961
 31
0.0
  0
ARC
  5
E4
  8
0
 62
     7
 10
58.997937
 20
102.93230699999999
 30
0.0
 40
9.0298320000000007
 50
89.149353000000005
 51
90.864321000000004
  0
ARC
  5
E5
  8
0
 62
     7
 10
59.167811
 20
90.002296000000001
 30
0.0
 40
21.960947999999998
 50
90.798593999999994
 51
93.604001999999994
  0
ARC
  5
E6
  8
0
 62
     7
 10
59.005972999999997
 20
90.595527000000004
 30
0.0
 40
21.359079000000001
 50
93.27076000000001
 51
96.520285999999984
  0
ARC
  5
E7
  8
0
 62
     7
 10
57.491190000000003
 20
102.085036
 30
0.0
 40
9.7739279999999997
 50
95.346078000000006
 51
96.910921999999985
  0
ARC
  5
E8
  8
0
 62
     7
 10
59.189915999999997
 20
87.705106999999998
 30
0.0
 40
24.253820000000001
 50
96.807215999999997
 51
100.39542400000001
  0
ARC
  5
E9
  8
0
 62
     7
 10
54.522160999999997
 20
111.828239
 30
0.0
 40
0.3239800000000001
 50
254.50520499999999
 51
263.296378
  0
ARC
  5
EA
  8
0
 62
     7
 10
54.554949999999991
 20
112.102974
 30
0.0
 40
0.6006640000000001
 50
263.24917399999998
 51
295.49950999999999
  0
LINE
  5
EB
  8
0
 62
     7
 10
54.433199999999992
 20
111.51600000000001
 30
0.0
 11
54.5989
 21
111.514
 31
0.0
  0
ARC
  5
EC
  8
0
 62
     7
 10
54.452652999999998
 20
111.847537
 30
0.0
 40
0.331941
 50
186.92913999999999
 51
267.05678
  0
LINE
  5
ED
  8
0
 62
     7
 10
35.79610000000001
 20
112.12
 30
0.0
 11
47.64009999999999
 21
112.12
 31
0.0
  0
ARC
  5
EE
  8
0
 62
     7
 10
35.810553000000013
 20
113.124995
 30
0.0
 40
1.005479
 50
190.268449
 51
269.17904399999998
  0
LINE
  5
EF
  8
0
 62
     7
 10
34.577599999999997
 20
114.32899999999999
 30
0.0
 11
34.821199999999997
 21
112.946
 31
0.0
  0
ARC
  5
F0
  8
0
 62
     7
 10
52.849753999999997
 20
216.77738099999999
 30
0.0
 40
104.77726800000001
 50
267.67259300000001
 51
268.14480099999997
  0
ARC
  5
F1
  8
0
 62
     7
 10
58.024133999999989
 20
371.86868800000002
 30
0.0
 40
259.95483899999999
 50
268.11157100000003
 51
269.138577
  0
ARC
  5
F2
  8
0
 62
     7
 10
44.309444999999997
 20
141.914908
 30
0.0
 40
29.454889999999999
 50
261.48722600000002
 51
262.45014200000003
  0
ARC
  5
F3
  8
0
 62
     7
 10
47.496727
 20
165.932962
 30
0.0
 40
53.683503000000002
 50
262.4459359999999
 51
264.253129
  0
ARC
  5
F4
  8
0
 62
     7
 10
51.862918000000001
 20
207.01928599999999
 30
0.0
 40
95.000809000000004
 50
264.11434600000001
 51
267.437836
  0
ARC
  5
F5
  8
0
 62
     7
 10
49.140194000000001
 20
149.74286000000001
 30
0.0
 40
37.66026500000001
 50
267.68057199999998
 51
269.170162
  0
ARC
  5
F6
  8
0
 62
     7
 10
37.478755
 20
121.71057500000001
 30
0.0
 40
7.9162749999999988
 50
236.635977
 51
240.88458900000001
  0
ARC
  5
F7
  8
0
 62
     7
 10
39.820368000000002
 20
125.838027
 30
0.0
 40
12.661602
 50
240.71520000000001
 51
246.487065
  0
ARC
  5
F8
  8
0
 62
     7
 10
42.761404999999989
 20
132.30958699999999
 30
0.0
 40
19.769507999999998
 50
246.15384900000009
 51
257.41480300000001
  0
ARC
  5
F9
  8
0
 62
     7
 10
41.136552000000002
 20
125.206457
 30
0.0
 40
12.483062
 50
257.58968900000002
 51
263.22940699999998
  0
ARC
  5
FA
  8
0
 62
     7
 10
40.494449000000003
 20
120.337597
 30
0.0
 40
7.572722999999999
 50
263.710713
 51
265.871309
  0
LINE
  5
FB
  8
0
 62
     7
 10
27.0214
 20
115.10899999999999
 30
0.0
 11
64.181799999999996
 21
115.10899999999999
 31
0.0
  0
ARC
  5
FC
  8
0
 62
     7
 10
26.954619999999998
 20
115.571614
 30
0.0
 40
0.43389
 50
201.71438599999999
 51
229.649259
  0
ARC
  5
FD
  8
0
 62
     7
 10
27.020547000000001
 20
115.632019
 30
0.0
 40
0.522728
 50
228.42890399999999
 51
270.09710699999999
  0
ARC
  5
FE
  8
0
 62
     7
 10
39.883262999999999
 20
125.72650899999999
 30
0.0
 40
15.894731
 50
188.86770300000001
 51
192.041988
  0
ARC
  5
FF
  8
0
 62
     7
 10
52.730367000000001
 20
128.35449800000001
 30
0.0
 40
29.007615999999999
 50
191.82450499999999
 51
194.34198499999999
  0
ARC
  5
100
  8
0
 62
     7
 10
67.118015999999997
 20
131.95117999999999
 30
0.0
 40
43.837868999999991
 50
194.2382659999999
 51
200.05599799999999
  0
ARC
  5
101
  8
0
 62
     7
 10
50.013671000000002
 20
125.770655
 30
0.0
 40
25.651299000000002
 50
200.190031
 51
202.88135299999999
  0
ARC
  5
102
  8
0
 62
     7
 10
40.123930999999992
 20
121.64795599999999
 30
0.0
 40
14.936832000000001
 50
203.06192300000001
 51
204.680014
  0
ARC
  5
103
  8
0
 62
     7
 10
24.897708000000002
 20
123.378106
 30
0.0
 40
0.731216
 50
92.499193000000005
 51
178.31386699999999
  0
ARC
  5
104
  8
0
 62
     7
 10
24.724924000000001
 20
123.39040300000001
 30
0.0
 40
0.5581920000000001
 50
179.05371099999999
 51
191.79674099999991
  0
LINE
  5
105
  8
0
 62
     7
 10
64.181799999999996
 20
124.10899999999999
 30
0.0
 11
24.8658
 21
124.10899999999999
 31
0.0
  0
ARC
  5
106
  8
0
 62
     7
 10
73.106380000000001
 20
109.87888100000001
 30
0.0
 40
114.724408
 50
87.053581999999992
 51
87.522200999999995
  0
ARC
  5
107
  8
0
 62
     7
 10
69.511347000000001
 20
28.105909000000011
 30
0.0
 40
196.576356
 50
87.505746000000002
 51
87.942051000000006
  0
ARC
  5
108
  8
0
 62
     7
 10
63.644093999999988
 20
-136.93924999999999
 30
0.0
 40
361.72576400000003
 50
87.952079999999995
 51
89.651411999999993
  0
ARC
  5
109
  8
0
 62
     7
 10
65.122171999999992
 20
79.814436000000001
 30
0.0
 40
144.967184
 50
89.714398000000003
 51
90.371640000000014
  0
ARC
  5
10A
  8
0
 62
     7
 10
84.147538999999995
 20
109.58163999999999
 30
0.0
 40
114.31703
 50
84.176547999999997
 51
84.653016000000008
  0
ARC
  5
10B
  8
0
 62
     7
 10
74.886971000000003
 20
10.435904000000001
 30
0.0
 40
213.89430999999999
 50
84.658056000000016
 51
85.571077000000017
  0
ARC
  5
10C
  8
0
 62
     7
 10
61.063216000000011
 20
-161.925534
 30
0.0
 40
386.808851
 50
85.501109999999997
 51
86.855843999999991
  0
ARC
  5
10D
  8
0
 62
     7
 10
71.932653999999999
 20
34.932147999999998
 30
0.0
 40
189.65133700000001
 50
86.872699999999995
 51
87.863334999999992
  0
ARC
  5
10E
  8
0
 62
     7
 10
96.980158000000003
 20
219.07655600000001
 30
0.0
 40
3.7016390000000001
 50
46.130569999999999
 51
55.830089999999998
  0
ARC
  5
10F
  8
0
 62
     7
 10
95.54786
 20
217.08167499999999
 30
0.0
 40
6.156941999999999
 50
55.228673999999991
 51
65.874432999999996
  0
ARC
  5
110
  8
0
 62
     7
 10
94.944329999999994
 20
215.920085
 30
0.0
 40
7.4641429999999991
 50
65.290828000000005
 51
77.209999999999994
  0
ARC
  5
111
  8
0
 62
     7
 10
95.576668999999995
 20
218.551965
 30
0.0
 40
4.7576999999999989
 50
77.619561000000004
 51
87.958149000000006
  0
ARC
  5
112
  8
0
 62
     7
 10
98.235891000000009
 20
217.93976799999999
 30
0.0
 40
3.3428269999999989
 50
7.9332259999999986
 51
18.188168000000001
  0
ARC
  5
113
  8
0
 62
     7
 10
96.198631999999989
 20
217.33225300000001
 30
0.0
 40
5.4682430000000002
 50
17.572626
 51
28.949480000000001
  0
ARC
  5
114
  8
0
 62
     7
 10
95.165993999999998
 20
216.83858699999999
 30
0.0
 40
6.6111509999999987
 50
28.3614
 51
40.859594999999999
  0
ARC
  5
115
  8
0
 62
     7
 10
96.902802000000008
 20
218.30257499999999
 30
0.0
 40
4.3399209999999986
 50
41.242421999999998
 51
52.488703000000001
  0
ARC
  5
116
  8
0
 62
     7
 10
75.822081000000011
 20
205.12868700000001
 30
0.0
 40
26.107828000000001
 50
348.65691500000003
 51
352.4564049999999
  0
ARC
  5
117
  8
0
 62
     7
 10
59.424630000000001
 20
207.486199
 30
0.0
 40
42.673257999999997
 50
352.20875999999998
 51
355.40882499999998
  0
ARC
  5
118
  8
0
 62
     7
 10
38.124209
 20
209.36946499999999
 30
0.0
 40
64.056308999999999
 50
355.25477899999998
 51
359.41440499999999
  0
ARC
  5
119
  8
0
 62
     7
 10
31.137460999999998
 20
209.67176000000001
 30
0.0
 40
71.046156000000011
 50
359.22821599999997
 51
3.7495269999999992
  0
ARC
  5
11A
  8
0
 62
     7
 10
55.454039999999999
 20
211.101449
 30
0.0
 40
46.688419000000003
 50
3.9502379999999988
 51
7.0360069999999997
  0
ARC
  5
11B
  8
0
 62
     7
 10
72.765931000000009
 20
213.14668499999999
 30
0.0
 40
29.256512000000001
 50
7.2137369999999992
 51
10.346436000000001
  0
ARC
  5
11C
  8
0
 62
     7
 10
97.995080000000016
 20
199.299418
 30
0.0
 40
3.0582699999999998
 50
323.41642899999999
 51
330.17522600000001
  0
ARC
  5
11D
  8
0
 62
     7
 10
95.719967000000011
 20
200.649711
 30
0.0
 40
5.7037519999999988
 50
329.77419300000003
 51
338.20970899999998
  0
ARC
  5
11E
  8
0
 62
     7
 10
94.742582999999996
 20
201.11494300000001
 30
0.0
 40
6.7843520000000002
 50
337.625495
 51
347.61086599999999
  0
ARC
  5
11F
  8
0
 62
     7
 10
98.095585999999997
 20
200.329712
 30
0.0
 40
3.3412969999999991
 50
348.42640799999998
 51
354.22852999999998
  0
ARC
  5
120
  8
0
 62
     7
 10
96.288743999999994
 20
198.596339
 30
0.0
 40
3.670941
 50
286.65600499999999
 51
296.08252199999998
  0
ARC
  5
121
  8
0
 62
     7
 10
95.372150000000005
 20
200.61192500000001
 30
0.0
 40
5.8845929999999989
 50
295.46975800000001
 51
303.56894799999998
  0
ARC
  5
122
  8
0
 62
     7
 10
94.621600000000001
 20
201.82221899999999
 30
0.0
 40
7.3081769999999997
 50
303.22519399999999
 51
315.94307099999997
  0
ARC
  5
123
  8
0
 62
     7
 10
96.277961000000005
 20
200.18084500000001
 30
0.0
 40
4.9765449999999989
 50
316.26296300000001
 51
324.86760099999998
  0
ARC
  5
124
  8
0
 62
     7
 10
97.699303999999984
 20
199.137134
 30
0.0
 40
3.2137119999999988
 50
325.50292999999999
 51
328.89085899999998
  0
ARC
  5
125
  8
0
 62
     7
 10
95.156548999999984
 20
198.01447200000001
 30
0.0
 40
3.3555830000000002
 50
271.95339000000001
 51
274.81756000000001
  0
ARC
  5
126
  8
0
 62
     7
 10
94.907239000000004
 20
201.00110100000001
 30
0.0
 40
6.3525989999999988
 50
274.79594200000003
 51
280.05219299999999
  0
ARC
  5
127
  8
0
 62
     7
 10
94.449449999999999
 20
204.00314
 30
0.0
 40
9.3887450000000001
 50
279.60529600000001
 51
285.98981300000003
  0
ARC
  5
128
  8
0
 62
     7
 10
95.817075000000003
 20
199.140265
 30
0.0
 40
4.3373470000000003
 50
286.31802599999997
 51
290.56886500000002
  0
ARC
  5
129
  8
0
 62
     7
 10
78.767522
 20
321.215306
 30
0.0
 40
127.455963
 50
273.26422300000002
 51
273.70098400000001
  0
ARC
  5
12A
  8
0
 62
     7
 10
69.261433999999994
 20
469.93425200000001
 30
0.0
 40
276.47839299999998
 50
273.6774759999999
 51
274.054576
  0
ARC
  5
12B
  8
0
 62
     7
 10
60.018564000000012
 20
601.59085099999993
 30
0.0
 40
408.45901800000001
 50
274.042058
 51
274.69748499999997
  0
ARC
  5
12C
  8
0
 62
     7
 10
78.639906999999994
 20
375.11750699999999
 30
0.0
 40
181.22141099999999
 50
274.69373899999999
 51
275.265557
  0
ARC
  5
12D
  8
0
 62
     7
 10
65.420418999999995
 20
327.40274299999999
 30
0.0
 40
134.13014899999999
 50
269.47092600000002
 51
270.45288499999998
  0
ARC
  5
12E
  8
0
 62
     7
 10
64.71544200000001
 20
462.45981499999999
 30
0.0
 40
269.18881800000003
 50
270.37571800000001
 51
271.21088600000002
  0
ARC
  5
12F
  8
0
 62
     7
 10
61.954842999999997
 20
609.13178999999991
 30
0.0
 40
415.88651599999997
 50
271.16411099999999
 51
272.75304999999997
  0
ARC
  5
130
  8
0
 62
     7
 10
72.106424000000004
 20
394.79526700000002
 30
0.0
 40
201.30984000000001
 50
272.79715399999998
 51
273.964585
  0
LINE
  5
131
  8
0
 62
     7
 10
103.491
 20
237.279
 30
0.0
 11
64.181799999999996
 21
237.279
 31
0.0
  0
ARC
  5
132
  8
0
 62
     7
 10
-20.653072999999999
 20
204.95029199999999
 30
0.0
 40
124.656824
 50
355.84524299999998
 51
356.92974800000002
  0
ARC
  5
133
  8
0
 62
     7
 10
-83.551695999999993
 20
208.480322
 30
0.0
 40
187.65429800000001
 50
356.88209000000001
 51
357.86481900000001
  0
ARC
  5
134
  8
0
 62
     7
 10
-177.56042400000001
 20
212.14582999999999
 30
0.0
 40
281.73436900000002
 50
357.83218799999997
 51
359.02737200000001
  0
ARC
  5
135
  8
0
 62
     7
 10
-306.72164199999997
 20
214.72350800000001
 30
0.0
 40
410.92091399999998
 50
358.97371500000003
 51
1.9250290000000001
  0
ARC
  5
136
  8
0
 62
     7
 10
-149.53101699999999
 20
219.67716999999999
 30
0.0
 40
253.65281200000001
 50
1.9994459999999989
 51
3.2557580000000002
  0
ARC
  5
137
  8
0
 62
     7
 10
-42.305884000000013
 20
225.579644
 30
0.0
 40
146.265657
 50
3.3328119999999992
 51
4.587686999999999
  0
ARC
  5
138
  8
0
 62
     7
 10
101.669726
 20
195.28322800000001
 30
0.0
 40
1.9476929999999999
 50
343.981337
 51
347.47787499999998
  0
ARC
  5
139
  8
0
 62
     7
 10
99.50254000000001
 20
195.76504
 30
0.0
 40
4.1677919999999986
 50
347.47142300000002
 51
353.97943600000002
  0
ARC
  5
13A
  8
0
 62
     7
 10
99.381814000000006
 20
195.83202499999999
 30
0.0
 40
4.2952170000000001
 50
353.25972000000002
 51
1.1579239999999991
  0
ARC
  5
13B
  8
0
 62
     7
 10
100.73045500000001
 20
194.86541099999999
 30
0.0
 40
2.5223009999999988
 50
278.79439300000001
 51
298.90896700000002
  0
ARC
  5
13C
  8
0
 62
     7
 10
100.411967
 20
195.50837899999999
 30
0.0
 40
3.2392689999999988
 50
298.34254299999998
 51
338.544399
  0
ARC
  5
13D
  8
0
 62
     7
 10
101.096041
 20
195.18528499999999
 30
0.0
 40
2.4849320000000001
 50
339.70849500000003
 51
349.81217600000002
  0
ARC
  5
13E
  8
0
 62
     7
 10
100.049925
 20
195.58197200000001
 30
0.0
 40
3.311296
 50
270.95207099999999
 51
273.72695299999998
  0
ARC
  5
13F
  8
0
 62
     7
 10
99.754978000000008
 20
200.69837899999999
 30
0.0
 40
8.4361420000000003
 50
273.46716099999998
 51
279.28484300000002
  0
ARC
  5
140
  8
0
 62
     7
 10
66.218743000000003
 20
434.2562969999999
 30
0.0
 40
242.98658399999999
 50
269.51970799999998
 51
270.289965
  0
ARC
  5
141
  8
0
 62
     7
 10
65.589158999999995
 20
641.5360559999998
 30
0.0
 40
450.26706999999999
 50
270.23659800000001
 51
270.86013500000001
  0
ARC
  5
142
  8
0
 62
     7
 10
61.406069999999993
 20
940.88809600000013
 30
0.0
 40
749.64823899999988
 50
270.83635800000002
 51
272.46537499999999
  0
ARC
  5
143
  8
0
 62
     7
 10
75.789459999999991
 20
600.52590599999996
 30
0.0
 40
408.98246699999987
 50
272.50330700000001
 51
273.15651400000002
  0
ARC
  5
144
  8
0
 62
     7
 10
85.227711999999997
 20
426.3397599999999
 30
0.0
 40
234.540943
 50
273.19740100000001
 51
273.636796
  0
ARC
  5
145
  8
0
 62
     7
 10
62.998538000000011
 20
223.488551
 30
0.0
 40
0.066927
 50
135.15787800000001
 51
179.56108
  0
ARC
  5
146
  8
0
 62
     7
 10
63.087156999999998
 20
223.41600800000001
 30
0.0
 40
0.181254
 50
123.27369400000001
 51
138.654338
  0
ARC
  5
147
  8
0
 62
     7
 10
63.210069999999988
 20
223.23277999999999
 30
0.0
 40
0.401885
 50
113.745514
 51
123.592417
  0
ARC
  5
148
  8
0
 62
     7
 10
63.39401500000001
 20
222.823351
 30
0.0
 40
0.8507299999999998
 50
107.026178
 51
113.981663
  0
ARC
  5
149
  8
0
 62
     7
 10
63.626933999999999
 20
222.07797099999999
 30
0.0
 40
1.631648
 50
102.02618
 51
107.18266300000001
  0
ARC
  5
14A
  8
0
 62
     7
 10
63.952682000000003
 20
220.54105300000001
 30
0.0
 40
3.2027070000000002
 50
94.366558999999995
 51
101.99698600000001
  0
ARC
  5
14B
  8
0
 62
     7
 10
64.177499999999995
 20
218.31313800000001
 30
0.0
 40
5.4415449999999987
 50
89.959679000000008
 51
94.940825000000004
  0
ARC
  5
14C
  8
0
 62
     7
 10
64.189278999999985
 20
218.34694500000001
 30
0.0
 40
5.4077419999999989
 50
82.526859999999999
 51
90.084220000000016
  0
ARC
  5
14D
  8
0
 62
     7
 10
64.580178000000004
 20
221.44752299999999
 30
0.0
 40
2.282713999999999
 50
73.342775000000003
 51
82.133128999999997
  0
ARC
  5
14E
  8
0
 62
     7
 10
65.008939999999996
 20
222.92515599999999
 30
0.0
 40
0.744295
 50
64.165851000000004
 51
72.358427000000006
  0
ARC
  5
14F
  8
0
 62
     7
 10
65.197187999999997
 20
223.31053700000001
 30
0.0
 40
0.3154
 50
51.799944000000004
 51
64.437906000000012
  0
ARC
  5
150
  8
0
 62
     7
 10
65.331583999999992
 20
223.47725199999999
 30
0.0
 40
0.101306
 50
8.6617929999999994
 51
53.224401000000007
  0
ARC
  5
151
  8
0
 62
     7
 10
65.364698000000004
 20
223.49302399999999
 30
0.0
 40
0.067038
 50
315.19711699999999
 51
359.55940800000002
  0
ARC
  5
152
  8
0
 62
     7
 10
65.276697999999996
 20
223.564832
 30
0.0
 40
0.180417
 50
303.25475999999998
 51
318.71170799999999
  0
ARC
  5
153
  8
0
 62
     7
 10
65.143897999999993
 20
223.76498900000001
 30
0.0
 40
0.4206210000000001
 50
293.05344400000001
 51
303.43111699999997
  0
ARC
  5
154
  8
0
 62
     7
 10
64.954029000000006
 20
224.19911400000001
 30
0.0
 40
0.8944409999999999
 50
286.62530299999997
 51
293.35497900000001
  0
ARC
  5
155
  8
0
 62
     7
 10
64.720309999999998
 20
224.96663599999999
 30
0.0
 40
1.696753
 50
281.75004999999999
 51
286.772244
  0
ARC
  5
156
  8
0
 62
     7
 10
64.400145999999992
 20
226.510389
 30
0.0
 40
3.273355
 50
274.208482
 51
281.733971
  0
ARC
  5
157
  8
0
 62
     7
 10
64.184468999999993
 20
228.71444399999999
 30
0.0
 40
5.4875540000000003
 50
269.97442100000001
 51
274.76552200000009
  0
ARC
  5
158
  8
0
 62
     7
 10
64.174075000000002
 20
228.62416200000001
 30
0.0
 40
5.397278
 50
262.38045499999998
 51
270.08432599999998
  0
ARC
  5
159
  8
0
 62
     7
 10
63.768786999999989
 20
225.46333000000001
 30
0.0
 40
2.2106840000000001
 50
252.95490699999999
 51
261.92947500000002
  0
ARC
  5
15A
  8
0
 62
     7
 10
63.340513000000001
 20
224.02177900000001
 30
0.0
 40
0.7070380000000001
 50
243.42587499999999
 51
251.893902
  0
ARC
  5
15B
  8
0
 62
     7
 10
63.154173
 20
223.65196900000001
 30
0.0
 40
0.292938
 50
230.374
 51
243.66411400000001
  0
ARC
  5
15C
  8
0
 62
     7
 10
63.027018000000012
 20
223.50187500000001
 30
0.0
 40
0.096262
 50
187.64838700000001
 51
231.69090399999999
  0
ARC
  5
15D
  8
0
 62
     7
 10
63.335647999999999
 20
107.420023
 30
0.0
 40
117.361598
 50
89.586873999999995
 51
90.044978000000015
  0
ARC
  5
15E
  8
0
 62
     7
 10
63.347458999999994
 20
30.473524000000001
 30
0.0
 40
194.308089
 50
90.030644999999978
 51
90.472056000000009
  0
ARC
  5
15F
  8
0
 62
     7
 10
64.756569999999996
 20
-135.990757
 30
0.0
 40
360.77833199999998
 50
90.478020999999998
 51
92.198740999999984
  0
ARC
  5
160
  8
0
 62
     7
 10
56.541142000000001
 20
82.920659999999998
 30
0.0
 40
141.713021
 50
92.275311000000002
 51
92.904523999999967
  0
ARC
  5
161
  8
0
 62
     7
 10
53.309294999999992
 20
110.607984
 30
0.0
 40
113.91211699999999
 50
91.986682000000002
 51
92.464921000000004
  0
ARC
  5
162
  8
0
 62
     7
 10
57.643157999999993
 20
10.304667
 30
0.0
 40
214.30901800000001
 50
92.469203999999976
 51
93.380538000000001
  0
ARC
  5
163
  8
0
 62
     7
 10
67.350196999999994
 20
-161.97337099999999
 30
0.0
 40
386.859959
 50
93.311127999999997
 51
94.665666999999985
  0
ARC
  5
164
  8
0
 62
     7
 10
51.377429999999997
 20
34.474859000000002
 30
0.0
 40
189.763462
 50
94.683646999999993
 51
95.673593000000025
  0
ARC
  5
165
  8
0
 62
     7
 10
32.687550999999999
 20
219.50366600000001
 30
0.0
 40
3.8036269999999992
 50
91.057727999999997
 51
100.579921
  0
ARC
  5
166
  8
0
 62
     7
 10
33.071684999999988
 20
217.09804700000001
 30
0.0
 40
6.2392079999999996
 50
99.991405000000015
 51
110.53748999999991
  0
ARC
  5
167
  8
0
 62
     7
 10
33.421120000000002
 20
215.954925
 30
0.0
 40
7.4326319999999999
 50
109.968542
 51
121.91420100000001
  0
ARC
  5
168
  8
0
 62
     7
 10
31.983885000000001
 20
218.33115900000001
 30
0.0
 40
4.6559359999999987
 50
122.359808
 51
132.840057
  0
ARC
  5
169
  8
0
 62
     7
 10
30.878166
 20
218.95746700000001
 30
0.0
 40
3.466291
 50
126.464523
 51
136.46406200000001
  0
ARC
  5
16A
  8
0
 62
     7
 10
32.358165999999997
 20
217.473658
 30
0.0
 40
5.5615519999999989
 50
135.88467900000001
 51
147.12647000000001
  0
ARC
  5
16B
  8
0
 62
     7
 10
33.175055999999998
 20
216.86821800000001
 30
0.0
 40
6.576581
 50
146.559348
 51
159.09229999999999
  0
ARC
  5
16C
  8
0
 62
     7
 10
30.985641999999999
 20
217.73776699999999
 30
0.0
 40
4.2211290000000004
 50
159.51271399999999
 51
170.95812799999999
  0
ARC
  5
16D
  8
0
 62
     7
 10
52.496372999999991
 20
213.61599200000001
 30
0.0
 40
26.12144
 50
169.44443999999999
 51
173.24149199999999
  0
ARC
  5
16E
  8
0
 62
     7
 10
68.883631000000008
 20
211.489554
 30
0.0
 40
42.645465999999999
 50
172.99544299999999
 51
176.19731200000001
  0
ARC
  5
16F
  8
0
 62
     7
 10
90.229223000000005
 20
209.89832899999999
 30
0.0
 40
64.049824999999998
 50
176.043384
 51
180.20334
  0
ARC
  5
170
  8
0
 62
     7
 10
97.225200000000015
 20
209.693063
 30
0.0
 40
71.045401999999996
 50
180.0177789999999
 51
184.53925799999999
  0
ARC
  5
171
  8
0
 62
     7
 10
72.964282999999995
 20
207.93213900000001
 30
0.0
 40
46.721509999999988
 50
184.741175
 51
187.825028
  0
ARC
  5
172
  8
0
 62
     7
 10
55.612196999999988
 20
205.63790900000001
 30
0.0
 40
29.218779999999999
 50
188.000698
 51
191.137877
  0
ARC
  5
173
  8
0
 62
     7
 10
29.927208
 20
200.27557300000001
 30
0.0
 40
2.9967479999999989
 50
185.397063
 51
192.253118
  0
ARC
  5
174
  8
0
 62
     7
 10
32.527360000000002
 20
200.79891499999999
 30
0.0
 40
5.6488809999999994
 50
191.843221
 51
200.339101
  0
ARC
  5
175
  8
0
 62
     7
 10
33.637379000000003
 20
201.13462000000001
 30
0.0
 40
6.8067460000000004
 50
199.74111099999999
 51
209.71215599999999
  0
ARC
  5
176
  8
0
 62
     7
 10
30.65945
 20
199.489159
 30
0.0
 40
3.405097
 50
210.50071
 51
216.22887800000001
  0
ARC
  5
177
  8
0
 62
     7
 10
30.947568
 20
199.30776900000001
 30
0.0
 40
3.544476
 50
211.104232
 51
220.75439499999999
  0
ARC
  5
178
  8
0
 62
     7
 10
32.680582000000001
 20
200.71607900000001
 30
0.0
 40
5.7769899999999996
 50
220.114417
 51
228.31482199999999
  0
ARC
  5
179
  8
0
 62
     7
 10
33.669617000000002
 20
201.758441
 30
0.0
 40
7.2133250000000002
 50
227.954115
 51
243.096205
  0
ARC
  5
17A
  8
0
 62
     7
 10
32.307304999999999
 20
199.191633
 30
0.0
 40
4.3082219999999989
 50
243.80639500000001
 51
252.65046699999999
  0
ARC
  5
17B
  8
0
 62
     7
 10
32.225127999999998
 20
198.229682
 30
0.0
 40
3.3719169999999989
 50
249.10960900000001
 51
251.703205
  0
ARC
  5
17C
  8
0
 62
     7
 10
32.840721000000002
 20
200.07912300000001
 30
0.0
 40
5.3211159999999991
 50
251.661665
 51
254.35887099999999
  0
ARC
  5
17D
  8
0
 62
     7
 10
33.811871999999987
 20
203.55078700000001
 30
0.0
 40
8.9260549999999999
 50
254.36407399999999
 51
263.20261099999999
  0
ARC
  5
17E
  8
0
 62
     7
 10
33.272218000000002
 20
199.08380399999999
 30
0.0
 40
4.4266040000000002
 50
263.295209
 51
267.67659600000002
  0
ARC
  5
17F
  8
0
 62
     7
 10
44.532405999999988
 20
317.12364700000001
 30
0.0
 40
122.995955
 50
264.66331500000001
 51
265.1158759999999
  0
ARC
  5
180
  8
0
 62
     7
 10
57.866903000000001
 20
471.398596
 30
0.0
 40
277.84607199999999
 50
265.08474799999999
 51
265.45997499999999
  0
ARC
  5
181
  8
0
 62
     7
 10
68.300865000000002
 20
601.66690099999994
 30
0.0
 40
408.53154599999999
 50
265.44738799999999
 51
266.1026930000001
  0
ARC
  5
182
  8
0
 62
     7
 10
52.894565
 20
375.50314200000003
 30
0.0
 40
181.84365399999999
 50
266.10226499999999
 51
266.67213700000002
  0
ARC
  5
183
  8
0
 62
     7
 10
52.304630000000003
 20
331.79865699999999
 30
0.0
 40
138.19131200000001
 50
265.86445499999991
 51
266.88266800000002
  0
ARC
  5
184
  8
0
 62
     7
 10
60.190832999999998
 20
469.78688699999998
 30
0.0
 40
276.40446400000002
 50
266.80584900000002
 51
267.62436300000002
  0
ARC
  5
185
  8
0
 62
     7
 10
66.318325999999999
 20
609.65751099999989
 30
0.0
 40
416.40899000000002
 50
267.57972000000001
 51
269.16500600000001
  0
ARC
  5
186
  8
0
 62
     7
 10
62.941378999999998
 20
391.00910900000002
 30
0.0
 40
197.73468600000001
 50
269.220123
 51
270.35945099999998
  0
LINE
  5
187
  8
0
 62
     7
 10
24.872499999999999
 20
237.279
 30
0.0
 11
64.181799999999996
 21
237.279
 31
0.0
  0
ARC
  5
188
  8
0
 62
     7
 10
148.62585000000001
 20
227.16650999999999
 30
0.0
 40
124.16576499999999
 50
175.328596
 51
176.417394
  0
ARC
  5
189
  8
0
 62
     7
 10
211.61867899999999
 20
223.058638
 30
0.0
 40
187.29225199999999
 50
176.367346
 51
177.35198399999999
  0
ARC
  5
18A
  8
0
 62
     7
 10
305.680542
 20
218.54486700000001
 30
0.0
 40
281.46226000000001
 50
177.31873999999999
 51
178.515074
  0
ARC
  5
18B
  8
0
 62
     7
 10
434.91277400000001
 20
214.80683999999999
 30
0.0
 40
410.74814299999991
 50
178.46096499999999
 51
181.4135629999999
  0
ARC
  5
18C
  8
0
 62
     7
 10
278.0861569999999
 20
211.26605900000001
 30
0.0
 40
253.88211799999999
 50
181.48780400000001
 51
182.74297899999999
  0
ARC
  5
18D
  8
0
 62
     7
 10
170.63280599999999
 20
206.31498400000001
 30
0.0
 40
146.315076
 50
182.820052
 51
184.07450299999999
  0
ARC
  5
18E
  8
0
 62
     7
 10
26.624148000000002
 20
195.81832700000001
 30
0.0
 40
1.9392160000000001
 50
177.02940899999999
 51
180.54123200000001
  0
ARC
  5
18F
  8
0
 62
     7
 10
28.847650000000002
 20
195.837827
 30
0.0
 40
4.1628030000000003
 50
180.52052800000001
 51
187.03620000000001
  0
ARC
  5
190
  8
0
 62
     7
 10
28.974575999999999
 20
195.79921100000001
 30
0.0
 40
4.2843809999999989
 50
186.31572600000001
 51
194.233947
  0
ARC
  5
191
  8
0
 62
     7
 10
27.308628000000009
 20
195.18747200000001
 30
0.0
 40
2.5258250000000002
 50
190.071561
 51
210.15879000000001
  0
ARC
  5
192
  8
0
 62
     7
 10
27.940728
 20
195.519428
 30
0.0
 40
3.239279999999999
 50
209.618527
 51
250.30551500000001
  0
ARC
  5
193
  8
0
 62
     7
 10
27.632016
 20
194.822427
 30
0.0
 40
2.4796409999999991
 50
251.59404599999999
 51
261.08165000000002
  0
ARC
  5
194
  8
0
 62
     7
 10
27.91778
 20
196.03833399999999
 30
0.0
 40
3.7263299999999999
 50
259.639071
 51
262.10378700000001
  0
ARC
  5
195
  8
0
 62
     7
 10
28.582001000000002
 20
200.69876099999999
 30
0.0
 40
8.4338379999999997
 50
261.983698
 51
267.801085
  0
ARC
  5
196
  8
0
 62
     7
 10
43.787691999999993
 20
436.05222199999997
 30
0.0
 40
244.27520899999999
 50
266.35509200000001
 51
267.121286
  0
ARC
  5
197
  8
0
 62
     7
 10
54.472081999999993
 20
640.45605399999999
 30
0.0
 40
448.95787499999989
 50
267.06955900000003
 51
267.69491599999998
  0
ARC
  5
198
  8
0
 62
     7
 10
66.862240999999997
 20
939.78990399999975
 30
0.0
 40
748.54792799999996
 50
267.668835
 51
269.300253
  0
ARC
  5
199
  8
0
 62
     7
 10
62.455137999999998
 20
600.119822
 30
0.0
 40
408.84943700000002
 50
269.33647300000001
 51
269.98989999999998
  0
ARC
  5
19A
  8
0
 62
     7
 10
62.261869999999988
 20
424.8212989999999
 30
0.0
 40
233.550939
 50
270.02972599999998
 51
270.47098999999997
  0
LINE
  5
19B
  8
0
  6
AIGENLINE001
 62
     7
 10
47.3611
 20
119.10899999999999
 30
0.0
 11
53.299100000000003
 21
119.10899999999999
 31
0.0
  0
LINE
  5
19C
  8
0
  6
AIGENLINE001
 62
     7
 10
166.78200000000001
 20
120.10899999999999
 30
0.0
 11
171.36799999999999
 21
120.10899999999999
 31
0.0
  0
LINE
  5
19D
  8
0
  6
AIGENLINE001
 62
     7
 10
60.231000000000002
 20
120.10899999999999
 30
0.0
 11
68.529899999999998
 21
120.10899999999999
 31
0.0
  0
ARC
  5
19E
  8
0
  6
AIGENLINE003
 62
     7
 10
74.181815
 20
230.77858699999999
 30
0.0
 40
1.7501199999999999
 50
270.00002000000001
 51
359.99999000000003
  0
ARC
  5
19F
  8
0
  6
AIGENLINE003
 62
     7
 10
74.181900999999996
 20
230.77850100000001
 30
0.0
 40
1.7500329999999999
 50
179.99715
 51
269.99720000000002
  0
ARC
  5
1A0
  8
0
  6
AIGENLINE003
 62
     7
 10
74.181815999999998
 20
230.77858699999999
 30
0.0
 40
1.7499480000000001
 50
90.0
 51
179.99996999999999
  0
ARC
  5
1A1
  8
0
  6
AIGENLINE003
 62
     7
 10
74.181900999999996
 20
230.77850100000001
 30
0.0
 40
1.7500340000000001
 50
0.00283
 51
90.002800000000008
  0
LINE
  5
1A2
  8
0
  6
AIGENLINE001
 62
     7
 10
69.634600000000006
 20
230.779
 30
0.0
 11
78.342500000000001
 21
230.779
 31
0.0
  0
LINE
  5
1A3
  8
0
  6
AIGENLINE001
 62
     7
 10
74.181799999999996
 20
234.72200000000001
 30
0.0
 11
74.181799999999996
 21
227.31
 31
0.0
  0
ARC
  5
1A4
  8
0
  6
AIGENLINE003
 62
     7
 10
54.181702999999999
 20
230.77858699999999
 30
0.0
 40
1.7501199999999999
 50
270.00002000000001
 51
359.99999000000003
  0
ARC
  5
1A5
  8
0
  6
AIGENLINE003
 62
     7
 10
54.181789999999999
 20
230.77850100000001
 30
0.0
 40
1.7500329999999999
 50
179.99715
 51
269.99720000000002
  0
ARC
  5
1A6
  8
0
  6
AIGENLINE003
 62
     7
 10
54.181704000000011
 20
230.77858699999999
 30
0.0
 40
1.7499480000000001
 50
90.0
 51
179.99996999999999
  0
ARC
  5
1A7
  8
0
  6
AIGENLINE003
 62
     7
 10
54.181789999999999
 20
230.77850100000001
 30
0.0
 40
1.7500340000000001
 50
0.00283
 51
90.002800000000008
  0
LINE
  5
1A8
  8
0
  6
AIGENLINE001
 62
     7
 10
49.634500000000003
 20
230.779
 30
0.0
 11
58.342399999999998
 21
230.779
 31
0.0
  0
LINE
  5
1A9
  8
0
  6
AIGENLINE001
 62
     7
 10
54.181699999999992
 20
234.72200000000001
 30
0.0
 11
54.181699999999992
 21
227.31
 31
0.0
  0
ARC
  5
1AA
  8
0
 62
     7
 10
64.181844999999996
 20
230.77858699999999
 30
0.0
 40
1.7501199999999999
 50
270.00002000000001
 51
359.99999000000003
  0
ARC
  5
1AB
  8
0
 62
     7
 10
64.181931000000006
 20
230.77850100000001
 30
0.0
 40
1.7500329999999999
 50
179.99715
 51
269.99720000000002
  0
ARC
  5
1AC
  8
0
 62
     7
 10
64.181845999999993
 20
230.77858699999999
 30
0.0
 40
1.7499480000000001
 50
90.0
 51
179.99996999999999
  0
ARC
  5
1AD
  8
0
 62
     7
 10
64.181931000000006
 20
230.77850100000001
 30
0.0
 40
1.7500340000000001
 50
0.00283
 51
90.002800000000008
  0
LINE
  5
1AE
  8
0
  6
AIGENLINE001
 62
     7
 10
59.634599999999999
 20
230.779
 30
0.0
 11
68.342500000000001
 21
230.779
 31
0.0
  0
ARC
  5
1AF
  8
0
 62
     7
 10
64.093693999999999
 20
214.366694
 30
0.0
 40
2.3899099999999991
 50
272.11383499999999
 51
357.88617499999998
  0
ARC
  5
1B0
  8
0
 62
     7
 10
64.270403000000002
 20
214.36692099999999
 30
0.0
 40
2.3901520000000001
 50
182.119078
 51
267.87666100000001
  0
ARC
  5
1B1
  8
0
 62
     7
 10
64.181845999999993
 20
214.27854199999999
 30
0.0
 40
2.2999610000000001
 50
90.0
 51
179.99996999999999
  0
ARC
  5
1B2
  8
0
 62
     7
 10
64.181931000000006
 20
214.27845600000001
 30
0.0
 40
2.3000470000000002
 50
0.002155
 51
90.002126000000004
  0
ARC
  5
1B3
  8
0
  6
AIGENLINE003
 62
     7
 10
64.181931999999989
 20
120.108932
 30
0.0
 40
1.2499750000000001
 50
269.99607200000003
 51
359.99604199999999
  0
ARC
  5
1B4
  8
0
  6
AIGENLINE003
 62
     7
 10
64.181759
 20
120.108932
 30
0.0
 40
1.249973999999999
 50
180.00395800000001
 51
270.0039680000001
  0
ARC
  5
1B5
  8
0
  6
AIGENLINE003
 62
     7
 10
64.181759999999997
 20
120.10875900000001
 30
0.0
 40
1.2499750000000001
 50
89.996052000000006
 51
179.99602200000001
  0
ARC
  5
1B6
  8
0
  6
AIGENLINE003
 62
     7
 10
64.181931999999989
 20
120.10875900000001
 30
0.0
 40
1.2499750000000001
 50
0.003958
 51
90.003928000000016
  0
LINE
  5
1B7
  8
0
 62
     7
 10
51.693300000000001
 20
243.267
 30
0.0
 11
45.215400000000002
 21
243.267
 31
0.0
  0
LINE
  5
1B8
  8
0
 62
     7
 10
77.564400000000006
 20
207.26900000000001
 30
0.0
 11
71.191500000000005
 21
207.26900000000001
 31
0.0
  0
LINE
  5
1B9
  8
0
 62
     7
 10
102.182
 20
178.81399999999999
 30
0.0
 11
26.1815
 21
178.81399999999999
 31
0.0
  0
LINE
  5
1BA
  8
0
 62
     7
 10
78.181899999999999
 20
131.85299999999989
 30
0.0
 11
50.181800000000003
 21
131.85299999999989
 31
0.0
  0
LINE
  5
1BB
  8
0
  6
AIGENLINE001
 62
     7
 10
50.181800000000003
 20
241.45500000000001
 30
0.0
 11
50.181800000000003
 21
233.607
 31
0.0
  0
LINE
  5
1BC
  8
0
  6
AIGENLINE001
 62
     7
 10
78.181899999999999
 20
241.45500000000001
 30
0.0
 11
78.181899999999999
 21
233.607
 31
0.0
  0
LINE
  5
1BD
  8
0
 62
     7
 10
50.181800000000003
 20
132.553
 30
0.0
 11
50.181800000000003
 21
122.199
 31
0.0
  0
LINE
  5
1BE
  8
0
 62
     7
 10
75.971599999999995
 20
131.25999999999999
 30
0.0
 11
78.181899999999999
 21
131.85299999999989
 31
0.0
  0
LINE
  5
1BF
  8
0
 62
     7
 10
78.181899999999999
 20
131.85299999999989
 30
0.0
 11
75.971599999999995
 21
132.44399999999999
 31
0.0
  0
LINE
  5
1C0
  8
0
 62
     7
 10
75.971599999999995
 20
132.44399999999999
 30
0.0
 11
75.971599999999995
 21
131.25999999999999
 31
0.0
  0
LINE
  5
1C1
  8
0
 62
     7
 10
52.392099999999992
 20
132.44399999999999
 30
0.0
 11
50.181800000000003
 21
131.85299999999989
 31
0.0
  0
LINE
  5
1C2
  8
0
 62
     7
 10
50.181800000000003
 20
131.85299999999989
 30
0.0
 11
52.392099999999992
 21
131.25999999999999
 31
0.0
  0
LINE
  5
1C3
  8
0
 62
     7
 10
52.392099999999992
 20
131.25999999999999
 30
0.0
 11
52.392099999999992
 21
132.44399999999999
 31
0.0
  0
LINE
  5
1C4
  8
0
 62
     7
 10
181.39699999999999
 20
187.958
 30
0.0
 11
113.39700000000001
 21
187.958
 31
0.0
  0
LINE
  5
1C5
  8
0
 62
     7
 10
113.39700000000001
 20
196.44300000000001
 30
0.0
 11
113.39700000000001
 21
187.25800000000001
 31
0.0
  0
LINE
  5
1C6
  8
0
 62
     7
 10
181.39699999999999
 20
196.44300000000001
 30
0.0
 11
181.39699999999999
 21
187.25800000000001
 31
0.0
  0
LINE
  5
1C7
  8
0
 62
     7
 10
179.18700000000001
 20
187.36500000000001
 30
0.0
 11
181.39699999999999
 21
187.958
 31
0.0
  0
LINE
  5
1C8
  8
0
 62
     7
 10
181.39699999999999
 20
187.958
 30
0.0
 11
179.18700000000001
 21
188.55000000000001
 31
0.0
  0
LINE
  5
1C9
  8
0
 62
     7
 10
179.18700000000001
 20
188.55000000000001
 30
0.0
 11
179.18700000000001
 21
187.36500000000001
 31
0.0
  0
LINE
  5
1CA
  8
0
 62
     7
 10
115.607
 20
188.55000000000001
 30
0.0
 11
113.39700000000001
 21
187.958
 31
0.0
  0
LINE
  5
1CB
  8
0
 62
     7
 10
113.39700000000001
 20
187.958
 30
0.0
 11
115.607
 21
187.36500000000001
 31
0.0
  0
LINE
  5
1CC
  8
0
 62
     7
 10
115.607
 20
187.36500000000001
 30
0.0
 11
115.607
 21
188.55000000000001
 31
0.0
  0
LINE
  5
1CD
  8
0
 62
     7
 10
104.182
 20
170.029
 30
0.0
 11
24.1816
 21
170.029
 31
0.0
  0
LINE
  5
1CE
  8
0
  6
AIGENLINE001
 62
     7
 10
50.181800000000003
 20
121.499
 30
0.0
 11
50.181800000000003
 21
116.92100000000001
 31
0.0
  0
LINE
  5
1CF
  8
0
  6
AIGENLINE001
 62
     7
 10
64.181799999999996
 20
126.227
 30
0.0
 11
64.181799999999996
 21
104.625
 31
0.0
  0
LINE
  5
1D0
  8
0
  6
AIGENLINE001
 62
     7
 10
64.181799999999996
 20
239.459
 30
0.0
 11
64.181799999999996
 21
188.309
 31
0.0
  0
LINE
  5
1D1
  8
0
 62
     7
 10
24.1816
 20
192.096
 30
0.0
 11
24.1816
 21
169.32900000000001
 31
0.0
  0
LINE
  5
1D2
  8
0
 62
     7
 10
26.1815
 20
197.96700000000001
 30
0.0
 11
26.1815
 21
178.114
 31
0.0
  0
LINE
  5
1D3
  8
0
 62
     7
 10
51.693300000000001
 20
243.267
 30
0.0
 11
68.009399999999999
 21
226.95099999999999
 31
0.0
  0
LINE
  5
1D4
  8
0
 62
     7
 10
60.962699999999998
 20
233.16
 30
0.0
 11
62.944499999999998
 21
232.01599999999999
 31
0.0
  0
LINE
  5
1D5
  8
0
 62
     7
 10
62.944499999999998
 20
232.01599999999999
 30
0.0
 11
61.80019999999999
 21
233.99799999999999
 31
0.0
  0
LINE
  5
1D6
  8
0
 62
     7
 10
61.80019999999999
 20
233.99799999999999
 30
0.0
 11
60.962699999999998
 21
233.16
 31
0.0
  0
LINE
  5
1D7
  8
0
 62
     7
 10
67.4011
 20
228.39699999999999
 30
0.0
 11
65.419300000000007
 21
229.541
 31
0.0
  0
LINE
  5
1D8
  8
0
 62
     7
 10
65.419300000000007
 20
229.541
 30
0.0
 11
66.563599999999994
 21
227.559
 31
0.0
  0
LINE
  5
1D9
  8
0
 62
     7
 10
66.563599999999994
 20
227.559
 30
0.0
 11
67.4011
 21
228.39699999999999
 31
0.0
  0
LINE
  5
1DA
  8
0
 62
     7
 10
59.7301
 20
218.72999999999999
 30
0.0
 11
71.191500000000005
 21
207.26900000000001
 31
0.0
  0
LINE
  5
1DB
  8
0
 62
     7
 10
102.182
 20
197.96700000000001
 30
0.0
 11
102.182
 21
178.114
 31
0.0
  0
LINE
  5
1DC
  8
0
 62
     7
 10
147.245
 20
112.12
 30
0.0
 11
167.47900000000001
 21
112.12
 31
0.0
  0
LINE
  5
1DD
  8
0
 62
     7
 10
154.286
 20
112.119
 30
0.0
 11
156.286
 21
110.651
 31
0.0
  0
LINE
  5
1DE
  8
0
  6
AIGENLINE003
 62
     7
 10
157.48599999999999
 20
112.10899999999999
 30
0.0
 11
157.48599999999999
 21
107.60899999999999
 31
0.0
  0
LINE
  5
1DF
  8
0
  6
AIGENLINE003
 62
     7
 10
155.786
 20
113.10899999999999
 30
0.0
 11
157.48599999999999
 21
112.10899999999999
 31
0.0
  0
LINE
  5
1E0
  8
0
  6
AIGENLINE003
 62
     7
 10
163.78
 20
113.10899999999999
 30
0.0
 11
162.083
 21
112.10899999999999
 31
0.0
  0
LINE
  5
1E1
  8
0
  6
AIGENLINE003
 62
     7
 10
162.083
 20
112.10899999999999
 30
0.0
 11
162.08699999999999
 21
107.60899999999999
 31
0.0
  0
LINE
  5
1E2
  8
0
 62
     7
 10
156.286
 20
110.651
 30
0.0
 11
156.286
 21
107.60899999999999
 31
0.0
  0
LINE
  5
1E3
  8
0
 62
     7
 10
171.78700000000001
 20
112.124
 30
0.0
 11
171.78700000000001
 21
113.008
 31
0.0
  0
LINE
  5
1E4
  8
0
 62
     7
 10
168.202
 20
108.453
 30
0.0
 11
171.24299999999999
 21
110.96899999999999
 31
0.0
  0
LINE
  5
1E5
  8
0
 62
     7
 10
163.28700000000001
 20
108.108
 30
0.0
 11
163.28700000000001
 21
107.60899999999999
 31
0.0
  0
LINE
  5
1E6
  8
0
  6
AIGENLINE001
 62
     7
 10
159.78700000000001
 20
116.03400000000001
 30
0.0
 11
159.78700000000001
 21
106.001
 31
0.0
  0
LINE
  5
1E7
  8
0
  6
AIGENLINE003
 62
     7
 10
163.78
 20
113.10899999999999
 30
0.0
 11
165.892
 21
113.202
 31
0.0
  0
LINE
  5
1E8
  8
0
  6
AIGENLINE003
 62
     7
 10
155.786
 20
113.10899999999999
 30
0.0
 11
150.00999999999999
 21
113.364
 31
0.0
  0
LINE
  5
1E9
  8
0
 62
     7
 10
143.28700000000001
 20
115.10899999999999
 30
0.0
 11
144.41499999999999
 21
113.559
 31
0.0
  0
LINE
  5
1EA
  8
0
  6
AIGENLINE003
 62
     7
 10
170.18700000000001
 20
123.73999999999999
 30
0.0
 11
167.75899999999999
 21
114.77500000000001
 31
0.0
  0
LINE
  5
1EB
  8
0
  6
AIGENLINE001
 62
     7
 10
176.28700000000001
 20
126.48999999999999
 30
0.0
 11
176.28700000000001
 21
121.876
 31
0.0
  0
LINE
  5
1EC
  8
0
  6
AIGENLINE003
 62
     7
 10
147.95099999999999
 20
114.312
 30
0.0
 11
138.92400000000001
 21
123.96299999999999
 31
0.0
  0
LINE
  5
1ED
  8
0
 62
     7
 10
182.78700000000001
 20
124.10899999999999
 30
0.0
 11
182.78700000000001
 21
113.798
 31
0.0
  0
LINE
  5
1EE
  8
0
 62
     7
 10
104.182
 20
192.096
 30
0.0
 11
104.182
 21
169.32900000000001
 31
0.0
  0
LINE
  5
1EF
  8
0
 62
     7
 10
99.971599999999995
 20
178.22200000000001
 30
0.0
 11
102.182
 21
178.81399999999999
 31
0.0
  0
LINE
  5
1F0
  8
0
 62
     7
 10
102.182
 20
178.81399999999999
 30
0.0
 11
99.971599999999995
 21
179.40599999999989
 31
0.0
  0
LINE
  5
1F1
  8
0
 62
     7
 10
99.971599999999995
 20
179.40599999999989
 30
0.0
 11
99.971599999999995
 21
178.22200000000001
 31
0.0
  0
LINE
  5
1F2
  8
0
 62
     7
 10
101.97199999999999
 20
169.43700000000001
 30
0.0
 11
104.182
 21
170.029
 31
0.0
  0
LINE
  5
1F3
  8
0
 62
     7
 10
104.182
 20
170.029
 30
0.0
 11
101.97199999999999
 21
170.62100000000001
 31
0.0
  0
LINE
  5
1F4
  8
0
 62
     7
 10
101.97199999999999
 20
170.62100000000001
 30
0.0
 11
101.97199999999999
 21
169.43700000000001
 31
0.0
  0
LINE
  5
1F5
  8
0
 62
     7
 10
26.391999999999999
 20
170.62100000000001
 30
0.0
 11
24.1816
 21
170.029
 31
0.0
  0
LINE
  5
1F6
  8
0
 62
     7
 10
24.1816
 20
170.029
 30
0.0
 11
26.391999999999999
 21
169.43700000000001
 31
0.0
  0
LINE
  5
1F7
  8
0
 62
     7
 10
26.391999999999999
 20
169.43700000000001
 30
0.0
 11
26.391999999999999
 21
170.62100000000001
 31
0.0
  0
LINE
  5
1F8
  8
0
 62
     7
 10
28.3919
 20
179.40599999999989
 30
0.0
 11
26.1815
 21
178.81399999999999
 31
0.0
  0
LINE
  5
1F9
  8
0
 62
     7
 10
26.1815
 20
178.81399999999999
 30
0.0
 11
28.3919
 21
178.22200000000001
 31
0.0
  0
LINE
  5
1FA
  8
0
 62
     7
 10
28.3919
 20
178.22200000000001
 30
0.0
 11
28.3919
 21
179.40599999999989
 31
0.0
  0
LINE
  5
1FB
  8
0
 62
     7
 10
110.76900000000001
 20
124.10899999999999
 30
0.0
 11
110.76900000000001
 21
119.10899999999999
 31
0.0
  0
LINE
  5
1FC
  8
0
 62
     7
 10
111.36199999999999
 20
121.898
 30
0.0
 11
110.76900000000001
 21
124.10899999999999
 31
0.0
  0
LINE
  5
1FD
  8
0
 62
     7
 10
110.76900000000001
 20
124.10899999999999
 30
0.0
 11
110.178
 21
121.898
 31
0.0
  0
LINE
  5
1FE
  8
0
 62
     7
 10
110.178
 20
121.898
 30
0.0
 11
111.36199999999999
 21
121.898
 31
0.0
  0
LINE
  5
1FF
  8
0
 62
     7
 10
110.178
 20
121.319
 30
0.0
 11
110.76900000000001
 21
119.10899999999999
 31
0.0
  0
LINE
  5
200
  8
0
 62
     7
 10
110.76900000000001
 20
119.10899999999999
 30
0.0
 11
111.36199999999999
 21
121.319
 31
0.0
  0
LINE
  5
201
  8
0
 62
     7
 10
111.36199999999999
 20
121.319
 30
0.0
 11
110.178
 21
121.319
 31
0.0
  0
LINE
  5
202
  8
0
 62
     7
 10
81.999300000000005
 20
119.10899999999999
 30
0.0
 11
111.47
 21
119.10899999999999
 31
0.0
  0
LINE
  5
203
  8
0
 62
     7
 10
116.931
 20
124.10899999999999
 30
0.0
 11
116.931
 21
115.10899999999999
 31
0.0
  0
LINE
  5
204
  8
0
 62
     7
 10
117.523
 20
121.898
 30
0.0
 11
116.931
 21
124.10899999999999
 31
0.0
  0
LINE
  5
205
  8
0
 62
     7
 10
116.931
 20
124.10899999999999
 30
0.0
 11
116.339
 21
121.898
 31
0.0
  0
LINE
  5
206
  8
0
 62
     7
 10
116.339
 20
121.898
 30
0.0
 11
117.523
 21
121.898
 31
0.0
  0
LINE
  5
207
  8
0
 62
     7
 10
116.339
 20
117.319
 30
0.0
 11
116.931
 21
115.10899999999999
 31
0.0
  0
LINE
  5
208
  8
0
 62
     7
 10
116.931
 20
115.10899999999999
 30
0.0
 11
117.523
 21
117.319
 31
0.0
  0
LINE
  5
209
  8
0
 62
     7
 10
117.523
 20
117.319
 30
0.0
 11
116.339
 21
117.319
 31
0.0
  0
LINE
  5
20A
  8
0
 62
     7
 10
157.80699999999999
 20
124.10899999999999
 30
0.0
 11
157.80699999999999
 21
113.10899999999999
 31
0.0
  0
LINE
  5
20B
  8
0
 62
     7
 10
158.40000000000001
 20
121.898
 30
0.0
 11
157.80699999999999
 21
124.10899999999999
 31
0.0
  0
LINE
  5
20C
  8
0
 62
     7
 10
157.80699999999999
 20
124.10899999999999
 30
0.0
 11
157.215
 21
121.898
 31
0.0
  0
LINE
  5
20D
  8
0
 62
     7
 10
157.215
 20
121.898
 30
0.0
 11
158.40000000000001
 21
121.898
 31
0.0
  0
LINE
  5
20E
  8
0
 62
     7
 10
157.215
 20
115.319
 30
0.0
 11
157.80699999999999
 21
113.10899999999999
 31
0.0
  0
LINE
  5
20F
  8
0
 62
     7
 10
157.80699999999999
 20
113.10899999999999
 30
0.0
 11
158.40000000000001
 21
115.319
 31
0.0
  0
LINE
  5
210
  8
0
 62
     7
 10
158.40000000000001
 20
115.319
 30
0.0
 11
157.215
 21
115.319
 31
0.0
  0
LINE
  5
211
  8
0
 62
     7
 10
124.078
 20
124.10899999999999
 30
0.0
 11
124.078
 21
107.60899999999999
 31
0.0
  0
LINE
  5
212
  8
0
 62
     7
 10
68.305700000000002
 20
107.60899999999999
 30
0.0
 11
124.77800000000001
 21
107.60899999999999
 31
0.0
  0
LINE
  5
213
  8
0
 62
     7
 10
102.35899999999999
 20
115.10899999999999
 30
0.0
 11
117.631
 21
115.10899999999999
 31
0.0
  0
LINE
  5
214
  8
0
 62
     7
 10
105.157
 20
124.10899999999999
 30
0.0
 11
124.77800000000001
 21
124.10899999999999
 31
0.0
  0
LINE
  5
215
  8
0
 62
     7
 10
124.67100000000001
 20
121.898
 30
0.0
 11
124.078
 21
124.10899999999999
 31
0.0
  0
LINE
  5
216
  8
0
 62
     7
 10
124.078
 20
124.10899999999999
 30
0.0
 11
123.486
 21
121.898
 31
0.0
  0
LINE
  5
217
  8
0
 62
     7
 10
123.486
 20
121.898
 30
0.0
 11
124.67100000000001
 21
121.898
 31
0.0
  0
LINE
  5
218
  8
0
 62
     7
 10
123.486
 20
109.819
 30
0.0
 11
124.078
 21
107.60899999999999
 31
0.0
  0
LINE
  5
219
  8
0
 62
     7
 10
124.078
 20
107.60899999999999
 30
0.0
 11
124.67100000000001
 21
109.819
 31
0.0
  0
LINE
  5
21A
  8
0
 62
     7
 10
124.67100000000001
 20
109.819
 30
0.0
 11
123.486
 21
109.819
 31
0.0
  0
LINE
  5
21B
  8
0
 62
     7
 10
88.156800000000004
 20
237.279
 30
0.0
 11
88.156800000000004
 21
224.779
 31
0.0
  0
LINE
  5
21C
  8
0
 62
     7
 10
60.573799999999999
 20
217.04900000000001
 30
0.0
 11
62.555599999999998
 21
215.905
 31
0.0
  0
LINE
  5
21D
  8
0
 62
     7
 10
62.555599999999998
 20
215.905
 30
0.0
 11
61.411299999999997
 21
217.887
 31
0.0
  0
LINE
  5
21E
  8
0
 62
     7
 10
61.411299999999997
 20
217.887
 30
0.0
 11
60.573799999999999
 21
217.04900000000001
 31
0.0
  0
LINE
  5
21F
  8
0
 62
     7
 10
67.790300000000002
 20
211.50800000000001
 30
0.0
 11
65.808499999999995
 21
212.65199999999999
 31
0.0
  0
LINE
  5
220
  8
0
 62
     7
 10
65.808499999999995
 20
212.65199999999999
 30
0.0
 11
66.952799999999996
 21
210.66999999999999
 31
0.0
  0
LINE
  5
221
  8
0
 62
     7
 10
66.952799999999996
 20
210.66999999999999
 30
0.0
 11
67.790300000000002
 21
211.50800000000001
 31
0.0
  0
LINE
  5
222
  8
0
 62
     7
 10
87.564499999999995
 20
226.989
 30
0.0
 11
88.156800000000004
 21
224.779
 31
0.0
  0
LINE
  5
223
  8
0
 62
     7
 10
88.156800000000004
 20
224.779
 30
0.0
 11
88.748999999999995
 21
226.989
 31
0.0
  0
LINE
  5
224
  8
0
 62
     7
 10
88.748999999999995
 20
226.989
 30
0.0
 11
87.564499999999995
 21
226.989
 31
0.0
  0
LINE
  5
225
  8
0
 62
     7
 10
79.042500000000004
 20
230.779
 30
0.0
 11
88.856800000000007
 21
230.779
 31
0.0
  0
LINE
  5
226
  8
0
 62
     7
 10
88.748999999999995
 20
235.06800000000001
 30
0.0
 11
88.156800000000004
 21
237.279
 31
0.0
  0
LINE
  5
227
  8
0
 62
     7
 10
88.156800000000004
 20
237.279
 30
0.0
 11
87.564499999999995
 21
235.06800000000001
 31
0.0
  0
LINE
  5
228
  8
0
 62
     7
 10
87.564499999999995
 20
235.06800000000001
 30
0.0
 11
88.748999999999995
 21
235.06800000000001
 31
0.0
  0
LINE
  5
229
  8
0
 62
     7
 10
88.748999999999995
 20
228.56800000000001
 30
0.0
 11
88.156800000000004
 21
230.779
 31
0.0
  0
LINE
  5
22A
  8
0
 62
     7
 10
88.156800000000004
 20
230.779
 30
0.0
 11
87.564499999999995
 21
228.56800000000001
 31
0.0
  0
LINE
  5
22B
  8
0
 62
     7
 10
87.564499999999995
 20
228.56800000000001
 30
0.0
 11
88.748999999999995
 21
228.56800000000001
 31
0.0
  0
LINE
  5
22C
  8
0
 62
     7
 10
87.564499999999995
 20
232.989
 30
0.0
 11
88.156800000000004
 21
230.779
 31
0.0
  0
LINE
  5
22D
  8
0
 62
     7
 10
88.156800000000004
 20
230.779
 30
0.0
 11
88.748999999999995
 21
232.989
 31
0.0
  0
LINE
  5
22E
  8
0
 62
     7
 10
88.748999999999995
 20
232.989
 30
0.0
 11
87.564499999999995
 21
232.989
 31
0.0
  0
LINE
  5
22F
  8
0
 62
     7
 10
95.282600000000016
 20
237.279
 30
0.0
 11
95.282600000000016
 21
185.13399999999999
 31
0.0
  0
LINE
  5
230
  8
0
 62
     7
 10
137.636
 20
235.06800000000001
 30
0.0
 11
137.04400000000001
 21
237.279
 31
0.0
  0
LINE
  5
231
  8
0
 62
     7
 10
137.04400000000001
 20
237.279
 30
0.0
 11
136.452
 21
235.06800000000001
 31
0.0
  0
LINE
  5
232
  8
0
 62
     7
 10
136.452
 20
235.06800000000001
 30
0.0
 11
137.636
 21
235.06800000000001
 31
0.0
  0
LINE
  5
233
  8
0
 62
     7
 10
136.452
 20
216.489
 30
0.0
 11
137.04400000000001
 21
214.279
 31
0.0
  0
LINE
  5
234
  8
0
 62
     7
 10
137.04400000000001
 20
214.279
 30
0.0
 11
137.636
 21
216.489
 31
0.0
  0
LINE
  5
235
  8
0
 62
     7
 10
137.636
 20
216.489
 30
0.0
 11
136.452
 21
216.489
 31
0.0
  0
LINE
  5
236
  8
0
 62
     7
 10
186.06299999999999
 20
237.279
 30
0.0
 11
186.06299999999999
 21
197.27799999999999
 31
0.0
  0
LINE
  5
237
  8
0
 62
     7
 10
182.483
 20
197.27799999999999
 30
0.0
 11
186.76300000000001
 21
197.27799999999999
 31
0.0
  0
LINE
  5
238
  8
0
 62
     7
 10
186.655
 20
235.06800000000001
 30
0.0
 11
186.06299999999999
 21
237.279
 31
0.0
  0
LINE
  5
239
  8
0
 62
     7
 10
186.06299999999999
 20
237.279
 30
0.0
 11
185.471
 21
235.06800000000001
 31
0.0
  0
LINE
  5
23A
  8
0
 62
     7
 10
185.471
 20
235.06800000000001
 30
0.0
 11
186.655
 21
235.06800000000001
 31
0.0
  0
LINE
  5
23B
  8
0
 62
     7
 10
185.471
 20
199.489
 30
0.0
 11
186.06299999999999
 21
197.27799999999999
 31
0.0
  0
LINE
  5
23C
  8
0
 62
     7
 10
186.06299999999999
 20
197.27799999999999
 30
0.0
 11
186.655
 21
199.489
 31
0.0
  0
LINE
  5
23D
  8
0
 62
     7
 10
186.655
 20
199.489
 30
0.0
 11
185.471
 21
199.489
 31
0.0
  0
LINE
  5
23E
  8
0
 62
     7
 10
108.986
 20
237.279
 30
0.0
 11
108.986
 21
191.27799999999999
 31
0.0
  0
LINE
  5
23F
  8
0
 62
     7
 10
104.191
 20
237.279
 30
0.0
 11
109.68600000000001
 21
237.279
 31
0.0
  0
LINE
  5
240
  8
0
 62
     7
 10
83.576499999999996
 20
191.27799999999999
 30
0.0
 11
109.68600000000001
 21
191.27799999999999
 31
0.0
  0
LINE
  5
241
  8
0
 62
     7
 10
81.688699999999997
 20
193.27799999999999
 30
0.0
 11
95.982699999999994
 21
193.27799999999999
 31
0.0
  0
LINE
  5
242
  8
0
 62
     7
 10
80.435699999999997
 20
224.779
 30
0.0
 11
95.982699999999994
 21
224.779
 31
0.0
  0
LINE
  5
243
  8
0
  6
AIGENLINE001
 62
     7
 10
57.4236
 20
214.279
 30
0.0
 11
70.820199999999986
 21
214.279
 31
0.0
  0
LINE
  5
244
  8
0
 62
     7
 10
95.875200000000007
 20
235.06800000000001
 30
0.0
 11
95.282600000000016
 21
237.279
 31
0.0
  0
LINE
  5
245
  8
0
 62
     7
 10
95.282600000000016
 20
237.279
 30
0.0
 11
94.690799999999996
 21
235.06800000000001
 31
0.0
  0
LINE
  5
246
  8
0
 62
     7
 10
94.690799999999996
 20
235.06800000000001
 30
0.0
 11
95.875200000000007
 21
235.06800000000001
 31
0.0
  0
LINE
  5
247
  8
0
 62
     7
 10
95.875200000000007
 20
189.06800000000001
 30
0.0
 11
95.282600000000016
 21
191.27799999999999
 31
0.0
  0
LINE
  5
248
  8
0
 62
     7
 10
95.282600000000016
 20
191.27799999999999
 30
0.0
 11
94.690799999999996
 21
189.06800000000001
 31
0.0
  0
LINE
  5
249
  8
0
 62
     7
 10
94.690799999999996
 20
189.06800000000001
 30
0.0
 11
95.875200000000007
 21
189.06800000000001
 31
0.0
  0
LINE
  5
24A
  8
0
 62
     7
 10
109.578
 20
235.06800000000001
 30
0.0
 11
108.986
 21
237.279
 31
0.0
  0
LINE
  5
24B
  8
0
 62
     7
 10
108.986
 20
237.279
 30
0.0
 11
108.39400000000001
 21
235.06800000000001
 31
0.0
  0
LINE
  5
24C
  8
0
 62
     7
 10
108.39400000000001
 20
235.06800000000001
 30
0.0
 11
109.578
 21
235.06800000000001
 31
0.0
  0
LINE
  5
24D
  8
0
 62
     7
 10
95.875200000000007
 20
222.56800000000001
 30
0.0
 11
95.282600000000016
 21
224.779
 31
0.0
  0
LINE
  5
24E
  8
0
 62
     7
 10
95.282600000000016
 20
224.779
 30
0.0
 11
94.690799999999996
 21
222.56800000000001
 31
0.0
  0
LINE
  5
24F
  8
0
 62
     7
 10
94.690799999999996
 20
222.56800000000001
 30
0.0
 11
95.875200000000007
 21
222.56800000000001
 31
0.0
  0
LINE
  5
250
  8
0
 62
     7
 10
108.39400000000001
 20
193.489
 30
0.0
 11
108.986
 21
191.27799999999999
 31
0.0
  0
LINE
  5
251
  8
0
 62
     7
 10
108.986
 20
191.27799999999999
 30
0.0
 11
109.578
 21
193.489
 31
0.0
  0
LINE
  5
252
  8
0
 62
     7
 10
109.578
 20
193.489
 30
0.0
 11
108.39400000000001
 21
193.489
 31
0.0
  0
LINE
  5
253
  8
0
 62
     7
 10
94.690799999999996
 20
195.489
 30
0.0
 11
95.282600000000016
 21
193.27799999999999
 31
0.0
  0
LINE
  5
254
  8
0
 62
     7
 10
95.282600000000016
 20
193.27799999999999
 30
0.0
 11
95.875200000000007
 21
195.489
 31
0.0
  0
LINE
  5
255
  8
0
 62
     7
 10
95.875200000000007
 20
195.489
 30
0.0
 11
94.690799999999996
 21
195.489
 31
0.0
  0
LINE
  5
256
  8
0
 62
     7
 10
94.690799999999996
 20
226.989
 30
0.0
 11
95.282600000000016
 21
224.779
 31
0.0
  0
LINE
  5
257
  8
0
 62
     7
 10
95.282600000000016
 20
224.779
 30
0.0
 11
95.875200000000007
 21
226.989
 31
0.0
  0
LINE
  5
258
  8
0
 62
     7
 10
95.875200000000007
 20
226.989
 30
0.0
 11
94.690799999999996
 21
226.989
 31
0.0
  0
LINE
  5
259
  8
_________2
 62
     7
 10
210.24000000000001
 20
148.93100000000001
 30
0.0
 11
188.49000000000001
 21
148.93100000000001
 31
0.0
  0
LINE
  5
25A
  8
_________2
 62
     7
 10
105.239
 20
17.4285
 30
0.0
 11
105.239
 21
0.4482100000000001
 31
0.0
  0
LINE
  5
25B
  8
_________2
 62
     7
 10
105.239
 20
297.44999999999999
 30
0.0
 11
105.239
 21
280.43000000000001
 31
0.0
  0
LINE
  5
25C
  8
_________2
 62
     7
 10
21.988499999999998
 20
148.93100000000001
 30
0.0
 11
0.238058
 21
148.93100000000001
 31
0.0
  0
LINE
  5
25D
  8
_________2
 62
     7
 10
81.679900000000004
 20
51.324300000000001
 30
0.0
 11
79.493700000000004
 21
51.324300000000001
 31
0.0
  0
LINE
  5
25E
  8
_________2
 62
     7
 10
82.172600000000017
 20
51.324300000000001
 30
0.0
 11
81.920400000000001
 21
51.324300000000001
 31
0.0
  0
LINE
  5
25F
  8
_________2
 62
     7
 10
82.665199999999984
 20
51.324300000000001
 30
0.0
 11
85.590100000000007
 21
51.324300000000001
 31
0.0
  0
LINE
  5
260
  8
_________2
 62
     7
 10
82.172600000000017
 20
51.324300000000001
 30
0.0
 11
82.424800000000005
 21
51.324300000000001
 31
0.0
  0
LINE
  5
261
  8
_________2
 62
     7
 10
75.776399999999995
 20
51.324300000000001
 30
0.0
 11
73.589399999999998
 21
51.324300000000001
 31
0.0
  0
LINE
  5
262
  8
_________2
 62
     7
 10
76.2684
 20
51.324300000000001
 30
0.0
 11
76.016900000000007
 21
51.324300000000001
 31
0.0
  0
LINE
  5
263
  8
_________2
 62
     7
 10
76.2684
 20
51.817
 30
0.0
 11
76.2684
 21
54.003900000000002
 31
0.0
  0
LINE
  5
264
  8
_________2
 62
     7
 10
76.2684
 20
51.324300000000001
 30
0.0
 11
76.2684
 21
51.576500000000003
 31
0.0
  0
LINE
  5
265
  8
_________2
 62
     7
 10
76.76100000000001
 20
51.324300000000001
 30
0.0
 11
78.947999999999993
 21
51.324300000000001
 31
0.0
  0
LINE
  5
266
  8
_________2
 62
     7
 10
76.2684
 20
51.324300000000001
 30
0.0
 11
76.520499999999998
 21
51.324300000000001
 31
0.0
  0
LINE
  5
267
  8
_________2
 62
     7
 10
76.2684
 20
50.832399999999993
 30
0.0
 11
76.2684
 21
48.645400000000002
 31
0.0
  0
LINE
  5
268
  8
_________2
 62
     7
 10
76.2684
 20
51.324300000000001
 30
0.0
 11
76.2684
 21
51.072800000000001
 31
0.0
  0
LINE
  5
269
  8
_________2
 62
     7
 10
79.979399999999984
 20
50.104799999999997
 30
0.0
 11
85.157399999999996
 21
49.240000000000002
 31
0.0
  0
LINE
  5
26A
  8
_________2
 62
     7
 10
79.979399999999984
 20
52.543900000000001
 30
0.0
 11
85.157399999999996
 21
53.409300000000002
 31
0.0
  0
LINE
  5
26B
  8
_________2
 62
     7
 10
85.157399999999996
 20
49.240000000000002
 30
0.0
 11
85.157399999999996
 21
53.409300000000002
 31
0.0
  0
LINE
  5
26C
  8
_________2
 62
     7
 10
79.979399999999984
 20
50.104799999999997
 30
0.0
 11
79.979399999999984
 21
52.543900000000001
 31
0.0
  0
ARC
  5
26D
  8
_________2
 62
     7
 10
76.222110000000001
 20
51.277366999999991
 30
0.0
 40
1.2673709999999989
 50
2.1232950000000002
 51
87.909056000000007
  0
ARC
  5
26E
  8
_________2
 62
     7
 10
76.315273000000005
 20
51.277400999999998
 30
0.0
 40
1.267363
 50
92.121785999999986
 51
177.878185
  0
ARC
  5
26F
  8
_________2
 62
     7
 10
76.315273000000005
 20
51.371245999999992
 30
0.0
 40
1.267363
 50
182.121815
 51
267.87821400000001
  0
ARC
  5
270
  8
_________2
 62
     7
 10
76.221461000000005
 20
51.371928999999987
 30
0.0
 40
1.2680439999999991
 50
272.11916400000001
 51
357.84848499999998
  0
ARC
  5
271
  8
_________2
 62
     7
 10
76.268349999999984
 20
51.324323
 30
0.0
 40
2.0849849999999992
 50
0.00001
 51
89.999980000000008
  0
ARC
  5
272
  8
_________2
 62
     7
 10
76.348388
 20
51.245001999999992
 30
0.0
 40
2.1657860000000002
 50
92.117855000000034
 51
177.90105299999999
  0
ARC
  5
273
  8
_________2
 62
     7
 10
76.348354
 20
51.404327000000002
 30
0.0
 40
2.1657779999999991
 50
182.11700400000001
 51
267.88302499999998
  0
ARC
  5
274
  8
_________2
 62
     7
 10
76.188378999999983
 20
51.405009999999997
 30
0.0
 40
2.1664590000000001
 50
272.11546800000002
 51
357.86560400000002
  0
TEXT
  5
275
  8
_________2
 62
     7
 10
109.544
 20
23.199100000000001
 30
0.0
 40
3.0923400000000001
  1
図番
 41
0.5
  0
LINE
  5
276
  8
_________2
 62
     7
 10
108.489
 20
27.4283
 30
0.0
 11
188.49000000000001
 21
27.4283
 31
0.0
  0
TEXT
  5
277
  8
_________2
 62
     7
 10
109.544
 20
33.198900000000002
 30
0.0
 40
3.0923400000000001
  1
品番
 41
0.5
  0
TEXT
  5
278
  8
_________2
 62
     7
 10
109.544
 20
53.337699999999998
 30
0.0
 40
3.0923400000000001
  1
名称
 41
0.5
  0
TEXT
  5
279
  8
_________2
 62
     7
 10
96.784058333333334
 20
48.341500000000011
 30
0.0
 40
3.6545800000000002
  1
mm
 41
0.5
 72
     1
 11
98.306799999999996
 21
48.341500000000011
 31
0.0
  0
TEXT
  5
27A
  8
_________2
 62
     7
 10
90.582099999999997
 20
53.337699999999998
 30
0.0
 40
3.0923400000000001
  1
単位
 41
0.5
  0
TEXT
  5
27B
  8
_________2
 62
     7
 10
90.582099999999997
 20
40.930399999999999
 30
0.0
 40
3.0923400000000001
  1
尺度
 41
0.5
  0
TEXT
  5
27C
  8
_________2
 62
     7
 10
95.030836166666674
 20
34.737499999999997
 30
0.0
 40
3.6545800000000002
  1
1 ： 10
 41
0.5
 72
     1
 11
98.898600000000002
 21
34.737499999999997
 31
0.0
  0
TEXT
  5
27D
  8
_________2
 62
     7
 10
142.58545000000001
 20
30.627400000000002
 30
0.0
 40
3.9357000000000002
  1
VR5663
 41
0.5
 72
     1
 11
148.489
 21
30.627400000000002
 31
0.0
  0
TEXT
  5
27E
  8
_________2
 62
     7
 10
142.58545000000001
 20
20.626999999999999
 30
0.0
 40
3.9357000000000002
  1
VR5663
 41
0.5
 72
     1
 11
148.489
 21
20.626999999999999
 31
0.0
  0
TEXT
  5
27F
  8
_________2
 62
     7
 10
29.525700000000001
 20
22.226900000000001
 30
0.0
 40
3.9357000000000002
  1
実容量7.0L、重量20.8kg、オーバーフロー付
 41
0.5
  0
TEXT
  5
280
  8
_________2
 62
     7
 10
28.2286
 20
68.212999999999994
 30
0.0
 40
4.2168199999999993
  1
※壁取付部には厚さ30mm以上の補強材を入れてください。
 41
0.5
  0
TEXT
  5
281
  8
_________2
 62
     7
 10
28.2286
 20
62.941899999999997
 30
0.0
 40
4.2168199999999993
  1
　カウンターを設ける場合も壁固定が必要です。
 41
0.5
  0
TEXT
  5
282
  8
_________2
 62
     7
 10
114.11799999999999
 20
45.7453
 30
0.0
 40
3.9357000000000002
  1
メトロポール　洗面器
 41
0.5
  0
TEXT
  5
283
  8
_________2
 62
     7
 10
44.364200333333329
 20
35.122599999999998
 30
0.0
 40
3.6545800000000002
  1
早川
 41
0.5
 72
     1
 11
46.252400000000002
 21
35.122599999999998
 31
0.0
  0
TEXT
  5
284
  8
_________2
 62
     7
 10
25.729290666666671
 20
35.122599999999998
 30
0.0
 40
3.6545800000000002
  1
菅原
 41
0.5
 72
     1
 11
27.6784
 21
35.122599999999998
 31
0.0
  0
TEXT
  5
285
  8
_________2
 62
     7
 10
72.724699999999999
 20
34.737499999999997
 30
0.0
 40
3.6545800000000002
  1
15.12.24
 41
0.5
  0
TEXT
  5
286
  8
_________2
 62
     7
 10
71.531999999999996
 20
40.930399999999999
 30
0.0
 40
3.0923400000000001
  1
日付
 41
0.5
  0
TEXT
  5
287
  8
_________2
 62
     7
 10
34.578299999999999
 20
40.930399999999999
 30
0.0
 40
3.0923400000000001
  1
検図
 41
0.5
  0
TEXT
  5
288
  8
_________2
 62
     7
 10
22.960000000000001
 20
26.731000000000002
 30
0.0
 40
3.0923400000000001
  1
備考
 41
0.5
  0
TEXT
  5
289
  8
_________2
 62
     7
 10
22.960000000000001
 20
40.930399999999999
 30
0.0
 40
3.0923400000000001
  1
製図
 41
0.5
  0
TEXT
  5
28A
  8
_________2
 62
     7
 10
28.727365333333339
 20
49.456400000000002
 30
0.0
 40
4.4979399999999989
  1
セラトレーディング株式会社
 41
0.5
 72
     1
 11
46.119399999999992
 21
49.456400000000002
 31
0.0
  0
LINE
  5
28B
  8
_________2
 62
     7
 10
188.49000000000001
 20
17.4285
 30
0.0
 11
21.988499999999998
 21
17.4285
 31
0.0
  0
LINE
  5
28C
  8
_________2
 62
     7
 10
21.988499999999998
 20
17.4285
 30
0.0
 11
21.988499999999998
 21
280.43000000000001
 31
0.0
  0
LINE
  5
28D
  8
_________2
 62
     7
 10
21.988499999999998
 20
280.43000000000001
 30
0.0
 11
188.49000000000001
 21
280.43000000000001
 31
0.0
  0
LINE
  5
28E
  8
_________2
 62
     7
 10
188.49000000000001
 20
280.43000000000001
 30
0.0
 11
188.49000000000001
 21
17.4285
 31
0.0
  0
LINE
  5
28F
  8
_________2
 62
     7
 10
70.488799999999998
 20
30.9285
 30
0.0
 11
70.488799999999998
 21
57.428400000000011
 31
0.0
  0
LINE
  5
290
  8
_________2
 62
     7
 10
89.488600000000005
 20
30.9285
 30
0.0
 11
89.488600000000005
 21
57.428400000000011
 31
0.0
  0
LINE
  5
291
  8
_________2
 62
     7
 10
108.489
 20
17.4285
 30
0.0
 11
108.489
 21
57.428400000000011
 31
0.0
  0
LINE
  5
292
  8
_________2
 62
     7
 10
33.488300000000002
 20
30.9285
 30
0.0
 11
33.488300000000002
 21
44.928800000000003
 31
0.0
  0
LINE
  5
293
  8
_________2
 62
     7
 10
21.988499999999998
 20
30.9285
 30
0.0
 11
108.489
 21
30.9285
 31
0.0
  0
LINE
  5
294
  8
_________2
 62
     7
 10
21.988499999999998
 20
44.928800000000003
 30
0.0
 11
108.489
 21
44.928800000000003
 31
0.0
  0
LINE
  5
295
  8
_________2
 62
     7
 10
108.489
 20
37.428100000000001
 30
0.0
 11
188.49000000000001
 21
37.428100000000001
 31
0.0
  0
LINE
  5
296
  8
_________2
 62
     7
 10
21.988499999999998
 20
57.428400000000011
 30
0.0
 11
188.49000000000001
 21
57.428400000000011
 31
0.0
  0
ENDSEC
  0
EOF
