  0
SECTION
  2
HEADER
  9
$ACADVER
  1
AC1009
  9
$INSBASE
 10
0.0
 20
0.0
 30
0.0
  9
$EXTMIN
 10
0.238058
 20
0.4482100000000001
 30
0.0
  9
$EXTMAX
 10
210.24000000000001
 20
297.44999999999987
 30
0.0
  9
$LIMMIN
 10
0.0
 20
0.0
  9
$LIMMAX
 10
12.0
 20
9.0
  9
$ORTHOMODE
 70
     0
  9
$REGENMODE
 70
     1
  9
$FILLMODE
 70
     1
  9
$QTEXTMODE
 70
     0
  9
$MIRRTEXT
 70
     1
  9
$DRAGMODE
 70
     2
  9
$LTSCALE
 40
1.0
  9
$OSMODE
 70
    37
  9
$ATTMODE
 70
     1
  9
$TEXTSIZE
 40
0.0
  9
$TRACEWID
 40
0.05
  9
$TEXTSTYLE
  7
STANDARD
  9
$CLAYER
  8
0
  9
$CELTYPE
  6
CONTINUOUS
  9
$CECOLOR
 62
   256
  9
$DIMSCALE
 40
1.0
  9
$DIMASZ
 40
0.18
  9
$DIMEXO
 40
0.0625
  9
$DIMDLI
 40
0.38
  9
$DIMRND
 40
0.0
  9
$DIMDLE
 40
0.0
  9
$DIMEXE
 40
0.18
  9
$DIMTP
 40
0.0
  9
$DIMTM
 40
0.0
  9
$DIMTXT
 40
0.18
  9
$DIMCEN
 40
0.09
  9
$DIMTSZ
 40
0.0
  9
$DIMTOL
 70
     0
  9
$DIMLIM
 70
     0
  9
$DIMTIH
 70
     1
  9
$DIMTOH
 70
     1
  9
$DIMSE1
 70
     0
  9
$DIMSE2
 70
     0
  9
$DIMTAD
 70
     0
  9
$DIMZIN
 70
     0
  9
$DIMBLK
  1

  9
$DIMASO
 70
     1
  9
$DIMSHO
 70
     1
  9
$DIMPOST
  1

  9
$DIMAPOST
  1

  9
$DIMALT
 70
     0
  9
$DIMALTD
 70
     2
  9
$DIMALTF
 40
25.399999999999999
  9
$DIMLFAC
 40
1.0
  9
$DIMTOFL
 70
     0
  9
$DIMTVP
 40
0.0
  9
$DIMTIX
 70
     0
  9
$DIMSOXD
 70
     0
  9
$DIMSAH
 70
     0
  9
$DIMBLK1
  1

  9
$DIMBLK2
  1

  9
$DIMSTYLE
  2
STANDARD
  9
$DIMCLRD
 70
     0
  9
$DIMCLRE
 70
     0
  9
$DIMCLRT
 70
     0
  9
$DIMTFAC
 40
1.0
  9
$DIMGAP
 40
0.09
  9
$LUNITS
 70
     2
  9
$LUPREC
 70
     4
  9
$SKETCHINC
 40
0.1
  9
$FILLETRAD
 40
0.0
  9
$AUNITS
 70
     0
  9
$AUPREC
 70
     0
  9
$MENU
  1
.
  9
$ELEVATION
 40
0.0
  9
$PELEVATION
 40
0.0
  9
$THICKNESS
 40
0.0
  9
$LIMCHECK
 70
     0
  9
$BLIPMODE
 70
     0
  9
$CHAMFERA
 40
0.0
  9
$CHAMFERB
 40
0.0
  9
$SKPOLY
 70
     0
  9
$TDCREATE
 40
2444972.375
  9
$TDUPDATE
 40
2456723.2500023381
  9
$TDINDWG
 40
0.00000625
  9
$TDUSRTIMER
 40
0.00000625
  9
$USRTIMER
 70
     1
  9
$ANGBASE
 50
0.0
  9
$ANGDIR
 70
     0
  9
$PDMODE
 70
     0
  9
$PDSIZE
 40
0.0
  9
$PLINEWID
 40
0.0
  9
$COORDS
 70
     1
  9
$SPLFRAME
 70
     0
  9
$SPLINETYPE
 70
     6
  9
$SPLINESEGS
 70
     8
  9
$ATTDIA
 70
     0
  9
$ATTREQ
 70
     1
  9
$HANDLING
 70
     1
  9
$HANDSEED
  5
212
  9
$SURFTAB1
 70
     6
  9
$SURFTAB2
 70
     6
  9
$SURFTYPE
 70
     6
  9
$SURFU
 70
     6
  9
$SURFV
 70
     6
  9
$UCSNAME
  2

  9
$UCSORG
 10
0.0
 20
0.0
 30
0.0
  9
$UCSXDIR
 10
1.0
 20
0.0
 30
0.0
  9
$UCSYDIR
 10
0.0
 20
1.0
 30
0.0
  9
$PUCSNAME
  2

  9
$PUCSORG
 10
0.0
 20
0.0
 30
0.0
  9
$PUCSXDIR
 10
1.0
 20
0.0
 30
0.0
  9
$PUCSYDIR
 10
0.0
 20
1.0
 30
0.0
  9
$USERI1
 70
     0
  9
$USERI2
 70
     0
  9
$USERI3
 70
     0
  9
$USERI4
 70
     0
  9
$USERI5
 70
     0
  9
$USERR1
 40
0.0
  9
$USERR2
 40
0.0
  9
$USERR3
 40
0.0
  9
$USERR4
 40
0.0
  9
$USERR5
 40
0.0
  9
$WORLDVIEW
 70
     1
  9
$SHADEDGE
 70
     3
  9
$SHADEDIF
 70
    70
  9
$TILEMODE
 70
     1
  9
$MAXACTVP
 70
    48
  9
$PLIMCHECK
 70
     0
  9
$PEXTMIN
 10
1.0000000000000000E+020
 20
1.0000000000000000E+020
 30
1.0000000000000000E+020
  9
$PEXTMAX
 10
-1.0000000000000000E+020
 20
-1.0000000000000000E+020
 30
-1.0000000000000000E+020
  9
$PLIMMIN
 10
0.0
 20
0.0
  9
$PLIMMAX
 10
12.0
 20
9.0
  9
$UNITMODE
 70
     0
  9
$VISRETAIN
 70
     1
  9
$PLINEGEN
 70
     0
  9
$PSLTSCALE
 70
     1
  0
ENDSEC
  0
SECTION
  2
TABLES
  0
TABLE
  2
VPORT
 70
     2
  0
VPORT
  2
*ACTIVE
 70
     0
 10
0.0
 20
0.0
 11
1.0
 21
1.0
 12
206.97982146115791
 22
148.72499999999991
 13
0.0
 23
0.0
 14
1.0
 24
1.0
 15
0.0
 25
0.0
 16
0.0
 26
0.0
 36
1.0
 17
0.0
 27
0.0
 37
0.0
 40
299.90488308115528
 41
2.2894736842105261
 42
50.0
 43
0.0
 44
0.0
 50
0.0
 51
0.0
 71
     0
 72
   100
 73
     1
 74
     1
 75
     0
 76
     0
 77
     0
 78
     0
  0
ENDTAB
  0
TABLE
  2
LTYPE
 70
     4
  0
LTYPE
  2
CONTINUOUS
 70
     0
  3
Solid line
 72
    65
 73
     0
 40
0.0
  0
LTYPE
  2
AIGENLINE001
 70
     0
  3
generate AI->DXF Converter
 72
    65
 73
     2
 40
1.5522299999999991
 49
0.776115
 49
-0.776115
  0
LTYPE
  2
AIGENLINE002
 70
     0
  3
generate AI->DXF Converter
 72
    65
 73
     4
 40
5.8561449999999988
 49
3.5278
 49
-0.776115
 49
0.776115
 49
-0.776115
  0
LTYPE
  2
AIGENLINE003
 70
     0
  3
generate AI->DXF Converter
 72
    65
 73
     6
 40
7.4083750000000004
 49
3.5278
 49
-0.776115
 49
0.776115
 49
-0.776115
 49
0.776115
 49
-0.776115
  0
ENDTAB
  0
TABLE
  2
LAYER
 70
     2
  0
LAYER
  2
0
 70
     0
 62
     7
  6
CONTINUOUS
  0
LAYER
  2
_________2
 70
     0
 62
     7
  6
CONTINUOUS
  0
ENDTAB
  0
TABLE
  2
STYLE
 70
     1
  0
STYLE
  2
STANDARD
 70
     0
 40
0.0
 41
0.0
 50
0.0
 71
     0
 42
0.0
  3
TXT
  4
EXTFONT.SHX
  0
ENDTAB
  0
TABLE
  2
VIEW
 70
     0
  0
ENDTAB
  0
TABLE
  2
UCS
 70
     0
  0
ENDTAB
  0
TABLE
  2
APPID
 70
     1
  0
APPID
  2
ACAD
 70
     0
  0
ENDTAB
  0
TABLE
  2
DIMSTYLE
 70
     1
  0
DIMSTYLE
  2
STANDARD
 70
     0
  3

  4

  5

  6

  7

 40
1.0
 41
0.18
 42
0.0625
 43
0.38
 44
0.18
 45
0.0
 46
0.0
 47
0.0
 48
0.0
140
0.18
141
0.09
142
0.0
143
25.399999999999999
144
1.0
145
0.0
146
1.0
147
0.09
 71
     0
 72
     0
 73
     1
 74
     1
 75
     0
 76
     0
 77
     0
 78
     0
170
     0
171
     2
172
     0
173
     0
174
     0
175
     0
176
     0
177
     0
178
     0
  0
ENDTAB
  0
ENDSEC
  0
SECTION
  2
BLOCKS
  0
BLOCK
  8
0
  2
$MODEL_SPACE
 70
     0
 10
0.0
 20
0.0
 30
0.0
  3
$MODEL_SPACE
  1

  0
ENDBLK
  5
1A
  8
0
  0
BLOCK
 67
     1
  8
0
  2
$PAPER_SPACE
 70
     0
 10
0.0
 20
0.0
 30
0.0
  3
$PAPER_SPACE
  1

  0
ENDBLK
  5
17
 67
     1
  8
0
  0
ENDSEC
  0
SECTION
  2
ENTITIES
  0
TEXT
  5
24
  8
0
 62
     7
 10
76.958579999999998
 20
197.99000000000001
 30
0.0
 40
3.0923400000000001
  1
%%c46
 41
0.5
 72
     2
 11
81.081699999999984
 21
197.99000000000001
 31
0.0
  0
TEXT
  5
25
  8
0
 62
     7
 10
105.34788
 20
213.04099999999991
 30
0.0
 40
3.0923400000000001
  1
%%c35
 41
0.5
 72
     2
 11
109.471
 21
213.04099999999991
 31
0.0
  0
TEXT
  5
26
  8
0
 62
     7
 10
140.69376
 20
170.8959999999999
 30
0.0
 40
3.0923400000000001
  1
カウンター切込寸法
 41
0.5
 72
     1
 11
148.94
 21
170.8959999999999
 31
0.0
  0
TEXT
  5
27
  8
0
 62
     7
 10
129.37996499999991
 20
197.03999999999991
 30
0.0
 40
3.0923400000000001
  1
R10
 41
0.5
 72
     2
 11
132.7299999999999
 21
197.03999999999991
 31
0.0
  0
TEXT
  5
28
  8
0
 62
     7
 10
129.37996499999991
 20
212.40499999999989
 30
0.0
 40
3.0923400000000001
  1
R10
 41
0.5
 72
     2
 11
132.7299999999999
 21
212.40499999999989
 31
0.0
  0
TEXT
  5
29
  8
0
 62
     7
 10
130.4849825
 20
182.96499999999989
 30
0.0
 40
3.0923400000000001
  1
210
 41
0.5
 72
     1
 11
132.15999999999991
 21
182.96499999999989
 31
0.0
  0
TEXT
  5
2A
  8
0
 62
     7
 10
155.85613499999991
 20
182.96499999999989
 30
0.0
 40
3.0923400000000001
  1
300
 41
0.5
 72
     1
 11
157.66
 21
182.96499999999989
 31
0.0
  0
TEXT
  5
2B
  8
0
 62
     7
 10
145.48498249999989
 20
226.124
 30
0.0
 40
3.0923400000000001
  1
510
 41
0.5
 72
     1
 11
147.16
 21
226.124
 31
0.0
  0
TEXT
  5
2C
  8
0
 62
     7
 10
96.997772499999996
 20
137.614
 30
0.0
 40
3.0923400000000001
  1
70
 41
0.5
 72
     1
 11
98.157399999999996
 21
137.614
 31
0.0
  0
TEXT
  5
2D
  8
0
 62
     7
 10
36.843600000000002
 20
128.6329999999999
 30
0.0
 40
3.0923400000000001
  1
カウンター上面
 50
90.0
 41
0.5
  0
TEXT
  5
2E
  8
0
 62
     7
 10
126.3149999999999
 20
108.297
 30
0.0
 40
3.0923400000000001
  1
30
 41
0.5
  0
TEXT
  5
2F
  8
0
 62
     7
 10
171.66774499999991
 20
108.297
 30
0.0
 40
3.0923400000000001
  1
30
 41
0.5
 72
     2
 11
173.98699999999991
 21
108.297
 31
0.0
  0
TEXT
  5
30
  8
0
 62
     7
 10
147.88243999999989
 20
108.297
 30
0.0
 40
3.0923400000000001
  1
285
 41
0.5
 72
     1
 11
149.9439999999999
 21
108.297
 31
0.0
  0
TEXT
  5
31
  8
0
 62
     7
 10
35.778100000000002
 20
108.297
 30
0.0
 40
3.0923400000000001
  1
30
 41
0.5
  0
TEXT
  5
32
  8
0
 62
     7
 10
106.131745
 20
108.297
 30
0.0
 40
3.0923400000000001
  1
20
 41
0.5
 72
     2
 11
108.45099999999999
 21
108.297
 31
0.0
  0
TEXT
  5
33
  8
0
 62
     7
 10
70.345640000000003
 20
108.297
 30
0.0
 40
3.0923400000000001
  1
545
 41
0.5
 72
     1
 11
72.407200000000003
 21
108.297
 31
0.0
  0
TEXT
  5
34
  8
0
 62
     7
 10
69.845439999999996
 20
171.84700000000001
 30
0.0
 40
3.0923400000000001
  1
595
 41
0.5
 72
     1
 11
71.906999999999996
 21
171.84700000000001
 31
0.0
  0
TEXT
  5
35
  8
0
 62
     7
 10
96.997772499999996
 20
179.6049999999999
 30
0.0
 40
3.0923400000000001
  1
70
 41
0.5
 72
     1
 11
98.157399999999996
 21
179.6049999999999
 31
0.0
  0
TEXT
  5
36
  8
0
 62
     7
 10
79.224387500000006
 20
179.255
 30
0.0
 40
3.0923400000000001
  1
270
 41
0.5
 72
     1
 11
81.157099999999986
 21
179.255
 31
0.0
  0
TEXT
  5
37
  8
0
 62
     7
 10
52.845539999999993
 20
179.255
 30
0.0
 40
3.0923400000000001
  1
255
 41
0.5
 72
     1
 11
54.907099999999993
 21
179.255
 31
0.0
  0
TEXT
  5
38
  8
0
 62
     7
 10
179.8479999999999
 20
202.08928750000001
 30
0.0
 40
3.0923400000000001
  1
260
 50
90.0
 41
0.5
 72
     1
 11
179.8479999999999
 21
204.02199999999999
 31
0.0
  0
TEXT
  5
39
  8
0
 62
     7
 10
108.75
 20
118.974
 30
0.0
 40
3.0923400000000001
  1
20
 50
90.0
 41
0.5
  0
TEXT
  5
3A
  8
0
 62
     7
 10
66.088899999999995
 20
134.4170499999999
 30
0.0
 40
3.0923400000000001
  1
95
 50
90.0
 41
0.5
 72
     2
 11
66.088899999999995
 21
136.99399999999989
 31
0.0
  0
TEXT
  5
3B
  8
0
 62
     7
 10
108.75
 20
134.56974500000001
 30
0.0
 40
3.0923400000000001
  1
30
 50
90.0
 41
0.5
 72
     2
 11
108.75
 21
136.88900000000001
 31
0.0
  0
TEXT
  5
3C
  8
0
 62
     7
 10
114.596
 20
134.82274499999991
 30
0.0
 40
3.0923400000000001
  1
50
 50
90.0
 41
0.5
 72
     2
 11
114.596
 21
137.142
 31
0.0
  0
TEXT
  5
3D
  8
0
 62
     7
 10
120.4409999999999
 20
121.383135
 30
0.0
 40
3.0923400000000001
  1
145
 50
90.0
 41
0.5
 72
     1
 11
120.4409999999999
 21
123.187
 31
0.0
  0
TEXT
  5
3E
  8
0
 62
     7
 10
32.895200000000003
 20
201.96144000000001
 30
0.0
 40
3.0923400000000001
  1
345
 50
90.0
 41
0.5
 72
     1
 11
32.895200000000003
 21
204.023
 31
0.0
  0
ARC
  5
3F
  8
0
 62
     7
 10
76.407359
 20
204.0225979999999
 30
0.0
 40
14.250040999999991
 50
0.00001
 51
89.999980000000008
  0
ARC
  5
40
  8
0
 62
     7
 10
76.407359
 20
204.02260299999989
 30
0.0
 40
14.250040999999991
 50
270.00002000000001
 51
359.99998999999991
  0
ARC
  5
41
  8
0
 62
     7
 10
59.407082999999993
 20
204.0225979999999
 30
0.0
 40
14.250035999999991
 50
179.99996999999991
 51
270.00002000000001
  0
ARC
  5
42
  8
0
 62
     7
 10
59.407088000000002
 20
204.0225979999999
 30
0.0
 40
14.250040999999991
 50
90.0
 51
179.99996999999991
  0
LINE
  5
43
  8
0
 62
     7
 10
36.9086
 20
127.9989999999999
 30
0.0
 11
35.429099999999998
 21
125.437
 31
0.0
  0
LINE
  5
44
  8
0
 62
     7
 10
35.429099999999998
 20
125.437
 30
0.0
 11
33.9497
 21
127.9989999999999
 31
0.0
  0
LINE
  5
45
  8
0
 62
     7
 10
33.9497
 20
127.9989999999999
 30
0.0
 11
36.9086
 21
127.9989999999999
 31
0.0
  0
ARC
  5
46
  8
0
  6
AIGENLINE001
 62
     7
 10
64.848253
 20
119.67044199999989
 30
0.0
 40
0.508571
 50
0.5253640000000001
 51
54.884859999999989
  0
LINE
  5
47
  8
0
  6
AIGENLINE001
 62
     7
 10
64.165099999999995
 20
120.7589999999999
 30
0.0
 11
65.140799999999984
 21
120.086
 31
0.0
  0
LINE
  5
48
  8
0
  6
AIGENLINE001
 62
     7
 10
65.356800000000007
 20
115.937
 30
0.0
 11
65.356800000000007
 21
119.6749999999999
 31
0.0
  0
ARC
  5
49
  8
0
  6
AIGENLINE001
 62
     7
 10
70.465618000000006
 20
119.67044199999989
 30
0.0
 40
0.508571
 50
125.11512
 51
179.474616
  0
LINE
  5
4A
  8
0
  6
AIGENLINE001
 62
     7
 10
71.148700000000005
 20
120.7589999999999
 30
0.0
 11
70.173100000000005
 21
120.086
 31
0.0
  0
LINE
  5
4B
  8
0
  6
AIGENLINE001
 62
     7
 10
69.733099999999993
 20
119.937
 30
0.0
 11
65.581400000000002
 21
119.937
 31
0.0
  0
LINE
  5
4C
  8
0
  6
AIGENLINE001
 62
     7
 10
69.957099999999997
 20
115.937
 30
0.0
 11
69.957099999999997
 21
119.6749999999999
 31
0.0
  0
ARC
  5
4D
  8
0
  6
AIGENLINE001
 62
     7
 10
147.13666000000001
 20
119.67110599999999
 30
0.0
 40
0.507301
 50
0.451666
 51
54.958557999999996
  0
LINE
  5
4E
  8
0
  6
AIGENLINE001
 62
     7
 10
146.452
 20
120.7589999999999
 30
0.0
 11
147.428
 21
120.086
 31
0.0
  0
LINE
  5
4F
  8
0
  6
AIGENLINE001
 62
     7
 10
147.64400000000001
 20
115.937
 30
0.0
 11
147.64400000000001
 21
119.6749999999999
 31
0.0
  0
ARC
  5
50
  8
0
  6
AIGENLINE001
 62
     7
 10
152.75149500000001
 20
119.67110700000001
 30
0.0
 40
0.507301
 50
125.041404
 51
179.54833199999999
  0
ARC
  5
51
  8
0
  6
AIGENLINE001
 62
     7
 10
165.226968
 20
127.377984
 30
0.0
 40
3.0591520000000001
 50
90.609853999999984
 51
147.758768
  0
ARC
  5
52
  8
0
  6
AIGENLINE001
 62
     7
 10
-142.61038300000001
 20
297.21792699999992
 30
0.0
 40
348.52747999999991
 50
330.90258699999998
 51
331.14304399999992
  0
ARC
  5
53
  8
0
  6
AIGENLINE001
 62
     7
 10
124.5061259999999
 20
148.792699
 30
0.0
 40
42.944532000000002
 50
328.72035799999998
 51
330.62962599999992
  0
ARC
  5
54
  8
0
  6
AIGENLINE001
 62
     7
 10
139.083496
 20
139.99583000000001
 30
0.0
 40
25.91865799999999
 50
324.83115099999992
 51
328.60847699999988
  0
ARC
  5
55
  8
0
  6
AIGENLINE001
 62
     7
 10
146.29152199999999
 20
134.981944
 30
0.0
 40
17.138542000000001
 50
318.85913099999999
 51
324.65365099999991
  0
ARC
  5
56
  8
0
  6
AIGENLINE001
 62
     7
 10
150.37566000000001
 20
131.4900669999999
 30
0.0
 40
11.765591000000001
 50
310.760896
 51
318.5801239999999
  0
ARC
  5
57
  8
0
  6
AIGENLINE001
 62
     7
 10
152.73590999999999
 20
128.8323179999999
 30
0.0
 40
8.2116550000000004
 50
298.83614499999999
 51
310.39460899999989
  0
ARC
  5
58
  8
0
  6
AIGENLINE001
 62
     7
 10
153.80793899999989
 20
127.0161899999999
 30
0.0
 40
6.1040029999999987
 50
282.01158700000002
 51
298.24318099999988
  0
ARC
  5
59
  8
0
  6
AIGENLINE001
 62
     7
 10
153.9976419999999
 20
126.37586999999991
 30
0.0
 40
5.4384739999999994
 50
269.97237999999999
 51
281.46066499999989
  0
ARC
  5
5A
  8
0
 62
     7
 10
154.19461599999991
 20
118.8600679999999
 30
0.0
 40
0.579433
 50
114.1221229999999
 51
120.727028
  0
ARC
  5
5B
  8
0
 62
     7
 10
155.06423799999999
 20
116.958223
 30
0.0
 40
2.670652
 50
110.731883
 51
114.474633
  0
ARC
  5
5C
  8
0
 62
     7
 10
-33.499136999999997
 20
615.23391200000003
 30
0.0
 40
530.09084199999995
 50
290.72822599999989
 51
290.85129999999992
  0
ARC
  5
5D
  8
0
 62
     7
 10
149.2113929999999
 20
134.74815599999999
 30
0.0
 40
16.041154999999989
 50
291.85693900000001
 51
298.03269199999988
  0
ARC
  5
5E
  8
0
 62
     7
 10
151.34492299999991
 20
130.614318
 30
0.0
 40
11.38975099999999
 50
298.33239800000001
 51
309.18984799999998
  0
ARC
  5
5F
  8
0
 62
     7
 10
153.23289700000001
 20
128.17615399999991
 30
0.0
 40
8.3073999999999995
 50
309.72347100000002
 51
324.04590200000001
  0
ARC
  5
60
  8
0
 62
     7
 10
154.38537700000001
 20
127.254597
 30
0.0
 40
6.8337529999999989
 50
324.62714799999992
 51
339.17293999999998
  0
ARC
  5
61
  8
0
 62
     7
 10
161.711657
 20
124.4115649999999
 30
0.0
 40
1.0259869999999991
 50
90.957505999999995
 51
156.24454199999991
  0
ARC
  5
62
  8
0
 62
     7
 10
154.26291199999989
 20
118.6252199999999
 30
0.0
 40
0.818504
 50
116.43285399999991
 51
179.19306399999991
  0
ARC
  5
63
  8
0
  6
AIGENLINE001
 62
     7
 10
134.66153299999999
 20
127.377984
 30
0.0
 40
3.0591520000000001
 50
32.24121199999999
 51
89.390125999999995
  0
ARC
  5
64
  8
0
  6
AIGENLINE001
 62
     7
 10
442.49888399999998
 20
297.21792699999992
 30
0.0
 40
348.52747999999991
 50
208.85697599999989
 51
209.09743299999991
  0
ARC
  5
65
  8
0
  6
AIGENLINE001
 62
     7
 10
175.382374
 20
148.792699
 30
0.0
 40
42.944532000000002
 50
209.370394
 51
211.27966099999989
  0
ARC
  5
66
  8
0
  6
AIGENLINE001
 62
     7
 10
160.805004
 20
139.99583000000001
 30
0.0
 40
25.91865799999999
 50
211.39154199999999
 51
215.16886899999989
  0
ARC
  5
67
  8
0
  6
AIGENLINE001
 62
     7
 10
153.59697800000001
 20
134.981944
 30
0.0
 40
17.138542000000001
 50
215.3463689999999
 51
221.14088899999999
  0
ARC
  5
68
  8
0
  6
AIGENLINE001
 62
     7
 10
149.5128409999999
 20
131.4900669999999
 30
0.0
 40
11.765591000000001
 50
221.41989599999999
 51
229.23912300000001
  0
ARC
  5
69
  8
0
  6
AIGENLINE001
 62
     7
 10
147.15259
 20
128.8323179999999
 30
0.0
 40
8.2116550000000004
 50
229.60541099999989
 51
241.1638749999999
  0
ARC
  5
6A
  8
0
  6
AIGENLINE001
 62
     7
 10
146.08056099999999
 20
127.0161899999999
 30
0.0
 40
6.1040029999999987
 50
241.75683900000001
 51
257.98843299999999
  0
ARC
  5
6B
  8
0
  6
AIGENLINE001
 62
     7
 10
145.89085900000001
 20
126.37586999999991
 30
0.0
 40
5.4384739999999994
 50
258.539355
 51
270.02763999999991
  0
ARC
  5
6C
  8
0
 62
     7
 10
86.563057000000001
 20
204.0207419999999
 30
0.0
 40
1.5794069999999989
 50
0.061166
 51
30.302125
  0
ARC
  5
6D
  8
0
 62
     7
 10
87.001568000000006
 20
204.24428099999989
 30
0.0
 40
1.088384999999999
 50
31.789801000000001
 51
57.498651000000002
  0
ARC
  5
6E
  8
0
 62
     7
 10
87.187202999999997
 20
204.4966389999999
 30
0.0
 40
0.77609
 50
59.046480000000003
 51
89.242109999999997
  0
ARC
  5
6F
  8
0
 62
     7
 10
87.199888999999999
 20
204.51892000000001
 30
0.0
 40
0.753745
 50
90.184022000000013
 51
125.9767479999999
  0
ARC
  5
70
  8
0
 62
     7
 10
87.354086999999979
 20
204.28182100000001
 30
0.0
 40
1.036305
 50
125.175057
 51
151.868967
  0
ARC
  5
71
  8
0
 62
     7
 10
87.728870000000001
 20
204.049451
 30
0.0
 40
1.4766440000000001
 50
150.774146
 51
181.0486129999999
  0
ARC
  5
72
  8
0
 62
     7
 10
87.831393000000006
 20
204.024112
 30
0.0
 40
1.578921
 50
180.06111799999991
 51
210.306918
  0
ARC
  5
73
  8
0
 62
     7
 10
87.392871999999997
 20
203.80061599999999
 30
0.0
 40
1.087917
 50
211.79962900000001
 51
237.51392999999999
  0
ARC
  5
74
  8
0
 62
     7
 10
87.207830000000001
 20
203.5492909999999
 30
0.0
 40
0.77682
 50
239.07050299999989
 51
269.23573900000002
  0
ARC
  5
75
  8
0
 62
     7
 10
87.195046999999988
 20
203.52655799999991
 30
0.0
 40
0.754022
 50
270.18402900000001
 51
305.961591
  0
ARC
  5
76
  8
0
 62
     7
 10
87.041681999999994
 20
203.76278400000001
 30
0.0
 40
1.0353909999999991
 50
305.15432799999991
 51
331.86582099999993
  0
ARC
  5
77
  8
0
 62
     7
 10
86.666903000000005
 20
203.99531999999991
 30
0.0
 40
1.4758100000000001
 50
330.76558799999992
 51
1.0524990000000001
  0
ARC
  5
78
  8
0
 62
     7
 10
63.346833999999987
 20
169.6254449999999
 30
0.0
 40
50.188743000000002
 50
267.56217599999991
 51
270.01190799999989
  0
ARC
  5
79
  8
0
 62
     7
 10
62.630828999999999
 20
151.1261749999999
 30
0.0
 40
31.675840000000001
 50
261.87333299999989
 51
267.43281599999989
  0
ARC
  5
7A
  8
0
 62
     7
 10
61.324525000000001
 20
141.03871299999989
 30
0.0
 40
21.505426
 50
254.699139
 51
261.519519
  0
ARC
  5
7B
  8
0
 62
     7
 10
59.961637000000003
 20
135.75144199999991
 30
0.0
 40
16.046123999999988
 50
243.936533
 51
254.41109700000001
  0
ARC
  5
7C
  8
0
 62
     7
 10
58.57873399999999
 20
132.6926949999999
 30
0.0
 40
12.691233
 50
216.99177399999999
 51
243.47767200000001
  0
ARC
  5
7D
  8
0
 62
     7
 10
47.649023
 20
124.4200629999999
 30
0.0
 40
1.0166889999999991
 50
38.746094999999997
 51
89.540925999999999
  0
ARC
  5
7E
  8
0
  6
AIGENLINE001
 62
     7
 10
153.99708799999999
 20
119.96573100000001
 30
0.0
 40
0.971668
 50
90.121999000000017
 51
125.2801959999999
  0
LINE
  5
7F
  8
0
  6
AIGENLINE001
 62
     7
 10
153.43600000000001
 20
120.7589999999999
 30
0.0
 11
152.46000000000001
 21
120.086
 31
0.0
  0
ARC
  5
80
  8
0
  6
AIGENLINE001
 62
     7
 10
145.89141299999989
 20
119.96681700000001
 30
0.0
 40
0.9705819999999999
 50
54.699401999999992
 51
89.877900999999994
  0
LINE
  5
81
  8
0
  6
AIGENLINE001
 62
     7
 10
152.02000000000001
 20
119.937
 30
0.0
 11
147.869
 21
119.937
 31
0.0
  0
LINE
  5
82
  8
0
  6
AIGENLINE001
 62
     7
 10
145.893
 20
120.937
 30
0.0
 11
153.995
 21
120.937
 31
0.0
  0
LINE
  5
83
  8
0
  6
AIGENLINE001
 62
     7
 10
152.244
 20
115.937
 30
0.0
 11
152.244
 21
119.6749999999999
 31
0.0
  0
ARC
  5
84
  8
0
  6
AIGENLINE001
 62
     7
 10
71.709609999999998
 20
119.966785
 30
0.0
 40
0.970613
 50
90.122672999999992
 51
125.29998500000001
  0
ARC
  5
85
  8
0
  6
AIGENLINE001
 62
     7
 10
71.731341999999984
 20
245.306274
 30
0.0
 40
124.36888
 50
269.98904099999999
 51
270.47335199999998
  0
ARC
  5
86
  8
0
  6
AIGENLINE001
 62
     7
 10
72.313648999999984
 20
174.068084
 30
0.0
 40
53.128309999999999
 50
270.48007200000001
 51
272.18021199999993
  0
ARC
  5
87
  8
0
  6
AIGENLINE001
 62
     7
 10
73.199073999999996
 20
149.69976
 30
0.0
 40
28.743973999999991
 50
272.2644259999999
 51
275.809752
  0
ARC
  5
88
  8
0
  6
AIGENLINE001
 62
     7
 10
74.121735000000001
 20
140.01758000000001
 30
0.0
 40
19.018229999999999
 50
275.99702400000001
 51
282.443714
  0
ARC
  5
89
  8
0
  6
AIGENLINE001
 62
     7
 10
74.713796999999985
 20
136.9521389999999
 30
0.0
 40
15.897437999999999
 50
282.7406509999999
 51
298.76642799999991
  0
ARC
  5
8A
  8
0
  6
AIGENLINE001
 62
     7
 10
72.161633999999992
 20
141.9127169999999
 30
0.0
 40
21.474553
 50
298.366131
 51
305.17575399999998
  0
ARC
  5
8B
  8
0
  6
AIGENLINE001
 62
     7
 10
67.110686000000001
 20
149.3387679999999
 30
0.0
 40
30.454673
 50
304.89457099999993
 51
309.31112400000001
  0
ARC
  5
8C
  8
0
  6
AIGENLINE001
 62
     7
 10
59.039684999999999
 20
159.390781
 30
0.0
 40
43.345495
 50
309.14775900000001
 51
312.69913500000001
  0
ARC
  5
8D
  8
0
  6
AIGENLINE001
 62
     7
 10
46.006695000000001
 20
173.75331299999991
 30
0.0
 40
62.739389000000003
 50
312.55149999999998
 51
315.11884300000003
  0
ARC
  5
8E
  8
0
  6
AIGENLINE001
 62
     7
 10
92.673711999999995
 20
127.398633
 30
0.0
 40
3.0383740000000001
 50
90.309661999999989
 51
136.711116
  0
ARC
  5
8F
  8
0
  6
AIGENLINE001
 62
     7
 10
63.604264999999998
 20
119.9657149999999
 30
0.0
 40
0.9716839999999999
 50
54.720081
 51
89.877684999999985
  0
ARC
  5
90
  8
0
  6
AIGENLINE001
 62
     7
 10
44.143887999999997
 20
127.905226
 30
0.0
 40
2.531769999999999
 50
44.608092999999997
 51
89.704858999999985
  0
ARC
  5
91
  8
0
  6
AIGENLINE001
 62
     7
 10
112.1146039999999
 20
190.56032999999991
 30
0.0
 40
89.912567999999993
 50
222.6151689999999
 51
224.3703439999999
  0
ARC
  5
92
  8
0
  6
AIGENLINE001
 62
     7
 10
85.21395600000001
 20
164.40006199999999
 30
0.0
 40
52.389465000000001
 50
224.49192400000001
 51
227.11781999999999
  0
ARC
  5
93
  8
0
  6
AIGENLINE001
 62
     7
 10
71.769159999999999
 20
150.04640599999999
 30
0.0
 40
32.722776000000003
 50
227.26519400000001
 51
230.9490439999999
  0
ARC
  5
94
  8
0
  6
AIGENLINE001
 62
     7
 10
64.655760000000001
 20
141.3842239999999
 30
0.0
 40
21.514429
 50
231.127185
 51
236.88005499999991
  0
ARC
  5
95
  8
0
  6
AIGENLINE001
 62
     7
 10
60.983081999999989
 20
135.88894799999991
 30
0.0
 40
14.905431
 50
237.1621549999999
 51
248.19362899999999
  0
ARC
  5
96
  8
0
  6
AIGENLINE001
 62
     7
 10
60.416915000000003
 20
134.768316
 30
0.0
 40
13.655110000000001
 50
248.65254899999999
 51
259.13491199999987
  0
ARC
  5
97
  8
0
  6
AIGENLINE001
 62
     7
 10
61.343623000000001
 20
139.138746
 30
0.0
 40
18.122081999999999
 50
258.86212099999989
 51
264.10710299999988
  0
ARC
  5
98
  8
0
  6
AIGENLINE001
 62
     7
 10
62.341227000000003
 20
147.94461299999989
 30
0.0
 40
26.983982000000001
 50
263.91974199999993
 51
267.730008
  0
ARC
  5
99
  8
0
  6
AIGENLINE001
 62
     7
 10
63.202165000000001
 20
165.54727700000001
 30
0.0
 40
44.607230999999999
 50
267.52058399999987
 51
269.404337
  0
ARC
  5
9A
  8
0
  6
AIGENLINE001
 62
     7
 10
63.586860999999992
 20
192.034323
 30
0.0
 40
71.096929000000003
 50
269.31624799999992
 51
270.01570699999991
  0
ARC
  5
9B
  8
0
 62
     7
 10
109.43655099999999
 20
127.450401
 30
0.0
 40
0.356145
 50
272.16380299999992
 51
357.836207
  0
ARC
  5
9C
  8
0
 62
     7
 10
109.46342300000001
 20
127.45038
 30
0.0
 40
0.356123
 50
182.1604679999999
 51
267.839562
  0
ARC
  5
9D
  8
0
 62
     7
 10
109.46342300000001
 20
127.4235299999999
 30
0.0
 40
0.356123
 50
92.160438000000013
 51
177.83953199999999
  0
ARC
  5
9E
  8
0
 62
     7
 10
109.43655099999999
 20
127.423508
 30
0.0
 40
0.356145
 50
2.1637930000000001
 51
87.836196999999999
  0
LINE
  5
9F
  8
0
 62
     7
 10
132.7299999999999
 20
196.34
 30
0.0
 11
126.977
 21
196.34
 31
0.0
  0
LINE
  5
A0
  8
0
 62
     7
 10
123.09699999999999
 20
193.298
 30
0.0
 11
121.953
 21
191.31499999999991
 31
0.0
  0
LINE
  5
A1
  8
0
 62
     7
 10
121.953
 20
191.31499999999991
 30
0.0
 11
123.93600000000001
 21
192.46000000000001
 31
0.0
  0
LINE
  5
A2
  8
0
 62
     7
 10
123.93600000000001
 20
192.46000000000001
 30
0.0
 11
123.09699999999999
 21
193.298
 31
0.0
  0
LINE
  5
A3
  8
0
 62
     7
 10
121.953
 20
191.31499999999991
 30
0.0
 11
126.977
 21
196.34
 31
0.0
  0
LINE
  5
A4
  8
0
 62
     7
 10
132.7299999999999
 20
211.70500000000001
 30
0.0
 11
126.977
 21
211.70500000000001
 31
0.0
  0
LINE
  5
A5
  8
0
 62
     7
 10
123.9349999999999
 20
215.58500000000001
 30
0.0
 11
121.953
 21
216.72999999999999
 31
0.0
  0
LINE
  5
A6
  8
0
 62
     7
 10
121.953
 20
216.72999999999999
 30
0.0
 11
123.09699999999999
 21
214.74700000000001
 31
0.0
  0
LINE
  5
A7
  8
0
 62
     7
 10
123.09699999999999
 20
214.74700000000001
 30
0.0
 11
123.9349999999999
 21
215.58500000000001
 31
0.0
  0
LINE
  5
A8
  8
0
 62
     7
 10
121.953
 20
216.72999999999999
 30
0.0
 11
126.977
 21
211.70500000000001
 31
0.0
  0
LINE
  5
A9
  8
0
 62
     7
 10
142.66
 20
181.56499999999991
 30
0.0
 11
142.66
 21
197.179
 31
0.0
  0
LINE
  5
AA
  8
0
 62
     7
 10
123.87
 20
182.85099999999991
 30
0.0
 11
121.6579999999999
 21
182.2579999999999
 31
0.0
  0
LINE
  5
AB
  8
0
 62
     7
 10
121.6579999999999
 20
182.2579999999999
 30
0.0
 11
123.87
 21
181.66599999999991
 31
0.0
  0
LINE
  5
AC
  8
0
 62
     7
 10
123.87
 20
181.66599999999991
 30
0.0
 11
123.87
 21
182.85099999999991
 31
0.0
  0
LINE
  5
AD
  8
0
 62
     7
 10
170.4499999999999
 20
181.68000000000001
 30
0.0
 11
172.66099999999989
 21
182.27299999999991
 31
0.0
  0
LINE
  5
AE
  8
0
 62
     7
 10
172.66099999999989
 20
182.27299999999991
 30
0.0
 11
170.4499999999999
 21
182.86500000000001
 31
0.0
  0
LINE
  5
AF
  8
0
 62
     7
 10
170.4499999999999
 20
182.86500000000001
 30
0.0
 11
170.4499999999999
 21
181.68000000000001
 31
0.0
  0
LINE
  5
B0
  8
0
 62
     7
 10
121.65899999999991
 20
182.2649999999999
 30
0.0
 11
172.65999999999991
 21
182.2649999999999
 31
0.0
  0
LINE
  5
B1
  8
0
 62
     7
 10
172.65999999999991
 20
181.56499999999991
 30
0.0
 11
172.65999999999991
 21
190.25899999999999
 31
0.0
  0
LINE
  5
B2
  8
0
 62
     7
 10
121.65899999999991
 20
181.56499999999991
 30
0.0
 11
121.65899999999991
 21
190.25899999999999
 31
0.0
  0
LINE
  5
B3
  8
0
 62
     7
 10
179.96299999999999
 20
193.233
 30
0.0
 11
180.55500000000001
 21
191.02199999999999
 31
0.0
  0
LINE
  5
B4
  8
0
 62
     7
 10
180.55500000000001
 20
191.02199999999999
 30
0.0
 11
181.14799999999991
 21
193.233
 31
0.0
  0
LINE
  5
B5
  8
0
 62
     7
 10
181.14799999999991
 20
193.233
 30
0.0
 11
179.96299999999999
 21
193.233
 31
0.0
  0
LINE
  5
B6
  8
0
 62
     7
 10
181.13399999999999
 20
214.81200000000001
 30
0.0
 11
180.541
 21
217.023
 31
0.0
  0
LINE
  5
B7
  8
0
 62
     7
 10
180.541
 20
217.023
 30
0.0
 11
179.94799999999989
 21
214.81200000000001
 31
0.0
  0
LINE
  5
B8
  8
0
 62
     7
 10
179.94799999999989
 20
214.81200000000001
 30
0.0
 11
181.13399999999999
 21
214.81200000000001
 31
0.0
  0
LINE
  5
B9
  8
0
 62
     7
 10
180.548
 20
191.02199999999999
 30
0.0
 11
180.548
 21
217.02199999999999
 31
0.0
  0
LINE
  5
BA
  8
0
 62
     7
 10
181.24799999999991
 20
191.02199999999999
 30
0.0
 11
173.36000000000001
 21
191.02199999999999
 31
0.0
  0
LINE
  5
BB
  8
0
 62
     7
 10
181.24799999999991
 20
217.02199999999999
 30
0.0
 11
173.36000000000001
 21
217.02199999999999
 31
0.0
  0
LINE
  5
BC
  8
0
 62
     7
 10
123.87
 20
226.00899999999999
 30
0.0
 11
121.6579999999999
 21
225.416
 31
0.0
  0
LINE
  5
BD
  8
0
 62
     7
 10
121.6579999999999
 20
225.416
 30
0.0
 11
123.87
 21
224.82400000000001
 31
0.0
  0
LINE
  5
BE
  8
0
 62
     7
 10
123.87
 20
224.82400000000001
 30
0.0
 11
123.87
 21
226.00899999999999
 31
0.0
  0
LINE
  5
BF
  8
0
 62
     7
 10
170.4499999999999
 20
224.83799999999999
 30
0.0
 11
172.66099999999989
 21
225.4309999999999
 31
0.0
  0
LINE
  5
C0
  8
0
 62
     7
 10
172.66099999999989
 20
225.4309999999999
 30
0.0
 11
170.4499999999999
 21
226.02299999999991
 31
0.0
  0
LINE
  5
C1
  8
0
 62
     7
 10
170.4499999999999
 20
226.02299999999991
 30
0.0
 11
170.4499999999999
 21
224.83799999999999
 31
0.0
  0
LINE
  5
C2
  8
0
 62
     7
 10
121.65899999999991
 20
225.42400000000001
 30
0.0
 11
172.65999999999991
 21
225.42400000000001
 31
0.0
  0
LINE
  5
C3
  8
0
 62
     7
 10
172.65999999999991
 20
217.43000000000001
 30
0.0
 11
172.65999999999991
 21
226.124
 31
0.0
  0
LINE
  5
C4
  8
0
 62
     7
 10
121.65899999999991
 20
217.43000000000001
 30
0.0
 11
121.65899999999991
 21
226.124
 31
0.0
  0
LINE
  5
C5
  8
0
  6
AIGENLINE002
 62
     7
 10
142.66
 20
209.7229999999999
 30
0.0
 11
142.66
 21
197.87899999999999
 31
0.0
  0
ARC
  5
C6
  8
0
  6
AIGENLINE001
 62
     7
 10
142.6597219999999
 20
204.02242799999991
 30
0.0
 40
2.3001330000000002
 50
359.99571900000001
 51
89.995688999999985
  0
ARC
  5
C7
  8
0
  6
AIGENLINE001
 62
     7
 10
142.65989499999989
 20
204.022256
 30
0.0
 40
2.3003049999999989
 50
90.0
 51
179.99996999999991
  0
ARC
  5
C8
  8
0
  6
AIGENLINE001
 62
     7
 10
142.6597219999999
 20
204.02242799999991
 30
0.0
 40
2.3001320000000001
 50
180.00430099999991
 51
270.00431099999992
  0
ARC
  5
C9
  8
0
  6
AIGENLINE001
 62
     7
 10
142.65989400000001
 20
204.022256
 30
0.0
 40
2.2999610000000001
 50
270.00002000000001
 51
359.99998999999991
  0
ARC
  5
CA
  8
0
  6
AIGENLINE001
 62
     7
 10
142.65972099999991
 20
204.02242799999991
 30
0.0
 40
3.7501829999999998
 50
359.99737799999991
 51
89.997348000000002
  0
ARC
  5
CB
  8
0
  6
AIGENLINE001
 62
     7
 10
142.660067
 20
204.02242799999991
 30
0.0
 40
3.7501829999999998
 50
90.002631999999991
 51
180.0026419999999
  0
ARC
  5
CC
  8
0
  6
AIGENLINE001
 62
     7
 10
142.65989400000001
 20
204.022255
 30
0.0
 40
3.750008999999999
 50
179.99996999999991
 51
270.00002000000001
  0
ARC
  5
CD
  8
0
  6
AIGENLINE001
 62
     7
 10
142.65989400000001
 20
204.022257
 30
0.0
 40
3.7500110000000002
 50
270.00002000000001
 51
359.99998999999991
  0
LINE
  5
CE
  8
0
  6
AIGENLINE002
 62
     7
 10
119.04299999999991
 20
204.023
 30
0.0
 11
174.95899999999989
 21
204.023
 31
0.0
  0
LINE
  5
CF
  8
0
 62
     7
 10
122.6599999999999
 20
191.02199999999999
 30
0.0
 11
171.65999999999991
 21
191.02199999999999
 31
0.0
  0
LINE
  5
D0
  8
0
 62
     7
 10
172.65999999999991
 20
216.02299999999991
 30
0.0
 11
172.65999999999991
 21
192.023
 31
0.0
  0
ARC
  5
D1
  8
0
 62
     7
 10
171.6212129999999
 20
192.0612129999999
 30
0.0
 40
1.039480999999999
 50
272.13060899999999
 51
357.86940099999993
  0
LINE
  5
D2
  8
0
 62
     7
 10
122.6599999999999
 20
217.02199999999999
 30
0.0
 11
171.65999999999991
 21
217.02199999999999
 31
0.0
  0
ARC
  5
D3
  8
0
 62
     7
 10
171.62156200000001
 20
215.98397899999989
 30
0.0
 40
1.0391330000000001
 50
2.1318060000000001
 51
87.887923999999998
  0
LINE
  5
D4
  8
0
 62
     7
 10
121.65899999999991
 20
216.02299999999991
 30
0.0
 11
121.65899999999991
 21
192.023
 31
0.0
  0
ARC
  5
D5
  8
0
 62
     7
 10
122.69823100000001
 20
215.983654
 30
0.0
 40
1.0394699999999999
 50
92.129270999999989
 51
177.85095899999999
  0
ARC
  5
D6
  8
0
 62
     7
 10
122.698235
 20
192.06119299999989
 30
0.0
 40
1.0394600000000001
 50
182.129526
 51
267.87050299999993
  0
ARC
  5
D7
  8
0
 62
     7
 10
145.693884
 20
118.8600679999999
 30
0.0
 40
0.579433
 50
59.272952000000011
 51
65.877856999999992
  0
ARC
  5
D8
  8
0
 62
     7
 10
144.824263
 20
116.958223
 30
0.0
 40
2.670652
 50
65.525346999999996
 51
69.268096999999983
  0
ARC
  5
D9
  8
0
 62
     7
 10
333.38763799999992
 20
615.23391200000003
 30
0.0
 40
530.09084199999995
 50
249.14872
 51
249.271793
  0
ARC
  5
DA
  8
0
 62
     7
 10
150.67710700000001
 20
134.74815599999999
 30
0.0
 40
16.041154999999989
 50
241.96732800000001
 51
248.14308099999991
  0
ARC
  5
DB
  8
0
 62
     7
 10
148.54357799999991
 20
130.614318
 30
0.0
 40
11.38975099999999
 50
230.81017199999999
 51
241.66762199999999
  0
ARC
  5
DC
  8
0
 62
     7
 10
146.65560300000001
 20
128.17615399999991
 30
0.0
 40
8.3073999999999995
 50
215.95411799999999
 51
230.27654899999999
  0
ARC
  5
DD
  8
0
 62
     7
 10
145.5031229999999
 20
127.254597
 30
0.0
 40
6.8337529999999989
 50
200.82708
 51
215.372872
  0
ARC
  5
DE
  8
0
 62
     7
 10
138.1768439999999
 20
124.4115649999999
 30
0.0
 40
1.0259869999999991
 50
23.755438000000002
 51
89.042473999999999
  0
LINE
  5
DF
  8
0
 62
     7
 10
152.744
 20
125.437
 30
0.0
 11
152.45400000000001
 21
116.92700000000001
 31
0.0
  0
LINE
  5
E0
  8
0
 62
     7
 10
147.73400000000001
 20
116.637
 30
0.0
 11
152.15399999999991
 21
116.637
 31
0.0
  0
ARC
  5
E1
  8
0
 62
     7
 10
152.14366200000001
 20
116.948121
 30
0.0
 40
0.311102
 50
271.95827500000001
 51
356.03156300000001
  0
LINE
  5
E2
  8
0
 62
     7
 10
147.43399999999991
 20
116.92700000000001
 30
0.0
 11
147.14400000000001
 21
125.437
 31
0.0
  0
ARC
  5
E3
  8
0
 62
     7
 10
147.744282
 20
116.9479139999999
 30
0.0
 40
0.310876
 50
183.932987
 51
268.14299199999988
  0
LINE
  5
E4
  8
0
 62
     7
 10
153.44399999999999
 20
116.23699999999999
 30
0.0
 11
153.44399999999999
 21
118.6369999999999
 31
0.0
  0
LINE
  5
E5
  8
0
 62
     7
 10
146.4439999999999
 20
116.23699999999999
 30
0.0
 11
146.4439999999999
 21
118.6369999999999
 31
0.0
  0
ARC
  5
E6
  8
0
 62
     7
 10
145.62558799999999
 20
118.6252199999999
 30
0.0
 40
0.818504
 50
0.806935
 51
63.567106999999979
  0
LINE
  5
E7
  8
0
 62
     7
 10
146.744
 20
115.937
 30
0.0
 11
153.14400000000001
 21
115.937
 31
0.0
  0
ARC
  5
E8
  8
0
 62
     7
 10
153.1328179999999
 20
116.2484929999999
 30
0.0
 40
0.3115429999999999
 50
272.070739
 51
357.863452
  0
ARC
  5
E9
  8
0
 62
     7
 10
146.75502399999999
 20
116.24817899999999
 30
0.0
 40
0.311218
 50
182.0808429999999
 51
267.985006
  0
LINE
  5
EA
  8
0
 62
     7
 10
153.14400000000001
 20
125.437
 30
0.0
 11
153.14400000000001
 21
127.437
 31
0.0
  0
LINE
  5
EB
  8
0
 62
     7
 10
146.744
 20
125.437
 30
0.0
 11
146.744
 21
127.437
 31
0.0
  0
LINE
  5
EC
  8
0
  6
AIGENLINE002
 62
     7
 10
149.9439999999999
 20
113.79900000000001
 30
0.0
 11
149.9439999999999
 21
131.90000000000001
 31
0.0
  0
LINE
  5
ED
  8
0
 62
     7
 10
136.1939999999999
 20
125.437
 30
0.0
 11
163.6939999999999
 21
125.437
 31
0.0
  0
LINE
  5
EE
  8
0
 62
     7
 10
164.19399999999999
 20
125.937
 30
0.0
 11
164.19399999999999
 21
127.437
 31
0.0
  0
ARC
  5
EF
  8
0
 62
     7
 10
163.67506299999991
 20
125.955932
 30
0.0
 40
0.519573
 50
272.13313399999993
 51
357.90634899999998
  0
LINE
  5
F0
  8
0
 62
     7
 10
135.6939999999999
 20
125.937
 30
0.0
 11
135.6939999999999
 21
127.437
 31
0.0
  0
ARC
  5
F1
  8
0
 62
     7
 10
136.213752
 20
125.95624599999989
 30
0.0
 40
0.519898
 50
182.12700299999989
 51
267.83355299999999
  0
LINE
  5
F2
  8
0
 62
     7
 10
133.1939999999999
 20
127.437
 30
0.0
 11
166.69399999999999
 21
127.437
 31
0.0
  0
LINE
  5
F3
  8
0
 62
     7
 10
167.19399999999999
 20
127.937
 30
0.0
 11
167.19399999999999
 21
129.93700000000001
 31
0.0
  0
ARC
  5
F4
  8
0
 62
     7
 10
166.675071
 20
127.95616699999989
 30
0.0
 40
0.519573
 50
272.13313399999993
 51
357.90634899999998
  0
LINE
  5
F5
  8
0
 62
     7
 10
133.1939999999999
 20
130.43700000000001
 30
0.0
 11
166.69399999999999
 21
130.43700000000001
 31
0.0
  0
ARC
  5
F6
  8
0
 62
     7
 10
166.674757
 20
129.91743600000001
 30
0.0
 40
0.519898
 50
2.1269830000000001
 51
87.833532999999989
  0
LINE
  5
F7
  8
0
 62
     7
 10
132.69399999999999
 20
127.937
 30
0.0
 11
132.69399999999999
 21
129.93700000000001
 31
0.0
  0
ARC
  5
F8
  8
0
 62
     7
 10
133.21374399999991
 20
127.956481
 30
0.0
 40
0.519898
 50
182.12700299999989
 51
267.83355299999999
  0
ARC
  5
F9
  8
0
 62
     7
 10
133.2134189999999
 20
129.91776100000001
 30
0.0
 40
0.519562
 50
92.132005000000007
 51
177.9074389999999
  0
LINE
  5
FA
  8
0
 62
     7
 10
66.196399999999997
 20
132.64799999999991
 30
0.0
 11
66.788899999999984
 21
130.43700000000001
 31
0.0
  0
LINE
  5
FB
  8
0
 62
     7
 10
66.788899999999984
 20
130.43700000000001
 30
0.0
 11
67.381500000000003
 21
132.64799999999991
 31
0.0
  0
LINE
  5
FC
  8
0
 62
     7
 10
67.381500000000003
 20
132.64799999999991
 30
0.0
 11
66.196399999999997
 21
132.64799999999991
 31
0.0
  0
LINE
  5
FD
  8
0
 62
     7
 10
67.381500000000003
 20
118.7259999999999
 30
0.0
 11
66.788899999999984
 21
120.937
 31
0.0
  0
LINE
  5
FE
  8
0
 62
     7
 10
66.788899999999984
 20
120.937
 30
0.0
 11
66.196399999999997
 21
118.7259999999999
 31
0.0
  0
LINE
  5
FF
  8
0
 62
     7
 10
66.196399999999997
 20
118.7259999999999
 30
0.0
 11
67.381500000000003
 21
118.7259999999999
 31
0.0
  0
LINE
  5
100
  8
0
 62
     7
 10
66.788899999999984
 20
117.18000000000001
 30
0.0
 11
66.788899999999984
 21
136.99399999999989
 31
0.0
  0
LINE
  5
101
  8
0
 62
     7
 10
108.8639999999999
 20
132.64899999999989
 30
0.0
 11
109.45699999999999
 21
130.43700000000001
 31
0.0
  0
LINE
  5
102
  8
0
 62
     7
 10
109.45699999999999
 20
130.43700000000001
 30
0.0
 11
110.04899999999989
 21
132.64899999999989
 31
0.0
  0
LINE
  5
103
  8
0
 62
     7
 10
110.04899999999989
 20
132.64899999999989
 30
0.0
 11
108.8639999999999
 21
132.64899999999989
 31
0.0
  0
LINE
  5
104
  8
0
 62
     7
 10
110.04300000000001
 20
123.2259999999999
 30
0.0
 11
109.45
 21
125.437
 31
0.0
  0
LINE
  5
105
  8
0
 62
     7
 10
109.45
 20
125.437
 30
0.0
 11
108.857
 21
123.2259999999999
 31
0.0
  0
LINE
  5
106
  8
0
 62
     7
 10
108.857
 20
123.2259999999999
 30
0.0
 11
110.04300000000001
 21
123.2259999999999
 31
0.0
  0
LINE
  5
107
  8
0
 62
     7
 10
109.45
 20
118.974
 30
0.0
 11
109.45
 21
136.88900000000001
 31
0.0
  0
LINE
  5
108
  8
0
 62
     7
 10
115.996
 20
125.437
 30
0.0
 11
104.874
 21
125.437
 31
0.0
  0
LINE
  5
109
  8
0
 62
     7
 10
110.15000000000001
 20
127.437
 30
0.0
 11
102.357
 21
127.437
 31
0.0
  0
LINE
  5
10A
  8
0
 62
     7
 10
114.7029999999999
 20
132.64899999999989
 30
0.0
 11
115.29599999999991
 21
130.43700000000001
 31
0.0
  0
LINE
  5
10B
  8
0
 62
     7
 10
115.29599999999991
 20
130.43700000000001
 30
0.0
 11
115.88799999999991
 21
132.64899999999989
 31
0.0
  0
LINE
  5
10C
  8
0
 62
     7
 10
115.88799999999991
 20
132.64899999999989
 30
0.0
 11
114.7029999999999
 21
132.64899999999989
 31
0.0
  0
LINE
  5
10D
  8
0
 62
     7
 10
115.88799999999991
 20
123.2259999999999
 30
0.0
 11
115.29599999999991
 21
125.437
 31
0.0
  0
LINE
  5
10E
  8
0
 62
     7
 10
115.29599999999991
 20
125.437
 30
0.0
 11
114.7029999999999
 21
123.2259999999999
 31
0.0
  0
LINE
  5
10F
  8
0
 62
     7
 10
114.7029999999999
 20
123.2259999999999
 30
0.0
 11
115.88799999999991
 21
123.2259999999999
 31
0.0
  0
LINE
  5
110
  8
0
 62
     7
 10
115.29599999999991
 20
122.089
 30
0.0
 11
115.29599999999991
 21
137.142
 31
0.0
  0
LINE
  5
111
  8
0
 62
     7
 10
120.5559999999999
 20
118.148
 30
0.0
 11
121.1479999999999
 21
115.93600000000001
 31
0.0
  0
LINE
  5
112
  8
0
 62
     7
 10
121.1479999999999
 20
115.93600000000001
 30
0.0
 11
121.741
 21
118.148
 31
0.0
  0
LINE
  5
113
  8
0
 62
     7
 10
121.741
 20
118.148
 30
0.0
 11
120.5559999999999
 21
118.148
 31
0.0
  0
LINE
  5
114
  8
0
 62
     7
 10
121.726
 20
128.227
 30
0.0
 11
121.134
 21
130.4379999999999
 31
0.0
  0
LINE
  5
115
  8
0
 62
     7
 10
121.134
 20
130.4379999999999
 30
0.0
 11
120.541
 21
128.227
 31
0.0
  0
LINE
  5
116
  8
0
 62
     7
 10
120.541
 20
128.227
 30
0.0
 11
121.726
 21
128.227
 31
0.0
  0
LINE
  5
117
  8
0
 62
     7
 10
121.14100000000001
 20
115.937
 30
0.0
 11
121.14100000000001
 21
130.43700000000001
 31
0.0
  0
LINE
  5
118
  8
0
 62
     7
 10
121.84099999999999
 20
115.937
 30
0.0
 11
71.857399999999998
 21
115.937
 31
0.0
  0
LINE
  5
119
  8
0
 62
     7
 10
121.84099999999999
 20
130.43700000000001
 30
0.0
 11
102.357
 21
130.43700000000001
 31
0.0
  0
LINE
  5
11A
  8
0
 62
     7
 10
96.86790000000002
 20
137.39400000000001
 30
0.0
 11
94.656099999999995
 21
136.80099999999999
 31
0.0
  0
LINE
  5
11B
  8
0
 62
     7
 10
94.656099999999995
 20
136.80099999999999
 30
0.0
 11
96.86790000000002
 21
136.209
 31
0.0
  0
LINE
  5
11C
  8
0
 62
     7
 10
96.86790000000002
 20
136.209
 30
0.0
 11
96.86790000000002
 21
137.39400000000001
 31
0.0
  0
LINE
  5
11D
  8
0
 62
     7
 10
99.446600000000004
 20
136.2229999999999
 30
0.0
 11
101.6579999999999
 21
136.816
 31
0.0
  0
LINE
  5
11E
  8
0
 62
     7
 10
101.6579999999999
 20
136.816
 30
0.0
 11
99.446600000000004
 21
137.40899999999999
 31
0.0
  0
LINE
  5
11F
  8
0
 62
     7
 10
99.446600000000004
 20
137.40899999999999
 30
0.0
 11
99.446600000000004
 21
136.2229999999999
 31
0.0
  0
LINE
  5
120
  8
0
 62
     7
 10
94.657200000000003
 20
136.80799999999991
 30
0.0
 11
101.657
 21
136.80799999999991
 31
0.0
  0
LINE
  5
121
  8
0
 62
     7
 10
94.657200000000003
 20
137.5079999999999
 30
0.0
 11
94.657200000000003
 21
133.03700000000001
 31
0.0
  0
LINE
  5
122
  8
0
 62
     7
 10
132.69399999999999
 20
126.505
 30
0.0
 11
132.69399999999999
 21
106.8889999999999
 31
0.0
  0
LINE
  5
123
  8
0
 62
     7
 10
135.6939999999999
 20
124.5589999999999
 30
0.0
 11
135.6939999999999
 21
106.8889999999999
 31
0.0
  0
LINE
  5
124
  8
0
 62
     7
 10
164.19399999999999
 20
124.5589999999999
 30
0.0
 11
164.19399999999999
 21
106.8889999999999
 31
0.0
  0
LINE
  5
125
  8
0
 62
     7
 10
167.19399999999999
 20
126.587
 30
0.0
 11
167.19399999999999
 21
106.8889999999999
 31
0.0
  0
LINE
  5
126
  8
0
 62
     7
 10
137.90600000000001
 20
108.18899999999999
 30
0.0
 11
135.6939999999999
 21
107.59699999999999
 31
0.0
  0
LINE
  5
127
  8
0
 62
     7
 10
135.6939999999999
 20
107.59699999999999
 30
0.0
 11
137.90600000000001
 21
107.00399999999991
 31
0.0
  0
LINE
  5
128
  8
0
 62
     7
 10
137.90600000000001
 20
107.00399999999991
 30
0.0
 11
137.90600000000001
 21
108.18899999999999
 31
0.0
  0
LINE
  5
129
  8
0
 62
     7
 10
130.482
 20
107.00399999999991
 30
0.0
 11
132.69399999999999
 21
107.59699999999999
 31
0.0
  0
LINE
  5
12A
  8
0
 62
     7
 10
132.69399999999999
 20
107.59699999999999
 30
0.0
 11
130.482
 21
108.18899999999999
 31
0.0
  0
LINE
  5
12B
  8
0
 62
     7
 10
130.482
 20
108.18899999999999
 30
0.0
 11
130.482
 21
107.00399999999991
 31
0.0
  0
LINE
  5
12C
  8
0
 62
     7
 10
169.40599999999989
 20
108.18899999999999
 30
0.0
 11
167.19399999999999
 21
107.59699999999999
 31
0.0
  0
LINE
  5
12D
  8
0
 62
     7
 10
167.19399999999999
 20
107.59699999999999
 30
0.0
 11
169.40599999999989
 21
107.00399999999991
 31
0.0
  0
LINE
  5
12E
  8
0
 62
     7
 10
169.40599999999989
 20
107.00399999999991
 30
0.0
 11
169.40599999999989
 21
108.18899999999999
 31
0.0
  0
LINE
  5
12F
  8
0
 62
     7
 10
161.983
 20
107.00399999999991
 30
0.0
 11
164.19399999999999
 21
107.59699999999999
 31
0.0
  0
LINE
  5
130
  8
0
 62
     7
 10
164.19399999999999
 20
107.59699999999999
 30
0.0
 11
161.983
 21
108.18899999999999
 31
0.0
  0
LINE
  5
131
  8
0
 62
     7
 10
161.983
 20
108.18899999999999
 30
0.0
 11
161.983
 21
107.00399999999991
 31
0.0
  0
LINE
  5
132
  8
0
 62
     7
 10
126.3149999999999
 20
107.59699999999999
 30
0.0
 11
173.98699999999991
 21
107.59699999999999
 31
0.0
  0
LINE
  5
133
  8
0
 62
     7
 10
42.156999999999996
 20
126.505
 30
0.0
 11
42.156999999999996
 21
106.8889999999999
 31
0.0
  0
LINE
  5
134
  8
0
 62
     7
 10
45.156999999999989
 20
124.5589999999999
 30
0.0
 11
45.156999999999989
 21
106.8889999999999
 31
0.0
  0
LINE
  5
135
  8
0
 62
     7
 10
99.657399999999996
 20
124.5589999999999
 30
0.0
 11
99.657399999999996
 21
106.8889999999999
 31
0.0
  0
LINE
  5
136
  8
0
 62
     7
 10
101.657
 20
126.587
 30
0.0
 11
101.657
 21
106.8889999999999
 31
0.0
  0
LINE
  5
137
  8
0
 62
     7
 10
101.657
 20
137.51599999999991
 30
0.0
 11
101.657
 21
131.13699999999989
 31
0.0
  0
LINE
  5
138
  8
0
 62
     7
 10
47.3688
 20
108.18899999999999
 30
0.0
 11
45.156999999999989
 21
107.59699999999999
 31
0.0
  0
LINE
  5
139
  8
0
 62
     7
 10
45.156999999999989
 20
107.59699999999999
 30
0.0
 11
47.3688
 21
107.00399999999991
 31
0.0
  0
LINE
  5
13A
  8
0
 62
     7
 10
47.3688
 20
107.00399999999991
 30
0.0
 11
47.3688
 21
108.18899999999999
 31
0.0
  0
LINE
  5
13B
  8
0
 62
     7
 10
39.945599999999992
 20
107.00399999999991
 30
0.0
 11
42.156999999999996
 21
107.59699999999999
 31
0.0
  0
LINE
  5
13C
  8
0
 62
     7
 10
42.156999999999996
 20
107.59699999999999
 30
0.0
 11
39.945599999999992
 21
108.18899999999999
 31
0.0
  0
LINE
  5
13D
  8
0
 62
     7
 10
39.945599999999992
 20
108.18899999999999
 30
0.0
 11
39.945599999999992
 21
107.00399999999991
 31
0.0
  0
LINE
  5
13E
  8
0
 62
     7
 10
103.869
 20
108.18899999999999
 30
0.0
 11
101.657
 21
107.59699999999999
 31
0.0
  0
LINE
  5
13F
  8
0
 62
     7
 10
101.657
 20
107.59699999999999
 30
0.0
 11
103.869
 21
107.00399999999991
 31
0.0
  0
LINE
  5
140
  8
0
 62
     7
 10
103.869
 20
107.00399999999991
 30
0.0
 11
103.869
 21
108.18899999999999
 31
0.0
  0
LINE
  5
141
  8
0
 62
     7
 10
97.445999999999998
 20
107.00399999999991
 30
0.0
 11
99.657399999999996
 21
107.59699999999999
 31
0.0
  0
LINE
  5
142
  8
0
 62
     7
 10
99.657399999999996
 20
107.59699999999999
 30
0.0
 11
97.445999999999998
 21
108.18899999999999
 31
0.0
  0
LINE
  5
143
  8
0
 62
     7
 10
97.445999999999998
 20
108.18899999999999
 30
0.0
 11
97.445999999999998
 21
107.00399999999991
 31
0.0
  0
LINE
  5
144
  8
0
 62
     7
 10
35.778100000000002
 20
107.59699999999999
 30
0.0
 11
108.45099999999999
 21
107.59699999999999
 31
0.0
  0
LINE
  5
145
  8
0
 62
     7
 10
86.426500000000004
 20
117.91500000000001
 30
0.0
 11
90.657399999999996
 21
125.437
 31
0.0
  0
LINE
  5
146
  8
0
 62
     7
 10
71.457400000000007
 20
116.637
 30
0.0
 11
85.609300000000005
 21
117.407
 31
0.0
  0
ARC
  5
147
  8
0
 62
     7
 10
85.544138000000004
 20
118.422383
 30
0.0
 40
1.0176289999999999
 50
273.66961299999991
 51
330.11507899999992
  0
LINE
  5
148
  8
0
 62
     7
 10
71.157300000000006
 20
116.23699999999999
 30
0.0
 11
71.157300000000006
 21
116.337
 31
0.0
  0
ARC
  5
149
  8
0
 62
     7
 10
71.468722
 20
116.325838
 30
0.0
 40
0.3115679999999999
 50
92.079509000000002
 51
177.98620500000001
  0
LINE
  5
14A
  8
0
 62
     7
 10
64.457300000000004
 20
115.937
 30
0.0
 11
70.857299999999995
 21
115.937
 31
0.0
  0
ARC
  5
14B
  8
0
 62
     7
 10
71.42055400000001
 20
181.06058200000001
 30
0.0
 40
61.62388
 50
269.98751699999991
 51
272.5025819999999
  0
ARC
  5
14C
  8
0
 62
     7
 10
72.134093000000007
 20
163.0271149999999
 30
0.0
 40
43.576520000000002
 50
272.600616
 51
275.97292499999992
  0
ARC
  5
14D
  8
0
 62
     7
 10
73.517358000000002
 20
149.17046999999991
 30
0.0
 40
29.651233000000001
 50
276.10073599999993
 51
281.34161699999993
  0
ARC
  5
14E
  8
0
 62
     7
 10
75.428743000000011
 20
139.13432299999991
 30
0.0
 40
19.435437
 50
281.635333
 51
288.28847000000002
  0
ARC
  5
14F
  8
0
 62
     7
 10
77.268643999999995
 20
133.32298499999999
 30
0.0
 40
13.340494
 50
288.61762999999991
 51
298.29367200000002
  0
ARC
  5
150
  8
0
 62
     7
 10
78.586027000000001
 20
130.686725
 30
0.0
 40
10.395147
 50
298.78735699999999
 51
319.05959999999988
  0
ARC
  5
151
  8
0
 62
     7
 10
74.840356999999983
 20
134.0854469999999
 30
0.0
 40
15.452099999999991
 50
318.64086900000001
 51
323.54112900000001
  0
ARC
  5
152
  8
0
 62
     7
 10
64.490971000000002
 20
141.92315500000001
 30
0.0
 40
28.433881
 50
323.23148900000001
 51
324.5623609999999
  0
ARC
  5
153
  8
0
 62
     7
 10
70.846019999999996
 20
116.2484929999999
 30
0.0
 40
0.3115429999999999
 50
272.070739
 51
357.863452
  0
LINE
  5
154
  8
0
 62
     7
 10
64.157200000000003
 20
116.23699999999999
 30
0.0
 11
64.157200000000003
 21
118.6369999999999
 31
0.0
  0
ARC
  5
155
  8
0
 62
     7
 10
64.468618000000006
 20
116.248571
 30
0.0
 40
0.3116239999999999
 50
182.15042199999999
 51
267.91542700000002
  0
LINE
  5
156
  8
0
 62
     7
 10
63.357300000000002
 20
119.437
 30
0.0
 11
71.4071
 21
119.437
 31
0.0
  0
ARC
  5
157
  8
0
 62
     7
 10
63.326681000000008
 20
118.606171
 30
0.0
 40
0.831095
 50
2.108404999999999
 51
87.891584999999992
  0
LINE
  5
158
  8
0
  6
AIGENLINE002
 62
     7
 10
88.393299999999996
 20
124.97199999999999
 30
0.0
 11
85.960700000000003
 21
127.952
 31
0.0
  0
LINE
  5
159
  8
0
  6
AIGENLINE002
 62
     7
 10
87.197500000000005
 20
201.66200000000001
 30
0.0
 11
87.197500000000005
 21
206.66
 31
0.0
  0
LINE
  5
15A
  8
0
  6
AIGENLINE002
 62
     7
 10
94.657200000000003
 20
126.244
 30
0.0
 11
94.657200000000003
 21
132.33699999999999
 31
0.0
  0
LINE
  5
15B
  8
0
  6
AIGENLINE003
 62
     7
 10
30.8691
 20
125.437
 30
0.0
 11
104.17399999999989
 21
125.437
 31
0.0
  0
LINE
  5
15C
  8
0
 62
     7
 10
45.657299999999999
 20
125.437
 30
0.0
 11
99.157499999999999
 21
125.437
 31
0.0
  0
LINE
  5
15D
  8
0
 62
     7
 10
98.657499999999999
 20
125.437
 30
0.0
 11
98.657499999999999
 21
127.437
 31
0.0
  0
LINE
  5
15E
  8
0
 62
     7
 10
99.657399999999996
 20
125.937
 30
0.0
 11
99.657399999999996
 21
127.437
 31
0.0
  0
ARC
  5
15F
  8
0
 62
     7
 10
99.138198000000003
 20
125.955932
 30
0.0
 40
0.519573
 50
272.13313399999993
 51
357.90634899999998
  0
LINE
  5
160
  8
0
 62
     7
 10
45.156999999999989
 20
125.937
 30
0.0
 11
45.156999999999989
 21
127.437
 31
0.0
  0
ARC
  5
161
  8
0
 62
     7
 10
45.657277999999998
 20
125.93695099999999
 30
0.0
 40
0.5002310000000002
 50
179.99996999999991
 51
270.00002000000001
  0
LINE
  5
162
  8
0
  6
AIGENLINE001
 62
     7
 10
63.606299999999997
 20
120.937
 30
0.0
 11
71.707499999999996
 21
120.937
 31
0.0
  0
LINE
  5
163
  8
0
  6
AIGENLINE002
 62
     7
 10
67.6571
 20
113.90299999999991
 30
0.0
 11
67.6571
 21
123.113
 31
0.0
  0
LINE
  5
164
  8
0
 62
     7
 10
42.657299999999999
 20
127.437
 30
0.0
 11
101.157
 21
127.437
 31
0.0
  0
LINE
  5
165
  8
0
 62
     7
 10
101.657
 20
127.937
 30
0.0
 11
101.657
 21
129.93700000000001
 31
0.0
  0
ARC
  5
166
  8
0
 62
     7
 10
101.13808899999999
 20
127.95616699999989
 30
0.0
 40
0.519573
 50
272.13313399999993
 51
357.90634899999998
  0
LINE
  5
167
  8
0
 62
     7
 10
42.657299999999999
 20
130.43700000000001
 30
0.0
 11
101.157
 21
130.43700000000001
 31
0.0
  0
ARC
  5
168
  8
0
 62
     7
 10
101.13777399999989
 20
129.91743600000001
 30
0.0
 40
0.519898
 50
2.1269830000000001
 51
87.833532999999989
  0
LINE
  5
169
  8
0
 62
     7
 10
42.156999999999996
 20
127.937
 30
0.0
 11
42.156999999999996
 21
129.93700000000001
 31
0.0
  0
ARC
  5
16A
  8
0
 62
     7
 10
42.657269999999997
 20
127.937186
 30
0.0
 40
0.5002310000000002
 50
179.99996999999991
 51
270.00002000000001
  0
ARC
  5
16B
  8
0
 62
     7
 10
42.657269999999997
 20
129.93673199999989
 30
0.0
 40
0.5002310000000002
 50
90.0
 51
179.99996999999991
  0
LINE
  5
16C
  8
0
 62
     7
 10
44.367800000000003
 20
179.14099999999991
 30
0.0
 11
42.156000000000013
 21
178.54799999999989
 31
0.0
  0
LINE
  5
16D
  8
0
 62
     7
 10
42.156000000000013
 20
178.54799999999989
 30
0.0
 11
44.367800000000003
 21
177.95500000000001
 31
0.0
  0
LINE
  5
16E
  8
0
 62
     7
 10
44.367800000000003
 20
177.95500000000001
 30
0.0
 11
44.367800000000003
 21
179.14099999999991
 31
0.0
  0
LINE
  5
16F
  8
0
 62
     7
 10
140.44799999999989
 20
181.67299999999989
 30
0.0
 11
142.66
 21
182.2649999999999
 31
0.0
  0
LINE
  5
170
  8
0
 62
     7
 10
142.66
 20
182.2649999999999
 30
0.0
 11
140.44799999999989
 21
182.858
 31
0.0
  0
LINE
  5
171
  8
0
 62
     7
 10
140.44799999999989
 20
182.858
 30
0.0
 11
140.44799999999989
 21
181.67299999999989
 31
0.0
  0
LINE
  5
172
  8
0
 62
     7
 10
144.87100000000001
 20
182.858
 30
0.0
 11
142.66
 21
182.2649999999999
 31
0.0
  0
LINE
  5
173
  8
0
 62
     7
 10
142.66
 20
182.2649999999999
 30
0.0
 11
144.87100000000001
 21
181.67299999999989
 31
0.0
  0
LINE
  5
174
  8
0
 62
     7
 10
144.87100000000001
 20
181.67299999999989
 30
0.0
 11
144.87100000000001
 21
182.858
 31
0.0
  0
LINE
  5
175
  8
0
 62
     7
 10
92.445800000000006
 20
177.96299999999999
 30
0.0
 11
94.657200000000003
 21
178.55500000000001
 31
0.0
  0
LINE
  5
176
  8
0
 62
     7
 10
94.657200000000003
 20
178.55500000000001
 30
0.0
 11
92.445800000000006
 21
179.14799999999991
 31
0.0
  0
LINE
  5
177
  8
0
 62
     7
 10
92.445800000000006
 20
179.14799999999991
 30
0.0
 11
92.445800000000006
 21
177.96299999999999
 31
0.0
  0
LINE
  5
178
  8
0
 62
     7
 10
65.445700000000002
 20
177.96299999999999
 30
0.0
 11
67.6571
 21
178.55500000000001
 31
0.0
  0
LINE
  5
179
  8
0
 62
     7
 10
67.6571
 20
178.55500000000001
 30
0.0
 11
65.445700000000002
 21
179.14799999999991
 31
0.0
  0
LINE
  5
17A
  8
0
 62
     7
 10
65.445700000000002
 20
179.14799999999991
 30
0.0
 11
65.445700000000002
 21
177.96299999999999
 31
0.0
  0
LINE
  5
17B
  8
0
 62
     7
 10
99.446600000000004
 20
177.97
 30
0.0
 11
101.6579999999999
 21
178.56200000000001
 31
0.0
  0
LINE
  5
17C
  8
0
 62
     7
 10
101.6579999999999
 20
178.56200000000001
 30
0.0
 11
99.446600000000004
 21
179.15499999999989
 31
0.0
  0
LINE
  5
17D
  8
0
 62
     7
 10
99.446600000000004
 20
179.15499999999989
 30
0.0
 11
99.446600000000004
 21
177.97
 31
0.0
  0
LINE
  5
17E
  8
0
 62
     7
 10
42.156999999999996
 20
178.55500000000001
 30
0.0
 11
101.657
 21
178.55500000000001
 31
0.0
  0
LINE
  5
17F
  8
0
 62
     7
 10
96.868600000000015
 20
179.14799999999991
 30
0.0
 11
94.657200000000003
 21
178.55500000000001
 31
0.0
  0
LINE
  5
180
  8
0
 62
     7
 10
94.657200000000003
 20
178.55500000000001
 30
0.0
 11
96.868600000000015
 21
177.96299999999999
 31
0.0
  0
LINE
  5
181
  8
0
 62
     7
 10
96.868600000000015
 20
177.96299999999999
 30
0.0
 11
96.868600000000015
 21
179.14799999999991
 31
0.0
  0
LINE
  5
182
  8
0
 62
     7
 10
69.868499999999997
 20
179.14799999999991
 30
0.0
 11
67.6571
 21
178.55500000000001
 31
0.0
  0
LINE
  5
183
  8
0
 62
     7
 10
67.6571
 20
178.55500000000001
 30
0.0
 11
69.868499999999997
 21
177.96299999999999
 31
0.0
  0
LINE
  5
184
  8
0
 62
     7
 10
69.868499999999997
 20
177.96299999999999
 30
0.0
 11
69.868499999999997
 21
179.14799999999991
 31
0.0
  0
LINE
  5
185
  8
0
 62
     7
 10
44.367800000000003
 20
171.73199999999991
 30
0.0
 11
42.156000000000013
 21
171.1399999999999
 31
0.0
  0
LINE
  5
186
  8
0
 62
     7
 10
42.156000000000013
 20
171.1399999999999
 30
0.0
 11
44.367800000000003
 21
170.547
 31
0.0
  0
LINE
  5
187
  8
0
 62
     7
 10
44.367800000000003
 20
170.547
 30
0.0
 11
44.367800000000003
 21
171.73199999999991
 31
0.0
  0
LINE
  5
188
  8
0
 62
     7
 10
99.446600000000004
 20
170.56200000000001
 30
0.0
 11
101.6579999999999
 21
171.154
 31
0.0
  0
LINE
  5
189
  8
0
 62
     7
 10
101.6579999999999
 20
171.154
 30
0.0
 11
99.446600000000004
 21
171.74700000000001
 31
0.0
  0
LINE
  5
18A
  8
0
 62
     7
 10
99.446600000000004
 20
171.74700000000001
 30
0.0
 11
99.446600000000004
 21
170.56200000000001
 31
0.0
  0
LINE
  5
18B
  8
0
 62
     7
 10
42.156999999999996
 20
171.14699999999999
 30
0.0
 11
101.657
 21
171.14699999999999
 31
0.0
  0
LINE
  5
18C
  8
0
 62
     7
 10
101.657
 20
189.25200000000001
 30
0.0
 11
101.657
 21
170.447
 31
0.0
  0
LINE
  5
18D
  8
0
 62
     7
 10
94.657200000000003
 20
200.06499999999991
 30
0.0
 11
94.657200000000003
 21
177.8549999999999
 31
0.0
  0
LINE
  5
18E
  8
0
 62
     7
 10
67.6571
 20
189.0079999999999
 30
0.0
 11
67.6571
 21
177.8549999999999
 31
0.0
  0
LINE
  5
18F
  8
0
 62
     7
 10
42.156999999999996
 20
189.41399999999999
 30
0.0
 11
42.156999999999996
 21
170.447
 31
0.0
  0
LINE
  5
190
  8
0
 62
     7
 10
109.471
 20
212.34
 30
0.0
 11
102.97499999999989
 21
212.34
 31
0.0
  0
LINE
  5
191
  8
0
 62
     7
 10
97.039500000000004
 20
207.24299999999991
 30
0.0
 11
95.894999999999996
 21
205.25999999999991
 31
0.0
  0
LINE
  5
192
  8
0
 62
     7
 10
95.894999999999996
 20
205.25999999999991
 30
0.0
 11
97.877700000000004
 21
206.40499999999989
 31
0.0
  0
LINE
  5
193
  8
0
 62
     7
 10
97.877700000000004
 20
206.40499999999989
 30
0.0
 11
97.039500000000004
 21
207.24299999999991
 31
0.0
  0
LINE
  5
194
  8
0
 62
     7
 10
92.274900000000017
 20
200.80199999999999
 30
0.0
 11
93.420000000000002
 21
202.78499999999991
 31
0.0
  0
LINE
  5
195
  8
0
 62
     7
 10
93.420000000000002
 20
202.78499999999991
 30
0.0
 11
91.436999999999998
 21
201.6399999999999
 31
0.0
  0
LINE
  5
196
  8
0
 62
     7
 10
91.436999999999998
 20
201.6399999999999
 30
0.0
 11
92.274900000000017
 21
200.80199999999999
 31
0.0
  0
LINE
  5
197
  8
0
 62
     7
 10
90.736999999999995
 20
200.102
 30
0.0
 11
102.97499999999989
 21
212.34
 31
0.0
  0
LINE
  5
198
  8
0
 62
     7
 10
81.081699999999984
 20
197.28999999999991
 30
0.0
 11
74.389600000000002
 21
197.28999999999991
 31
0.0
  0
LINE
  5
199
  8
0
 62
     7
 10
71.265900000000002
 20
201.25099999999989
 30
0.0
 11
69.283500000000004
 21
202.3959999999999
 31
0.0
  0
LINE
  5
19A
  8
0
 62
     7
 10
69.283500000000004
 20
202.3959999999999
 30
0.0
 11
70.427999999999983
 21
200.4129999999999
 31
0.0
  0
LINE
  5
19B
  8
0
 62
     7
 10
70.427999999999983
 20
200.4129999999999
 30
0.0
 11
71.265900000000002
 21
201.25099999999989
 31
0.0
  0
LINE
  5
19C
  8
0
 62
     7
 10
64.048299999999998
 20
206.79400000000001
 30
0.0
 11
66.030699999999996
 21
205.649
 31
0.0
  0
LINE
  5
19D
  8
0
 62
     7
 10
66.030699999999996
 20
205.649
 30
0.0
 11
64.886200000000002
 21
207.63199999999989
 31
0.0
  0
LINE
  5
19E
  8
0
 62
     7
 10
64.886200000000002
 20
207.63199999999989
 30
0.0
 11
64.048299999999998
 21
206.79400000000001
 31
0.0
  0
LINE
  5
19F
  8
0
 62
     7
 10
62.751300000000001
 20
208.928
 30
0.0
 11
74.389600000000002
 21
197.28999999999991
 31
0.0
  0
LINE
  5
1A0
  8
0
 62
     7
 10
34.180599999999998
 20
219.06200000000001
 30
0.0
 11
33.588000000000001
 21
221.274
 31
0.0
  0
LINE
  5
1A1
  8
0
 62
     7
 10
33.588000000000001
 20
221.274
 30
0.0
 11
32.995399999999989
 21
219.06200000000001
 31
0.0
  0
LINE
  5
1A2
  8
0
 62
     7
 10
32.995399999999989
 20
219.06200000000001
 30
0.0
 11
34.180599999999998
 21
219.06200000000001
 31
0.0
  0
LINE
  5
1A3
  8
0
 62
     7
 10
33.009900000000002
 20
188.983
 30
0.0
 11
33.602499999999999
 21
186.77199999999999
 31
0.0
  0
LINE
  5
1A4
  8
0
 62
     7
 10
33.602499999999999
 20
186.77199999999999
 30
0.0
 11
34.195
 21
188.983
 31
0.0
  0
LINE
  5
1A5
  8
0
 62
     7
 10
34.195
 20
188.983
 30
0.0
 11
33.009900000000002
 21
188.983
 31
0.0
  0
LINE
  5
1A6
  8
0
 62
     7
 10
33.595199999999991
 20
221.273
 30
0.0
 11
33.595199999999991
 21
186.77299999999991
 31
0.0
  0
LINE
  5
1A7
  8
0
 62
     7
 10
44.431800000000003
 20
186.77299999999991
 30
0.0
 11
32.895200000000003
 21
186.77299999999991
 31
0.0
  0
LINE
  5
1A8
  8
0
 62
     7
 10
44.431800000000003
 20
221.273
 30
0.0
 11
32.895200000000003
 21
221.273
 31
0.0
  0
LINE
  5
1A9
  8
0
 62
     7
 10
59.4071
 20
189.77299999999991
 30
0.0
 11
76.407399999999996
 21
189.77299999999991
 31
0.0
  0
LINE
  5
1AA
  8
0
 62
     7
 10
59.4071
 20
218.27299999999991
 30
0.0
 11
76.407399999999996
 21
218.27299999999991
 31
0.0
  0
LINE
  5
1AB
  8
0
  6
AIGENLINE002
 62
     7
 10
94.657200000000003
 20
200.7649999999999
 30
0.0
 11
94.657200000000003
 21
207.59599999999989
 31
0.0
  0
ARC
  5
1AC
  8
0
 62
     7
 10
94.590339999999998
 20
203.95576
 30
0.0
 40
1.8181889999999989
 50
2.1067930000000001
 51
87.893197000000001
  0
ARC
  5
1AD
  8
0
 62
     7
 10
94.724805000000003
 20
203.95533399999999
 30
0.0
 40
1.8186429999999989
 50
92.130949999999984
 51
177.88030000000001
  0
ARC
  5
1AE
  8
0
 62
     7
 10
94.657353000000001
 20
204.02242799999991
 30
0.0
 40
1.7499469999999999
 50
179.99432999999991
 51
269.99437999999992
  0
ARC
  5
1AF
  8
0
 62
     7
 10
94.657179999999997
 20
204.02260100000001
 30
0.0
 40
1.7501199999999999
 50
270.00002000000001
 51
359.99998999999991
  0
ARC
  5
1B0
  8
0
 62
     7
 10
67.657106999999996
 20
204.02260000000001
 30
0.0
 40
2.2999610000000001
 50
0.00001
 51
89.999980000000008
  0
ARC
  5
1B1
  8
0
 62
     7
 10
67.657107999999994
 20
204.02260000000001
 30
0.0
 40
2.2999610000000001
 50
90.0
 51
179.99996999999991
  0
ARC
  5
1B2
  8
0
 62
     7
 10
67.657106999999996
 20
204.02260000000001
 30
0.0
 40
2.29996
 50
179.99996999999991
 51
270.00002000000001
  0
ARC
  5
1B3
  8
0
 62
     7
 10
67.657106999999996
 20
204.02260100000001
 30
0.0
 40
2.2999610000000001
 50
270.00002000000001
 51
359.99998999999991
  0
ARC
  5
1B4
  8
0
 62
     7
 10
67.657106999999996
 20
204.02260000000001
 30
0.0
 40
3.7500110000000002
 50
0.00001
 51
89.999980000000008
  0
ARC
  5
1B5
  8
0
 62
     7
 10
67.657107999999994
 20
204.02260000000001
 30
0.0
 40
3.7500110000000002
 50
90.0
 51
179.99996999999991
  0
ARC
  5
1B6
  8
0
 62
     7
 10
67.657106999999996
 20
204.02260000000001
 30
0.0
 40
3.750008999999999
 50
179.99996999999991
 51
270.00002000000001
  0
ARC
  5
1B7
  8
0
 62
     7
 10
67.657106999999996
 20
204.02260100000001
 30
0.0
 40
3.7500110000000002
 50
270.00002000000001
 51
359.99998999999991
  0
LINE
  5
1B8
  8
0
  6
AIGENLINE002
 62
     7
 10
39.953499999999998
 20
204.023
 30
0.0
 11
103.417
 21
204.023
 31
0.0
  0
LINE
  5
1B9
  8
0
  6
AIGENLINE002
 62
     7
 10
67.6571
 20
189.708
 30
0.0
 11
67.6571
 21
223.21199999999999
 31
0.0
  0
LINE
  5
1BA
  8
0
 62
     7
 10
101.657
 20
192.773
 30
0.0
 11
101.657
 21
215.273
 31
0.0
  0
LINE
  5
1BB
  8
0
 62
     7
 10
48.1571
 20
221.273
 30
0.0
 11
95.657300000000006
 21
221.273
 31
0.0
  0
ARC
  5
1BC
  8
0
 62
     7
 10
95.657297
 20
215.27262999999991
 30
0.0
 40
6.0000169999999988
 50
0.00001
 51
89.999980000000008
  0
LINE
  5
1BD
  8
0
 62
     7
 10
48.1571
 20
186.77299999999991
 30
0.0
 11
95.657300000000006
 21
186.77299999999991
 31
0.0
  0
ARC
  5
1BE
  8
0
 62
     7
 10
95.657297
 20
192.77257099999991
 30
0.0
 40
6.0000169999999988
 50
270.00002000000001
 51
359.99998999999991
  0
LINE
  5
1BF
  8
0
 62
     7
 10
42.156999999999996
 20
192.773
 30
0.0
 11
42.156999999999996
 21
215.273
 31
0.0
  0
ARC
  5
1C0
  8
0
 62
     7
 10
48.157053999999988
 20
192.772569
 30
0.0
 40
6.0000150000000003
 50
179.99996999999991
 51
270.00002000000001
  0
ARC
  5
1C1
  8
0
 62
     7
 10
48.157055999999997
 20
215.27262999999991
 30
0.0
 40
6.0000169999999988
 50
90.0
 51
179.99996999999991
  0
LINE
  5
1C2
  8
_________2
 62
     7
 10
210.24000000000001
 20
148.93100000000001
 30
0.0
 11
188.49000000000001
 21
148.93100000000001
 31
0.0
  0
LINE
  5
1C3
  8
_________2
 62
     7
 10
105.2389999999999
 20
17.428499999999989
 30
0.0
 11
105.2389999999999
 21
0.4482100000000001
 31
0.0
  0
LINE
  5
1C4
  8
_________2
 62
     7
 10
105.2389999999999
 20
297.44999999999987
 30
0.0
 11
105.2389999999999
 21
280.42999999999989
 31
0.0
  0
LINE
  5
1C5
  8
_________2
 62
     7
 10
21.988499999999991
 20
148.93100000000001
 30
0.0
 11
0.238058
 21
148.93100000000001
 31
0.0
  0
LINE
  5
1C6
  8
_________2
 62
     7
 10
81.679900000000004
 20
51.324300000000001
 30
0.0
 11
79.493700000000004
 21
51.324300000000001
 31
0.0
  0
LINE
  5
1C7
  8
_________2
 62
     7
 10
82.172600000000017
 20
51.324300000000001
 30
0.0
 11
81.920400000000001
 21
51.324300000000001
 31
0.0
  0
LINE
  5
1C8
  8
_________2
 62
     7
 10
82.665199999999984
 20
51.324300000000001
 30
0.0
 11
85.590100000000007
 21
51.324300000000001
 31
0.0
  0
LINE
  5
1C9
  8
_________2
 62
     7
 10
82.172600000000017
 20
51.324300000000001
 30
0.0
 11
82.424800000000005
 21
51.324300000000001
 31
0.0
  0
LINE
  5
1CA
  8
_________2
 62
     7
 10
75.776399999999995
 20
51.324300000000001
 30
0.0
 11
73.589399999999998
 21
51.324300000000001
 31
0.0
  0
LINE
  5
1CB
  8
_________2
 62
     7
 10
76.2684
 20
51.324300000000001
 30
0.0
 11
76.016900000000007
 21
51.324300000000001
 31
0.0
  0
LINE
  5
1CC
  8
_________2
 62
     7
 10
76.2684
 20
51.817
 30
0.0
 11
76.2684
 21
54.003900000000002
 31
0.0
  0
LINE
  5
1CD
  8
_________2
 62
     7
 10
76.2684
 20
51.324300000000001
 30
0.0
 11
76.2684
 21
51.576500000000003
 31
0.0
  0
LINE
  5
1CE
  8
_________2
 62
     7
 10
76.76100000000001
 20
51.324300000000001
 30
0.0
 11
78.947999999999993
 21
51.324300000000001
 31
0.0
  0
LINE
  5
1CF
  8
_________2
 62
     7
 10
76.2684
 20
51.324300000000001
 30
0.0
 11
76.520499999999998
 21
51.324300000000001
 31
0.0
  0
LINE
  5
1D0
  8
_________2
 62
     7
 10
76.2684
 20
50.832399999999993
 30
0.0
 11
76.2684
 21
48.645400000000002
 31
0.0
  0
LINE
  5
1D1
  8
_________2
 62
     7
 10
76.2684
 20
51.324300000000001
 30
0.0
 11
76.2684
 21
51.072800000000001
 31
0.0
  0
LINE
  5
1D2
  8
_________2
 62
     7
 10
79.979399999999984
 20
50.104799999999997
 30
0.0
 11
85.157399999999996
 21
49.240000000000002
 31
0.0
  0
LINE
  5
1D3
  8
_________2
 62
     7
 10
79.979399999999984
 20
52.543900000000001
 30
0.0
 11
85.157399999999996
 21
53.409300000000002
 31
0.0
  0
LINE
  5
1D4
  8
_________2
 62
     7
 10
85.157399999999996
 20
49.240000000000002
 30
0.0
 11
85.157399999999996
 21
53.409300000000002
 31
0.0
  0
LINE
  5
1D5
  8
_________2
 62
     7
 10
79.979399999999984
 20
50.104799999999997
 30
0.0
 11
79.979399999999984
 21
52.543900000000001
 31
0.0
  0
ARC
  5
1D6
  8
_________2
 62
     7
 10
76.222110000000001
 20
51.277366999999991
 30
0.0
 40
1.2673709999999989
 50
2.1232950000000002
 51
87.909056000000007
  0
ARC
  5
1D7
  8
_________2
 62
     7
 10
76.315273000000005
 20
51.277400999999998
 30
0.0
 40
1.267363
 50
92.121785999999986
 51
177.878185
  0
ARC
  5
1D8
  8
_________2
 62
     7
 10
76.315273000000005
 20
51.371245999999992
 30
0.0
 40
1.267363
 50
182.12181499999991
 51
267.87821400000001
  0
ARC
  5
1D9
  8
_________2
 62
     7
 10
76.221461000000005
 20
51.371928999999987
 30
0.0
 40
1.2680439999999991
 50
272.11916400000001
 51
357.84848499999993
  0
ARC
  5
1DA
  8
_________2
 62
     7
 10
76.268349999999984
 20
51.324323
 30
0.0
 40
2.0849849999999992
 50
0.00001
 51
89.999980000000008
  0
ARC
  5
1DB
  8
_________2
 62
     7
 10
76.348388
 20
51.245001999999992
 30
0.0
 40
2.1657860000000002
 50
92.117855000000034
 51
177.90105299999991
  0
ARC
  5
1DC
  8
_________2
 62
     7
 10
76.348354
 20
51.404327000000002
 30
0.0
 40
2.1657779999999991
 50
182.11700400000001
 51
267.88302499999992
  0
ARC
  5
1DD
  8
_________2
 62
     7
 10
76.188378999999983
 20
51.405009999999997
 30
0.0
 40
2.1664590000000001
 50
272.11546800000002
 51
357.86560400000002
  0
TEXT
  5
1DE
  8
_________2
 62
     7
 10
109.5439999999999
 20
23.199100000000001
 30
0.0
 40
3.0923400000000001
  1
図番
 41
0.5
  0
LINE
  5
1DF
  8
_________2
 62
     7
 10
108.4889999999999
 20
27.4283
 30
0.0
 11
188.49000000000001
 21
27.4283
 31
0.0
  0
TEXT
  5
1E0
  8
_________2
 62
     7
 10
109.5439999999999
 20
33.198900000000002
 30
0.0
 40
3.0923400000000001
  1
品番
 41
0.5
  0
TEXT
  5
1E1
  8
_________2
 62
     7
 10
109.5439999999999
 20
53.337699999999998
 30
0.0
 40
3.0923400000000001
  1
名称
 41
0.5
  0
TEXT
  5
1E2
  8
_________2
 62
     7
 10
96.784058333333334
 20
48.341500000000011
 30
0.0
 40
3.6545800000000002
  1
mm
 41
0.5
 72
     1
 11
98.306799999999996
 21
48.341500000000011
 31
0.0
  0
TEXT
  5
1E3
  8
_________2
 62
     7
 10
90.582099999999997
 20
53.337699999999998
 30
0.0
 40
3.0923400000000001
  1
単位
 41
0.5
  0
TEXT
  5
1E4
  8
_________2
 62
     7
 10
90.582099999999997
 20
40.930399999999999
 30
0.0
 40
3.0923400000000001
  1
尺度
 41
0.5
  0
TEXT
  5
1E5
  8
_________2
 62
     7
 10
95.030836166666674
 20
34.73749999999999
 30
0.0
 40
3.6545800000000002
  1
1 ： 10
 41
0.5
 72
     1
 11
98.898600000000002
 21
34.73749999999999
 31
0.0
  0
TEXT
  5
1E6
  8
_________2
 62
     7
 10
142.58544999999989
 20
30.627400000000002
 30
0.0
 40
3.9357000000000002
  1
VR5689
 41
0.5
 72
     1
 11
148.489
 21
30.627400000000002
 31
0.0
  0
TEXT
  5
1E7
  8
_________2
 62
     7
 10
142.58544999999989
 20
20.626999999999988
 30
0.0
 40
3.9357000000000002
  1
VR5689
 41
0.5
 72
     1
 11
148.489
 21
20.626999999999988
 31
0.0
  0
TEXT
  5
1E8
  8
_________2
 62
     7
 10
29.525700000000001
 20
22.226900000000001
 30
0.0
 40
3.9357000000000002
  1
実容量：2.0L、重量：10.3kg、オーバーフロー付
 41
0.5
  0
TEXT
  5
1E9
  8
_________2
 62
     7
 10
114.11799999999999
 20
45.7453
 30
0.0
 40
3.9357000000000002
  1
ネストトレンド　手洗器
 41
0.5
  0
TEXT
  5
1EA
  8
_________2
 62
     7
 10
44.364200333333329
 20
35.122599999999991
 30
0.0
 40
3.6545800000000002
  1
早川
 41
0.5
 72
     1
 11
46.252400000000002
 21
35.122599999999991
 31
0.0
  0
TEXT
  5
1EB
  8
_________2
 62
     7
 10
25.72929066666666
 20
35.122599999999991
 30
0.0
 40
3.6545800000000002
  1
石原
 41
0.5
 72
     1
 11
27.6784
 21
35.122599999999991
 31
0.0
  0
TEXT
  5
1EC
  8
_________2
 62
     7
 10
72.724699999999999
 20
34.73749999999999
 30
0.0
 40
3.6545800000000002
  1
13.12.10
 41
0.5
  0
TEXT
  5
1ED
  8
_________2
 62
     7
 10
71.531999999999996
 20
40.930399999999999
 30
0.0
 40
3.0923400000000001
  1
日付
 41
0.5
  0
TEXT
  5
1EE
  8
_________2
 62
     7
 10
34.578299999999992
 20
40.930399999999999
 30
0.0
 40
3.0923400000000001
  1
検図
 41
0.5
  0
TEXT
  5
1EF
  8
_________2
 62
     7
 10
22.960000000000001
 20
26.730999999999991
 30
0.0
 40
3.0923400000000001
  1
備考
 41
0.5
  0
TEXT
  5
1F0
  8
_________2
 62
     7
 10
22.960000000000001
 20
40.930399999999999
 30
0.0
 40
3.0923400000000001
  1
製図
 41
0.5
  0
TEXT
  5
1F1
  8
_________2
 62
     7
 10
28.727365333333339
 20
49.456400000000002
 30
0.0
 40
4.4979399999999989
  1
セラトレーディング株式会社
 41
0.5
 72
     1
 11
46.119399999999992
 21
49.456400000000002
 31
0.0
  0
LINE
  5
1F2
  8
_________2
 62
     7
 10
188.49000000000001
 20
17.428499999999989
 30
0.0
 11
21.988499999999991
 21
17.428499999999989
 31
0.0
  0
LINE
  5
1F3
  8
_________2
 62
     7
 10
21.988499999999991
 20
17.428499999999989
 30
0.0
 11
21.988499999999991
 21
280.42999999999989
 31
0.0
  0
LINE
  5
1F4
  8
_________2
 62
     7
 10
21.988499999999991
 20
280.42999999999989
 30
0.0
 11
188.49000000000001
 21
280.42999999999989
 31
0.0
  0
LINE
  5
1F5
  8
_________2
 62
     7
 10
188.49000000000001
 20
280.42999999999989
 30
0.0
 11
188.49000000000001
 21
17.428499999999989
 31
0.0
  0
LINE
  5
1F6
  8
_________2
 62
     7
 10
70.488799999999998
 20
30.9285
 30
0.0
 11
70.488799999999998
 21
57.428400000000011
 31
0.0
  0
LINE
  5
1F7
  8
_________2
 62
     7
 10
89.488600000000005
 20
30.9285
 30
0.0
 11
89.488600000000005
 21
57.428400000000011
 31
0.0
  0
LINE
  5
1F8
  8
_________2
 62
     7
 10
108.4889999999999
 20
17.428499999999989
 30
0.0
 11
108.4889999999999
 21
57.428400000000011
 31
0.0
  0
LINE
  5
1F9
  8
_________2
 62
     7
 10
33.488300000000002
 20
30.9285
 30
0.0
 11
33.488300000000002
 21
44.928800000000003
 31
0.0
  0
LINE
  5
1FA
  8
_________2
 62
     7
 10
21.988499999999991
 20
30.9285
 30
0.0
 11
108.4889999999999
 21
30.9285
 31
0.0
  0
LINE
  5
1FB
  8
_________2
 62
     7
 10
21.988499999999991
 20
44.928800000000003
 30
0.0
 11
108.4889999999999
 21
44.928800000000003
 31
0.0
  0
LINE
  5
1FC
  8
_________2
 62
     7
 10
108.4889999999999
 20
37.428100000000001
 30
0.0
 11
188.49000000000001
 21
37.428100000000001
 31
0.0
  0
LINE
  5
1FD
  8
_________2
 62
     7
 10
21.988499999999991
 20
57.428400000000011
 30
0.0
 11
188.49000000000001
 21
57.428400000000011
 31
0.0
  0
ENDSEC
  0
EOF
