  0
SECTION
  2
HEADER
  9
$ACADVER
  1
AC1009
  9
$INSBASE
 10
0.0
 20
0.0
 30
0.0
  9
$EXTMIN
 10
-0.000689023
 20
-0.000344512
 30
0.0
  9
$EXTMAX
 10
210.001
 20
297.00200000000001
 30
0.0
  9
$LIMMIN
 10
0.0
 20
0.0
  9
$LIMMAX
 10
12.0
 20
9.0
  9
$ORTHOMODE
 70
     0
  9
$REGENMODE
 70
     1
  9
$FILLMODE
 70
     1
  9
$QTEXTMODE
 70
     0
  9
$MIRRTEXT
 70
     1
  9
$DRAGMODE
 70
     2
  9
$LTSCALE
 40
1.0
  9
$OSMODE
 70
    37
  9
$ATTMODE
 70
     1
  9
$TEXTSIZE
 40
0.0
  9
$TRACEWID
 40
0.05
  9
$TEXTSTYLE
  7
STANDARD
  9
$CLAYER
  8
0
  9
$CELTYPE
  6
CONTINUOUS
  9
$CECOLOR
 62
   256
  9
$DIMSCALE
 40
1.0
  9
$DIMASZ
 40
0.18
  9
$DIMEXO
 40
0.0625
  9
$DIMDLI
 40
0.38
  9
$DIMRND
 40
0.0
  9
$DIMDLE
 40
0.0
  9
$DIMEXE
 40
0.18
  9
$DIMTP
 40
0.0
  9
$DIMTM
 40
0.0
  9
$DIMTXT
 40
0.18
  9
$DIMCEN
 40
0.09
  9
$DIMTSZ
 40
0.0
  9
$DIMTOL
 70
     0
  9
$DIMLIM
 70
     0
  9
$DIMTIH
 70
     1
  9
$DIMTOH
 70
     1
  9
$DIMSE1
 70
     0
  9
$DIMSE2
 70
     0
  9
$DIMTAD
 70
     0
  9
$DIMZIN
 70
     0
  9
$DIMBLK
  1

  9
$DIMASO
 70
     1
  9
$DIMSHO
 70
     1
  9
$DIMPOST
  1

  9
$DIMAPOST
  1

  9
$DIMALT
 70
     0
  9
$DIMALTD
 70
     2
  9
$DIMALTF
 40
25.399999999999999
  9
$DIMLFAC
 40
1.0
  9
$DIMTOFL
 70
     0
  9
$DIMTVP
 40
0.0
  9
$DIMTIX
 70
     0
  9
$DIMSOXD
 70
     0
  9
$DIMSAH
 70
     0
  9
$DIMBLK1
  1

  9
$DIMBLK2
  1

  9
$DIMSTYLE
  2
STANDARD
  9
$DIMCLRD
 70
     0
  9
$DIMCLRE
 70
     0
  9
$DIMCLRT
 70
     0
  9
$DIMTFAC
 40
1.0
  9
$DIMGAP
 40
0.09
  9
$LUNITS
 70
     2
  9
$LUPREC
 70
     4
  9
$SKETCHINC
 40
0.1
  9
$FILLETRAD
 40
0.0
  9
$AUNITS
 70
     0
  9
$AUPREC
 70
     0
  9
$MENU
  1
.
  9
$ELEVATION
 40
0.0
  9
$PELEVATION
 40
0.0
  9
$THICKNESS
 40
0.0
  9
$LIMCHECK
 70
     0
  9
$BLIPMODE
 70
     0
  9
$CHAMFERA
 40
0.0
  9
$CHAMFERB
 40
0.0
  9
$SKPOLY
 70
     0
  9
$TDCREATE
 40
2444972.375
  9
$TDUPDATE
 40
2458734.2511557988
  9
$TDINDWG
 40
0.0000270139
  9
$TDUSRTIMER
 40
0.0000270139
  9
$USRTIMER
 70
     1
  9
$ANGBASE
 50
0.0
  9
$ANGDIR
 70
     0
  9
$PDMODE
 70
     0
  9
$PDSIZE
 40
0.0
  9
$PLINEWID
 40
0.0
  9
$COORDS
 70
     1
  9
$SPLFRAME
 70
     0
  9
$SPLINETYPE
 70
     6
  9
$SPLINESEGS
 70
     8
  9
$ATTDIA
 70
     1
  9
$ATTREQ
 70
     1
  9
$HANDLING
 70
     1
  9
$HANDSEED
  5
31D
  9
$SURFTAB1
 70
     6
  9
$SURFTAB2
 70
     6
  9
$SURFTYPE
 70
     6
  9
$SURFU
 70
     6
  9
$SURFV
 70
     6
  9
$UCSNAME
  2

  9
$UCSORG
 10
0.0
 20
0.0
 30
0.0
  9
$UCSXDIR
 10
1.0
 20
0.0
 30
0.0
  9
$UCSYDIR
 10
0.0
 20
1.0
 30
0.0
  9
$PUCSNAME
  2

  9
$PUCSORG
 10
0.0
 20
0.0
 30
0.0
  9
$PUCSXDIR
 10
1.0
 20
0.0
 30
0.0
  9
$PUCSYDIR
 10
0.0
 20
1.0
 30
0.0
  9
$USERI1
 70
     0
  9
$USERI2
 70
     0
  9
$USERI3
 70
     0
  9
$USERI4
 70
     0
  9
$USERI5
 70
     0
  9
$USERR1
 40
0.0
  9
$USERR2
 40
0.0
  9
$USERR3
 40
0.0
  9
$USERR4
 40
0.0
  9
$USERR5
 40
0.0
  9
$WORLDVIEW
 70
     1
  9
$SHADEDGE
 70
     3
  9
$SHADEDIF
 70
    70
  9
$TILEMODE
 70
     1
  9
$MAXACTVP
 70
    48
  9
$PLIMCHECK
 70
     0
  9
$PEXTMIN
 10
1.0000000000000000E+020
 20
1.0000000000000000E+020
 30
1.0000000000000000E+020
  9
$PEXTMAX
 10
-1.0000000000000000E+020
 20
-1.0000000000000000E+020
 30
-1.0000000000000000E+020
  9
$PLIMMIN
 10
0.0
 20
0.0
  9
$PLIMMAX
 10
12.0
 20
9.0
  9
$UNITMODE
 70
     0
  9
$VISRETAIN
 70
     1
  9
$PLINEGEN
 70
     0
  9
$PSLTSCALE
 70
     1
  0
ENDSEC
  0
SECTION
  2
TABLES
  0
TABLE
  2
VPORT
 70
     1
  0
VPORT
  2
*ACTIVE
 70
     0
 10
0.0
 20
0.0
 11
1.0
 21
1.0
 12
195.5817941234148
 22
148.50082774399999
 13
0.0
 23
0.0
 14
1.0
 24
1.0
 15
0.0
 25
0.0
 16
0.0
 26
0.0
 36
1.0
 17
0.0
 27
0.0
 37
0.0
 40
280.94923500614658
 41
2.298642533936651
 42
50.0
 43
0.0
 44
0.0
 50
0.0
 51
0.0
 71
     0
 72
   100
 73
     1
 74
     1
 75
     0
 76
     0
 77
     0
 78
     0
  0
ENDTAB
  0
TABLE
  2
LTYPE
 70
     2
  0
LTYPE
  2
CONTINUOUS
 70
     0
  3
Solid line
 72
    65
 73
     0
 40
0.0
  0
LTYPE
  2
AIGENLINE001
 70
     0
  3
generate AI->DXF Converter
 72
    65
 73
     4
 40
5.8561449999999988
 49
3.5278
 49
-0.776115
 49
0.776115
 49
-0.776115
  0
ENDTAB
  0
TABLE
  2
LAYER
 70
     2
  0
LAYER
  2
0
 70
     0
 62
     7
  6
CONTINUOUS
  0
LAYER
  2
_________2
 70
     0
 62
     7
  6
CONTINUOUS
  0
ENDTAB
  0
TABLE
  2
STYLE
 70
     1
  0
STYLE
  2
STANDARD
 70
     0
 40
0.0
 41
0.0
 50
0.0
 71
     0
 42
0.0
  3
TXT
  4
EXTFONT.SHX
  0
ENDTAB
  0
TABLE
  2
VIEW
 70
     0
  0
ENDTAB
  0
TABLE
  2
UCS
 70
     0
  0
ENDTAB
  0
TABLE
  2
APPID
 70
     3
  0
APPID
  2
ACAD
 70
     0
  0
APPID
  2
ACAD_NAV_VCDISPLAY
 70
     0
  0
APPID
  2
ACAD_MLEADERVER
 70
     0
  0
ENDTAB
  0
TABLE
  2
DIMSTYLE
 70
     1
  0
DIMSTYLE
  2
STANDARD
 70
     0
  3

  4

  5

  6

  7

 40
1.0
 41
0.18
 42
0.0625
 43
0.38
 44
0.18
 45
0.0
 46
0.0
 47
0.0
 48
0.0
140
0.18
141
0.09
142
0.0
143
25.399999999999999
144
1.0
145
0.0
146
1.0
147
0.09
 71
     0
 72
     0
 73
     1
 74
     1
 75
     0
 76
     0
 77
     0
 78
     0
170
     0
171
     2
172
     0
173
     0
174
     0
175
     0
176
     0
177
     0
178
     0
  0
ENDTAB
  0
ENDSEC
  0
SECTION
  2
BLOCKS
  0
BLOCK
  8
0
  2
$MODEL_SPACE
 70
     0
 10
0.0
 20
0.0
 30
0.0
  3
$MODEL_SPACE
  1

  0
ENDBLK
  5
1A
  8
0
  0
BLOCK
 67
     1
  8
0
  2
$PAPER_SPACE
 70
     0
 10
0.0
 20
0.0
 30
0.0
  3
$PAPER_SPACE
  1

  0
ENDBLK
  5
17
 67
     1
  8
0
  0
ENDSEC
  0
SECTION
  2
ENTITIES
  0
TEXT
  5
22
  8
0
 62
     7
 10
163.73483100000001
 20
190.70400000000001
 30
0.0
 40
3.0923400000000001
  1
100～150
 41
0.5
 72
     2
 11
172.548
 21
190.70400000000001
 31
0.0
  0
TEXT
  5
23
  8
0
 62
     7
 10
149.9460675
 20
191.25200000000001
 30
0.0
 40
3.0923400000000001
  1
10
 41
0.5
 72
     1
 11
150.84800000000001
 21
191.25200000000001
 31
0.0
  0
TEXT
  5
24
  8
0
 62
     7
 10
137.558483
 20
196.61099999999999
 30
0.0
 40
3.0923400000000001
  1
525～575
 41
0.5
 72
     1
 11
142.86699999999999
 21
196.61099999999999
 31
0.0
  0
TEXT
  5
25
  8
0
 62
     7
 10
136.63543999999999
 20
230.25399999999999
 30
0.0
 40
3.0923400000000001
  1
345
 41
0.5
 72
     1
 11
138.697
 21
230.25399999999999
 31
0.0
  0
TEXT
  5
26
  8
0
 62
     7
 10
117.90900000000001
 20
230.25399999999999
 30
0.0
 40
3.0923400000000001
  1
70
 41
0.5
  0
TEXT
  5
27
  8
0
 62
     7
 10
134.81713500000001
 20
190.70400000000001
 30
0.0
 40
3.0923400000000001
  1
415
 41
0.5
 72
     1
 11
136.62100000000001
 21
190.70400000000001
 31
0.0
  0
TEXT
  5
28
  8
0
 62
     7
 10
128.14404999999999
 20
75.594099999999983
 30
0.0
 40
3.0923400000000001
  1
45
 41
0.5
 72
     2
 11
130.721
 21
75.594099999999983
 31
0.0
  0
TEXT
  5
29
  8
0
 62
     7
 10
44.651425000000003
 20
76.184299999999993
 30
0.0
 40
3.0923400000000001
  1
55
 41
0.5
 72
     1
 11
45.939900000000002
 21
76.184299999999993
 31
0.0
  0
TEXT
  5
2A
  8
0
 62
     7
 10
65.442787500000009
 20
76.067800000000005
 30
0.0
 40
3.0923400000000001
  1
590
 41
0.5
 72
     1
 11
67.375500000000002
 21
76.067800000000005
 31
0.0
  0
TEXT
  5
2B
  8
0
 62
     7
 10
87.677324999999996
 20
76.183899999999994
 30
0.0
 40
3.0923400000000001
  1
55
 41
0.5
 72
     1
 11
88.965800000000002
 21
76.183899999999994
 31
0.0
  0
TEXT
  5
2C
  8
0
 62
     7
 10
65.308934999999991
 20
135.06200000000001
 30
0.0
 40
3.0923400000000001
  1
415
 41
0.5
 72
     1
 11
67.112799999999993
 21
135.06200000000001
 31
0.0
  0
TEXT
  5
2D
  8
0
 62
     7
 10
76.982887500000004
 20
190.70400000000001
 30
0.0
 40
3.0923400000000001
  1
350
 41
0.5
 72
     1
 11
78.915599999999998
 21
190.70400000000001
 31
0.0
  0
TEXT
  5
2E
  8
0
 62
     7
 10
65.448634999999996
 20
196.61099999999999
 30
0.0
 40
3.0923400000000001
  1
700
 41
0.5
 72
     1
 11
67.252499999999984
 21
196.61099999999999
 31
0.0
  0
TEXT
  5
2F
  8
0
 62
     7
 10
76.335499999999996
 20
141.11559249999999
 30
0.0
 40
3.0923400000000001
  1
1000
 50
90.0
 41
0.5
 72
     1
 11
76.335499999999996
 21
143.30600000000001
 31
0.0
  0
TEXT
  5
30
  8
0
 62
     7
 10
97.378299999999996
 20
171.73828750000001
 30
0.0
 40
3.0923400000000001
  1
270
 50
90.0
 41
0.5
 72
     1
 11
97.378299999999996
 21
173.67099999999999
 31
0.0
  0
TEXT
  5
31
  8
0
 62
     7
 10
169.65799999999999
 20
237.02213499999999
 30
0.0
 40
3.0923400000000001
  1
515
 50
90.0
 41
0.5
 72
     1
 11
169.65799999999999
 21
238.82599999999999
 31
0.0
  0
TEXT
  5
32
  8
0
 62
     7
 10
169.892
 20
167.10513499999999
 30
0.0
 40
3.0923400000000001
  1
400
 50
90.0
 41
0.5
 72
     1
 11
169.892
 21
168.90899999999999
 31
0.0
  0
TEXT
  5
33
  8
0
 62
     7
 10
169.892
 20
143.10528749999989
 30
0.0
 40
3.0923400000000001
  1
330
 50
90.0
 41
0.5
 72
     1
 11
169.892
 21
145.03800000000001
 31
0.0
  0
TEXT
  5
34
  8
0
 62
     7
 10
169.892
 20
121.1472875
 30
0.0
 40
3.0923400000000001
  1
330
 50
90.0
 41
0.5
 72
     1
 11
169.892
 21
123.08
 31
0.0
  0
TEXT
  5
35
  8
0
 62
     7
 10
169.892
 20
95.063187500000012
 30
0.0
 40
3.0923400000000001
  1
440
 50
90.0
 41
0.5
 72
     1
 11
169.892
 21
96.995900000000006
 31
0.0
  0
TEXT
  5
36
  8
0
 62
     7
 10
55.860900000000001
 20
160.62100000000001
 30
0.0
 40
3.0923400000000001
  1
%%c52
 41
0.5
  0
TEXT
  5
37
  8
0
 62
     7
 10
114.498
 20
246.245
 30
0.0
 40
3.0923400000000001
  1
%%c52
 41
0.5
  0
TEXT
  5
38
  8
0
 62
     7
 10
131.98500000000001
 20
264.93874499999998
 30
0.0
 40
3.0923400000000001
  1
20
 50
90.0
 41
0.5
 72
     2
 11
131.98500000000001
 21
267.25799999999998
 31
0.0
  0
TEXT
  5
39
  8
0
 62
     7
 10
103.53
 20
130.007745
 30
0.0
 40
3.0923400000000001
  1
1500
 50
90.0
 41
0.5
 72
     1
 11
103.53
 21
132.327
 31
0.0
  0
TEXT
  5
3A
  8
0
 62
     7
 10
35.133000000000003
 20
82.902625
 30
0.0
 40
3.0923400000000001
  1
45
 50
90.0
 41
0.5
 72
     1
 11
35.133000000000003
 21
84.191100000000006
 31
0.0
  0
TEXT
  5
3B
  8
0
 62
     7
 10
35.133000000000003
 20
178.5773725
 30
0.0
 40
3.0923400000000001
  1
90
 50
90.0
 41
0.5
 72
     1
 11
35.133000000000003
 21
179.73699999999999
 31
0.0
  0
TEXT
  5
3C
  8
0
 62
     7
 10
35.133000000000003
 20
129.99005
 30
0.0
 40
3.0923400000000001
  1
1365
 50
90.0
 41
0.5
 72
     1
 11
35.133000000000003
 21
132.56700000000001
 31
0.0
  0
ARC
  5
3D
  8
0
 62
     7
 10
90.396380000000008
 20
83.095584999999986
 30
0.0
 40
0.34688
 50
272.19999100000001
 51
357.82962099999997
  0
LINE
  5
3E
  8
0
 62
     7
 10
90.409699999999987
 20
82.748999999999995
 30
0.0
 11
44.409499999999987
 21
82.748999999999995
 31
0.0
  0
ARC
  5
3F
  8
0
 62
     7
 10
44.422217000000003
 20
83.095030000000008
 30
0.0
 40
0.346304
 50
182.08210600000001
 51
267.88832100000002
  0
LINE
  5
40
  8
0
 62
     7
 10
44.076099999999997
 20
83.082400000000007
 30
0.0
 11
44.076099999999997
 21
182.416
 31
0.0
  0
ARC
  5
41
  8
0
 62
     7
 10
44.422204999999998
 20
182.403627
 30
0.0
 40
0.346298
 50
92.109700000000004
 51
177.89027100000001
  0
LINE
  5
42
  8
0
 62
     7
 10
44.409499999999987
 20
182.75
 30
0.0
 11
90.409699999999987
 21
182.75
 31
0.0
  0
ARC
  5
43
  8
0
 62
     7
 10
90.397338999999988
 20
182.40401800000001
 30
0.0
 40
0.345893
 50
2.0472950000000001
 51
87.952694999999991
  0
LINE
  5
44
  8
0
 62
     7
 10
90.742999999999995
 20
182.416
 30
0.0
 11
90.742999999999995
 21
83.082400000000007
 31
0.0
  0
LINE
  5
45
  8
0
 62
     7
 10
154.41999999999999
 20
223.327
 30
0.0
 11
153.19999999999999
 21
223.63399999999999
 31
0.0
  0
LINE
  5
46
  8
0
 62
     7
 10
154.767
 20
224.614
 30
0.0
 11
153.54599999999999
 21
224.922
 31
0.0
  0
LINE
  5
47
  8
0
 62
     7
 10
154.422
 20
254.32499999999999
 30
0.0
 11
153.202
 21
254.018
 31
0.0
  0
LINE
  5
48
  8
0
 62
     7
 10
154.76900000000001
 20
253.03800000000001
 30
0.0
 11
153.54900000000001
 21
252.73099999999999
 31
0.0
  0
ARC
  5
49
  8
0
 62
     7
 10
67.388640000000009
 20
177.439863
 30
0.0
 40
70.432456999999985
 50
270.01676099999997
 51
270.61697400000008
  0
ARC
  5
4A
  8
0
 62
     7
 10
66.918819999999997
 20
230.63968700000001
 30
0.0
 40
123.634298
 50
270.56921499999999
 51
272.85359099999999
  0
ARC
  5
4B
  8
0
 62
     7
 10
69.275746999999996
 20
181.75991099999999
 30
0.0
 40
74.697838000000004
 50
272.9145069999999
 51
275.21158700000001
  0
ARC
  5
4C
  8
0
 62
     7
 10
72.267623999999998
 20
147.41455500000001
 30
0.0
 40
40.222943999999991
 50
275.41131100000001
 51
277.31606199999999
  0
ARC
  5
4D
  8
0
 62
     7
 10
74.317796999999985
 20
131.243877
 30
0.0
 40
23.922854000000001
 50
277.37769199999991
 51
280.01613200000003
  0
ARC
  5
4E
  8
0
 62
     7
 10
76.380201999999997
 20
119.52032
 30
0.0
 40
12.019276
 50
280.05451399999998
 51
285.25057099999998
  0
ARC
  5
4F
  8
0
 62
     7
 10
77.981597999999991
 20
113.410293
 30
0.0
 40
5.7035220000000004
 50
285.87525900000003
 51
288.68962199999999
  0
ARC
  5
50
  8
0
 62
     7
 10
79.935872000000003
 20
109.659695
 30
0.0
 40
1.306538999999999
 50
337.94742000000002
 51
359.92929500000002
  0
ARC
  5
51
  8
0
 62
     7
 10
79.494313000000005
 20
109.81446800000001
 30
0.0
 40
1.774046
 50
313.71225500000003
 51
338.668836
  0
ARC
  5
52
  8
0
 62
     7
 10
79.257959999999997
 20
110.018095
 30
0.0
 40
2.084778
 50
285.33321699999999
 51
314.54025200000001
  0
ARC
  5
53
  8
0
 62
     7
 10
67.429824999999994
 20
177.44320500000001
 30
0.0
 40
70.435799000000003
 50
269.38306
 51
269.98325799999998
  0
ARC
  5
54
  8
0
 62
     7
 10
67.899668000000005
 20
230.649168
 30
0.0
 40
123.64377899999999
 50
267.14653900000002
 51
269.43082900000002
  0
ARC
  5
55
  8
0
 62
     7
 10
65.542396999999994
 20
181.76078000000001
 30
0.0
 40
74.698700000000002
 50
264.78852000000001
 51
267.08562999999998
  0
ARC
  5
56
  8
0
 62
     7
 10
62.550553999999998
 20
147.41455500000001
 30
0.0
 40
40.222943999999991
 50
262.68395800000002
 51
264.58870899999999
  0
ARC
  5
57
  8
0
 62
     7
 10
60.499879999999997
 20
131.240205
 30
0.0
 40
23.919149000000001
 50
259.98357499999997
 51
262.622387
  0
ARC
  5
58
  8
0
 62
     7
 10
58.437480000000008
 20
119.517117
 30
0.0
 40
12.016033
 50
254.74810400000001
 51
259.94523800000002
  0
ARC
  5
59
  8
0
 62
     7
 10
56.835636000000001
 20
113.40639299999999
 30
0.0
 40
5.6994889999999989
 50
251.307895
 51
254.12399199999999
  0
LINE
  5
5A
  8
0
 62
     7
 10
46.269300000000001
 20
74.965800000000002
 30
0.0
 11
47.742400000000004
 21
75.360600000000005
 31
0.0
  0
LINE
  5
5B
  8
0
 62
     7
 10
47.742400000000004
 20
75.360600000000005
 30
0.0
 11
46.269300000000001
 21
75.755399999999995
 31
0.0
  0
LINE
  5
5C
  8
0
 62
     7
 10
46.269300000000001
 20
75.755399999999995
 30
0.0
 11
46.269300000000001
 21
74.965800000000002
 31
0.0
  0
LINE
  5
5D
  8
0
 62
     7
 10
89.269900000000007
 20
74.972999999999999
 30
0.0
 11
90.742999999999995
 21
75.367800000000003
 31
0.0
  0
LINE
  5
5E
  8
0
 62
     7
 10
90.742999999999995
 20
75.367800000000003
 30
0.0
 11
89.269900000000007
 21
75.762299999999996
 31
0.0
  0
LINE
  5
5F
  8
0
 62
     7
 10
89.269900000000007
 20
75.762299999999996
 30
0.0
 11
89.269900000000007
 21
74.972999999999999
 31
0.0
  0
LINE
  5
60
  8
0
 62
     7
 10
85.603200000000001
 20
74.980199999999996
 30
0.0
 11
87.0762
 21
75.375
 31
0.0
  0
LINE
  5
61
  8
0
 62
     7
 10
87.0762
 20
75.375
 30
0.0
 11
85.603200000000001
 21
75.769800000000004
 31
0.0
  0
LINE
  5
62
  8
0
 62
     7
 10
85.603200000000001
 20
75.769800000000004
 30
0.0
 11
85.603200000000001
 21
74.980199999999996
 31
0.0
  0
LINE
  5
63
  8
0
 62
     7
 10
88.549199999999985
 20
75.769800000000004
 30
0.0
 11
87.0762
 21
75.375
 31
0.0
  0
LINE
  5
64
  8
0
 62
     7
 10
87.0762
 20
75.375
 30
0.0
 11
88.549199999999985
 21
74.980199999999996
 31
0.0
  0
LINE
  5
65
  8
0
 62
     7
 10
88.549199999999985
 20
74.980199999999996
 30
0.0
 11
88.549199999999985
 21
75.769800000000004
 31
0.0
  0
LINE
  5
66
  8
0
 62
     7
 10
45.549300000000002
 20
75.762299999999996
 30
0.0
 11
44.076099999999997
 21
75.367800000000003
 31
0.0
  0
LINE
  5
67
  8
0
 62
     7
 10
44.076099999999997
 20
75.367800000000003
 30
0.0
 11
45.549300000000002
 21
74.972999999999999
 31
0.0
  0
LINE
  5
68
  8
0
 62
     7
 10
45.549300000000002
 20
74.972999999999999
 30
0.0
 11
45.549300000000002
 21
75.762299999999996
 31
0.0
  0
LINE
  5
69
  8
0
 62
     7
 10
49.215699999999998
 20
75.755399999999995
 30
0.0
 11
47.742400000000004
 21
75.360600000000005
 31
0.0
  0
LINE
  5
6A
  8
0
 62
     7
 10
47.742400000000004
 20
75.360600000000005
 30
0.0
 11
49.215699999999998
 21
74.965800000000002
 31
0.0
  0
LINE
  5
6B
  8
0
 62
     7
 10
49.215699999999998
 20
74.965800000000002
 30
0.0
 11
49.215699999999998
 21
75.755399999999995
 31
0.0
  0
LINE
  5
6C
  8
0
 62
     7
 10
90.742999999999995
 20
75.367800000000003
 30
0.0
 11
44.076099999999997
 21
75.367800000000003
 31
0.0
  0
LINE
  5
6D
  8
0
 62
     7
 10
90.742999999999995
 20
74.667699999999996
 30
0.0
 11
90.742999999999995
 21
81.492199999999997
 31
0.0
  0
LINE
  5
6E
  8
0
 62
     7
 10
87.0762
 20
74.667699999999996
 30
0.0
 11
87.0762
 21
86.313999999999993
 31
0.0
  0
LINE
  5
6F
  8
0
 62
     7
 10
47.742400000000004
 20
74.667699999999996
 30
0.0
 11
47.742400000000004
 21
86.313999999999993
 31
0.0
  0
LINE
  5
70
  8
0
 62
     7
 10
44.076099999999997
 20
74.667699999999996
 30
0.0
 11
44.076099999999997
 21
81.492199999999997
 31
0.0
  0
LINE
  5
71
  8
0
 62
     7
 10
36.538699999999999
 20
81.276200000000003
 30
0.0
 11
36.144100000000002
 21
82.749300000000005
 31
0.0
  0
LINE
  5
72
  8
0
 62
     7
 10
36.144100000000002
 20
82.749300000000005
 30
0.0
 11
35.749099999999999
 21
81.276200000000003
 31
0.0
  0
LINE
  5
73
  8
0
 62
     7
 10
35.749099999999999
 20
81.276200000000003
 30
0.0
 11
36.538699999999999
 21
81.276200000000003
 31
0.0
  0
LINE
  5
74
  8
0
 62
     7
 10
35.756500000000003
 20
87.222099999999998
 30
0.0
 11
36.151299999999999
 21
85.749300000000005
 31
0.0
  0
LINE
  5
75
  8
0
 62
     7
 10
36.151299999999999
 20
85.749300000000005
 30
0.0
 11
36.545999999999999
 21
87.222099999999998
 31
0.0
  0
LINE
  5
76
  8
0
 62
     7
 10
36.545999999999999
 20
87.222099999999998
 30
0.0
 11
35.756500000000003
 21
87.222099999999998
 31
0.0
  0
LINE
  5
77
  8
0
 62
     7
 10
36.5319
 20
181.27699999999999
 30
0.0
 11
36.137
 21
182.75
 31
0.0
  0
LINE
  5
78
  8
0
 62
     7
 10
36.137
 20
182.75
 30
0.0
 11
35.742199999999997
 21
181.27699999999999
 31
0.0
  0
LINE
  5
79
  8
0
 62
     7
 10
35.742199999999997
 20
181.27699999999999
 30
0.0
 11
36.5319
 21
181.27699999999999
 31
0.0
  0
LINE
  5
7A
  8
0
 62
     7
 10
36.144100000000002
 20
78.796700000000001
 30
0.0
 11
36.144100000000002
 21
182.75
 31
0.0
  0
LINE
  5
7B
  8
0
 62
     7
 10
35.444099999999999
 20
82.749300000000005
 30
0.0
 11
43.180100000000003
 21
82.749300000000005
 31
0.0
  0
LINE
  5
7C
  8
0
 62
     7
 10
35.444099999999999
 20
85.749300000000005
 30
0.0
 11
56.403599999999997
 21
85.749300000000005
 31
0.0
  0
LINE
  5
7D
  8
0
 62
     7
 10
35.444099999999999
 20
176.75
 30
0.0
 11
47.686599999999991
 21
176.75
 31
0.0
  0
LINE
  5
7E
  8
0
 62
     7
 10
35.444099999999999
 20
182.75
 30
0.0
 11
43.180100000000003
 21
182.75
 31
0.0
  0
LINE
  5
7F
  8
0
 62
     7
 10
65.422300000000007
 20
162.209
 30
0.0
 11
66.184799999999996
 21
163.529
 31
0.0
  0
LINE
  5
80
  8
0
 62
     7
 10
66.184799999999996
 20
163.529
 30
0.0
 11
64.86399999999999
 21
162.76599999999999
 31
0.0
  0
LINE
  5
81
  8
0
 62
     7
 10
64.86399999999999
 20
162.76599999999999
 30
0.0
 11
65.422300000000007
 21
162.209
 31
0.0
  0
LINE
  5
82
  8
0
 62
     7
 10
69.403400000000005
 20
167.29599999999999
 30
0.0
 11
68.640699999999995
 21
165.97499999999999
 31
0.0
  0
LINE
  5
83
  8
0
 62
     7
 10
68.640699999999995
 20
165.97499999999999
 30
0.0
 11
69.961500000000001
 21
166.738
 31
0.0
  0
LINE
  5
84
  8
0
 62
     7
 10
69.961500000000001
 20
166.738
 30
0.0
 11
69.403400000000005
 21
167.29599999999999
 31
0.0
  0
LINE
  5
85
  8
0
 62
     7
 10
70.973399999999984
 20
168.30799999999999
 30
0.0
 11
62.5871
 21
159.92099999999999
 31
0.0
  0
LINE
  5
86
  8
0
 62
     7
 10
152.69999999999999
 20
190.39099999999999
 30
0.0
 11
151.227
 21
189.99700000000001
 31
0.0
  0
LINE
  5
87
  8
0
 62
     7
 10
151.227
 20
189.99700000000001
 30
0.0
 11
152.69999999999999
 21
189.602
 31
0.0
  0
LINE
  5
88
  8
0
 62
     7
 10
152.69999999999999
 20
189.602
 30
0.0
 11
152.69999999999999
 21
190.39099999999999
 31
0.0
  0
LINE
  5
89
  8
0
 62
     7
 10
124.366
 20
196.298
 30
0.0
 11
122.893
 21
195.90299999999999
 31
0.0
  0
LINE
  5
8A
  8
0
 62
     7
 10
122.893
 20
195.90299999999999
 30
0.0
 11
124.366
 21
195.50899999999999
 31
0.0
  0
LINE
  5
8B
  8
0
 62
     7
 10
124.366
 20
195.50899999999999
 30
0.0
 11
124.366
 21
196.298
 31
0.0
  0
LINE
  5
8C
  8
0
 62
     7
 10
159.755
 20
195.524
 30
0.0
 11
161.227
 21
195.91800000000001
 31
0.0
  0
LINE
  5
8D
  8
0
 62
     7
 10
161.227
 20
195.91800000000001
 30
0.0
 11
159.755
 21
196.3129999999999
 31
0.0
  0
LINE
  5
8E
  8
0
 62
     7
 10
159.755
 20
196.3129999999999
 30
0.0
 11
159.755
 21
195.524
 31
0.0
  0
LINE
  5
8F
  8
0
 62
     7
 10
122.893
 20
195.91099999999989
 30
0.0
 11
161.227
 21
195.91099999999989
 31
0.0
  0
LINE
  5
90
  8
0
 62
     7
 10
129.03299999999999
 20
229.941
 30
0.0
 11
127.56
 21
229.54599999999999
 31
0.0
  0
LINE
  5
91
  8
0
 62
     7
 10
127.56
 20
229.54599999999999
 30
0.0
 11
129.03299999999999
 21
229.15199999999999
 31
0.0
  0
LINE
  5
92
  8
0
 62
     7
 10
129.03299999999999
 20
229.15199999999999
 30
0.0
 11
129.03299999999999
 21
229.941
 31
0.0
  0
LINE
  5
93
  8
0
 62
     7
 10
121.42
 20
229.166
 30
0.0
 11
122.893
 21
229.56100000000001
 31
0.0
  0
LINE
  5
94
  8
0
 62
     7
 10
122.893
 20
229.56100000000001
 30
0.0
 11
121.42
 21
229.95500000000001
 31
0.0
  0
LINE
  5
95
  8
0
 62
     7
 10
121.42
 20
229.95500000000001
 30
0.0
 11
121.42
 21
229.166
 31
0.0
  0
LINE
  5
96
  8
0
 62
     7
 10
149.08799999999999
 20
229.166
 30
0.0
 11
150.56100000000001
 21
229.56100000000001
 31
0.0
  0
LINE
  5
97
  8
0
 62
     7
 10
150.56100000000001
 20
229.56100000000001
 30
0.0
 11
149.08799999999999
 21
229.95500000000001
 31
0.0
  0
LINE
  5
98
  8
0
 62
     7
 10
149.08799999999999
 20
229.95500000000001
 30
0.0
 11
149.08799999999999
 21
229.166
 31
0.0
  0
LINE
  5
99
  8
0
 62
     7
 10
117.90900000000001
 20
229.554
 30
0.0
 11
150.56100000000001
 21
229.554
 31
0.0
  0
LINE
  5
9A
  8
0
 62
     7
 10
124.366
 20
190.39099999999999
 30
0.0
 11
122.893
 21
189.99700000000001
 31
0.0
  0
LINE
  5
9B
  8
0
 62
     7
 10
122.893
 20
189.99700000000001
 30
0.0
 11
124.366
 21
189.602
 31
0.0
  0
LINE
  5
9C
  8
0
 62
     7
 10
124.366
 20
189.602
 30
0.0
 11
124.366
 21
190.39099999999999
 31
0.0
  0
LINE
  5
9D
  8
0
 62
     7
 10
149.08799999999999
 20
189.61699999999999
 30
0.0
 11
150.56100000000001
 21
190.012
 31
0.0
  0
LINE
  5
9E
  8
0
 62
     7
 10
150.56100000000001
 20
190.012
 30
0.0
 11
149.08799999999999
 21
190.40600000000001
 31
0.0
  0
LINE
  5
9F
  8
0
 62
     7
 10
149.08799999999999
 20
190.40600000000001
 30
0.0
 11
149.08799999999999
 21
189.61699999999999
 31
0.0
  0
LINE
  5
A0
  8
0
 62
     7
 10
159.755
 20
189.61699999999999
 30
0.0
 11
161.22800000000001
 21
190.012
 31
0.0
  0
LINE
  5
A1
  8
0
 62
     7
 10
161.22800000000001
 20
190.012
 30
0.0
 11
159.755
 21
190.40600000000001
 31
0.0
  0
LINE
  5
A2
  8
0
 62
     7
 10
159.755
 20
190.40600000000001
 30
0.0
 11
159.755
 21
189.61699999999999
 31
0.0
  0
LINE
  5
A3
  8
0
 62
     7
 10
122.893
 20
190.00399999999999
 30
0.0
 11
172.548
 21
190.00399999999999
 31
0.0
  0
LINE
  5
A4
  8
0
 62
     7
 10
74.215599999999995
 20
107.00700000000001
 30
0.0
 11
78.464299999999994
 21
107.00700000000001
 31
0.0
  0
LINE
  5
A5
  8
0
 62
     7
 10
76.743799999999993
 20
108.479
 30
0.0
 11
77.138900000000007
 21
107.006
 31
0.0
  0
LINE
  5
A6
  8
0
 62
     7
 10
77.138900000000007
 20
107.006
 30
0.0
 11
77.533600000000007
 21
108.479
 31
0.0
  0
LINE
  5
A7
  8
0
 62
     7
 10
77.533600000000007
 20
108.479
 30
0.0
 11
76.743799999999993
 21
108.479
 31
0.0
  0
LINE
  5
A8
  8
0
 62
     7
 10
77.519099999999995
 20
172.202
 30
0.0
 11
77.124099999999999
 21
173.67500000000001
 31
0.0
  0
LINE
  5
A9
  8
0
 62
     7
 10
77.124099999999999
 20
173.67500000000001
 30
0.0
 11
76.729500000000002
 21
172.202
 31
0.0
  0
LINE
  5
AA
  8
0
 62
     7
 10
76.729500000000002
 20
172.202
 30
0.0
 11
77.519099999999995
 21
172.202
 31
0.0
  0
LINE
  5
AB
  8
0
 62
     7
 10
77.131500000000003
 20
107.00700000000001
 30
0.0
 11
77.131500000000003
 21
173.67400000000001
 31
0.0
  0
LINE
  5
AC
  8
0
 62
     7
 10
170.97999999999999
 20
154.61000000000001
 30
0.0
 11
170.58500000000001
 21
156.083
 31
0.0
  0
LINE
  5
AD
  8
0
 62
     7
 10
170.58500000000001
 20
156.083
 30
0.0
 11
170.19
 21
154.61000000000001
 31
0.0
  0
LINE
  5
AE
  8
0
 62
     7
 10
170.19
 20
154.61000000000001
 30
0.0
 11
170.97999999999999
 21
154.61000000000001
 31
0.0
  0
LINE
  5
AF
  8
0
 62
     7
 10
169.97
 20
223.13200000000001
 30
0.0
 11
170.36500000000001
 21
221.65899999999999
 31
0.0
  0
LINE
  5
B0
  8
0
 62
     7
 10
170.36500000000001
 20
221.65899999999999
 30
0.0
 11
170.75999999999999
 21
223.13200000000001
 31
0.0
  0
LINE
  5
B1
  8
0
 62
     7
 10
170.75999999999999
 20
223.13200000000001
 30
0.0
 11
169.97
 21
223.13200000000001
 31
0.0
  0
LINE
  5
B2
  8
0
 62
     7
 10
170.74600000000001
 20
254.52000000000001
 30
0.0
 11
170.34999999999999
 21
255.99299999999999
 31
0.0
  0
LINE
  5
B3
  8
0
 62
     7
 10
170.34999999999999
 20
255.99299999999999
 30
0.0
 11
169.95599999999999
 21
254.52000000000001
 31
0.0
  0
LINE
  5
B4
  8
0
 62
     7
 10
169.95599999999999
 20
254.52000000000001
 30
0.0
 11
170.74600000000001
 21
254.52000000000001
 31
0.0
  0
LINE
  5
B5
  8
0
 62
     7
 10
170.358
 20
255.99299999999999
 30
0.0
 11
170.358
 21
221.65899999999999
 31
0.0
  0
LINE
  5
B6
  8
0
 62
     7
 10
163.49100000000001
 20
221.65899999999999
 30
0.0
 11
171.05799999999999
 21
221.65899999999999
 31
0.0
  0
LINE
  5
B7
  8
0
 62
     7
 10
171.05799999999999
 20
255.99299999999999
 30
0.0
 11
163.15000000000001
 21
255.99299999999999
 31
0.0
  0
LINE
  5
B8
  8
0
 62
     7
 10
170.20500000000001
 20
157.55600000000001
 30
0.0
 11
170.59899999999999
 21
156.083
 31
0.0
  0
LINE
  5
B9
  8
0
 62
     7
 10
170.59899999999999
 20
156.083
 30
0.0
 11
170.994
 21
157.55600000000001
 31
0.0
  0
LINE
  5
BA
  8
0
 62
     7
 10
170.994
 20
157.55600000000001
 30
0.0
 11
170.20500000000001
 21
157.55600000000001
 31
0.0
  0
LINE
  5
BB
  8
0
 62
     7
 10
170.97999999999999
 20
132.61000000000001
 30
0.0
 11
170.58500000000001
 21
134.083
 31
0.0
  0
LINE
  5
BC
  8
0
 62
     7
 10
170.58500000000001
 20
134.083
 30
0.0
 11
170.19
 21
132.61000000000001
 31
0.0
  0
LINE
  5
BD
  8
0
 62
     7
 10
170.19
 20
132.61000000000001
 30
0.0
 11
170.97999999999999
 21
132.61000000000001
 31
0.0
  0
LINE
  5
BE
  8
0
 62
     7
 10
170.20500000000001
 20
135.55600000000001
 30
0.0
 11
170.59899999999999
 21
134.083
 31
0.0
  0
LINE
  5
BF
  8
0
 62
     7
 10
170.59899999999999
 20
134.083
 30
0.0
 11
170.994
 21
135.55600000000001
 31
0.0
  0
LINE
  5
C0
  8
0
 62
     7
 10
170.994
 20
135.55600000000001
 30
0.0
 11
170.20500000000001
 21
135.55600000000001
 31
0.0
  0
LINE
  5
C1
  8
0
 62
     7
 10
170.97999999999999
 20
110.61
 30
0.0
 11
170.58500000000001
 21
112.083
 31
0.0
  0
LINE
  5
C2
  8
0
 62
     7
 10
170.58500000000001
 20
112.083
 30
0.0
 11
170.19
 21
110.61
 31
0.0
  0
LINE
  5
C3
  8
0
 62
     7
 10
170.19
 20
110.61
 30
0.0
 11
170.97999999999999
 21
110.61
 31
0.0
  0
LINE
  5
C4
  8
0
 62
     7
 10
170.97999999999999
 20
181.27799999999999
 30
0.0
 11
170.58500000000001
 21
182.751
 31
0.0
  0
LINE
  5
C5
  8
0
 62
     7
 10
170.58500000000001
 20
182.751
 30
0.0
 11
170.19
 21
181.27799999999999
 31
0.0
  0
LINE
  5
C6
  8
0
 62
     7
 10
170.19
 20
181.27799999999999
 30
0.0
 11
170.97999999999999
 21
181.27799999999999
 31
0.0
  0
LINE
  5
C7
  8
0
 62
     7
 10
170.20500000000001
 20
113.556
 30
0.0
 11
170.59899999999999
 21
112.083
 31
0.0
  0
LINE
  5
C8
  8
0
 62
     7
 10
170.59899999999999
 20
112.083
 30
0.0
 11
170.994
 21
113.556
 31
0.0
  0
LINE
  5
C9
  8
0
 62
     7
 10
170.994
 20
113.556
 30
0.0
 11
170.20500000000001
 21
113.556
 31
0.0
  0
LINE
  5
CA
  8
0
 62
     7
 10
170.20500000000001
 20
84.221400000000003
 30
0.0
 11
170.59899999999999
 21
82.748299999999986
 31
0.0
  0
LINE
  5
CB
  8
0
 62
     7
 10
170.59899999999999
 20
82.748299999999986
 30
0.0
 11
170.994
 21
84.221400000000003
 31
0.0
  0
LINE
  5
CC
  8
0
 62
     7
 10
170.994
 20
84.221400000000003
 30
0.0
 11
170.20500000000001
 21
84.221400000000003
 31
0.0
  0
LINE
  5
CD
  8
0
 62
     7
 10
170.59200000000001
 20
182.75
 30
0.0
 11
170.59200000000001
 21
82.749300000000005
 31
0.0
  0
LINE
  5
CE
  8
0
  6
AIGENLINE001
 62
     7
 10
127.56
 20
177.482
 30
0.0
 11
127.56
 21
172.59100000000001
 31
0.0
  0
LINE
  5
CF
  8
0
 62
     7
 10
126.854
 20
82.749300000000005
 30
0.0
 11
171.292
 21
82.749300000000005
 31
0.0
  0
LINE
  5
D0
  8
0
 62
     7
 10
150.56100000000001
 20
111.249
 30
0.0
 11
150.56100000000001
 21
111.05
 31
0.0
  0
LINE
  5
D1
  8
0
 62
     7
 10
125.89400000000001
 20
88.1554
 30
0.0
 11
147.435
 21
104.70699999999999
 31
0.0
  0
ARC
  5
D2
  8
0
 62
     7
 10
142.43203600000001
 20
111.113467
 30
0.0
 40
8.1287920000000007
 50
307.987053
 51
359.55444399999999
  0
LINE
  5
D3
  8
0
 62
     7
 10
153.89400000000001
 20
256.35899999999998
 30
0.0
 11
153.89400000000001
 21
255.626
 31
0.0
  0
LINE
  5
D4
  8
0
 62
     7
 10
153.89400000000001
 20
256.32600000000002
 30
0.0
 11
154.42699999999999
 21
256.32600000000002
 31
0.0
  0
LINE
  5
D5
  8
0
 62
     7
 10
153.89400000000001
 20
255.65899999999999
 30
0.0
 11
154.42699999999999
 21
255.65899999999999
 31
0.0
  0
LINE
  5
D6
  8
0
 62
     7
 10
153.89400000000001
 20
255.32599999999999
 30
0.0
 11
154.42699999999999
 21
255.32599999999999
 31
0.0
  0
LINE
  5
D7
  8
0
 62
     7
 10
153.89400000000001
 20
256.65899999999999
 30
0.0
 11
154.42699999999999
 21
256.65899999999999
 31
0.0
  0
LINE
  5
D8
  8
0
 62
     7
 10
153.89400000000001
 20
256.65899999999999
 30
0.0
 11
153.89400000000001
 21
255.32599999999999
 31
0.0
  0
LINE
  5
D9
  8
0
 62
     7
 10
154.42699999999999
 20
256.65899999999999
 30
0.0
 11
154.42699999999999
 21
255.32599999999999
 31
0.0
  0
LINE
  5
DA
  8
0
 62
     7
 10
154.422
 20
257.435
 30
0.0
 11
154.422
 21
254.32499999999999
 31
0.0
  0
LINE
  5
DB
  8
0
 62
     7
 10
150.06
 20
259.137
 30
0.0
 11
153.87799999999999
 21
258.08999999999997
 31
0.0
  0
ARC
  5
DC
  8
0
 62
     7
 10
153.73369
 20
257.41677800000002
 30
0.0
 40
0.6887560000000002
 50
1.4881340000000001
 51
77.915385000000001
  0
LINE
  5
DD
  8
0
 62
     7
 10
155.761
 20
257.92599999999999
 30
0.0
 11
155.761
 21
254.32499999999999
 31
0.0
  0
LINE
  5
DE
  8
0
 62
     7
 10
150.185
 20
260.46600000000001
 30
0.0
 11
154.6879999999999
 21
259.23399999999998
 31
0.0
  0
ARC
  5
DF
  8
0
 62
     7
 10
154.38480100000001
 20
257.89127200000001
 30
0.0
 40
1.376287
 50
1.4577119999999999
 51
77.265642
  0
LINE
  5
E0
  8
0
 62
     7
 10
127.89400000000001
 20
259.15899999999999
 30
0.0
 11
149.815
 21
259.15899999999999
 31
0.0
  0
ARC
  5
E1
  8
0
 62
     7
 10
149.816012
 20
257.80139500000001
 30
0.0
 40
1.3572079999999991
 50
79.65804399999999
 51
90.054808999999977
  0
LINE
  5
E2
  8
0
 62
     7
 10
127.89400000000001
 20
260.49099999999999
 30
0.0
 11
149.92400000000001
 21
260.49099999999999
 31
0.0
  0
ARC
  5
E3
  8
0
 62
     7
 10
149.908942
 20
259.03086400000001
 30
0.0
 40
1.461416
 50
79.122744999999995
 51
89.426114999999996
  0
ARC
  5
E4
  8
0
 62
     7
 10
153.972194
 20
251.38166699999999
 30
0.0
 40
2.745941999999999
 50
106.335061
 51
178.78655699999999
  0
ARC
  5
E5
  8
0
 62
     7
 10
153.93279699999999
 20
251.41253399999999
 30
0.0
 40
1.3726240000000001
 50
106.347064
 51
178.80353400000001
  0
ARC
  5
E6
  8
0
 62
     7
 10
154.38277199999999
 20
254.355909
 30
0.0
 40
1.37304
 50
286.34340700000001
 51
358.72871600000002
  0
LINE
  5
E7
  8
0
 62
     7
 10
152.227
 20
255.65899999999999
 30
0.0
 11
153.89400000000001
 21
255.65899999999999
 31
0.0
  0
LINE
  5
E8
  8
0
 62
     7
 10
152.227
 20
256.32600000000002
 30
0.0
 11
153.89400000000001
 21
256.32600000000002
 31
0.0
  0
LINE
  5
E9
  8
0
 62
     7
 10
152.227
 20
256.32499999999999
 30
0.0
 11
152.227
 21
255.65899999999999
 31
0.0
  0
LINE
  5
EA
  8
0
 62
     7
 10
161.227
 20
257.72500000000002
 30
0.0
 11
161.227
 21
254.25899999999999
 31
0.0
  0
LINE
  5
EB
  8
0
  6
AIGENLINE001
 62
     7
 10
162.57400000000001
 20
255.99299999999999
 30
0.0
 11
151.73500000000001
 21
255.99299999999999
 31
0.0
  0
LINE
  5
EC
  8
0
 62
     7
 10
155.761
 20
256.35899999999998
 30
0.0
 11
155.761
 21
255.626
 31
0.0
  0
LINE
  5
ED
  8
0
 62
     7
 10
155.761
 20
256.32600000000002
 30
0.0
 11
156.29400000000001
 21
256.32600000000002
 31
0.0
  0
LINE
  5
EE
  8
0
 62
     7
 10
155.761
 20
255.65899999999999
 30
0.0
 11
156.29400000000001
 21
255.65899999999999
 31
0.0
  0
LINE
  5
EF
  8
0
 62
     7
 10
155.761
 20
255.32599999999999
 30
0.0
 11
156.29400000000001
 21
255.32599999999999
 31
0.0
  0
LINE
  5
F0
  8
0
 62
     7
 10
155.761
 20
256.65899999999999
 30
0.0
 11
156.29400000000001
 21
256.65899999999999
 31
0.0
  0
LINE
  5
F1
  8
0
 62
     7
 10
155.761
 20
256.65899999999999
 30
0.0
 11
155.761
 21
255.32599999999999
 31
0.0
  0
LINE
  5
F2
  8
0
 62
     7
 10
156.29400000000001
 20
255.65899999999999
 30
0.0
 11
159.36000000000001
 21
255.65899999999999
 31
0.0
  0
LINE
  5
F3
  8
0
 62
     7
 10
156.29400000000001
 20
256.32600000000002
 30
0.0
 11
159.36000000000001
 21
256.32600000000002
 31
0.0
  0
LINE
  5
F4
  8
0
 62
     7
 10
156.29400000000001
 20
256.65899999999999
 30
0.0
 11
156.29400000000001
 21
255.32599999999999
 31
0.0
  0
ARC
  5
F5
  8
0
 62
     7
 10
159.934405
 20
254.53356199999999
 30
0.0
 40
0.6929330000000001
 50
2.1059380000000001
 51
87.834831999999992
  0
LINE
  5
F6
  8
0
 62
     7
 10
159.36000000000001
 20
255.226
 30
0.0
 11
159.96100000000001
 21
255.226
 31
0.0
  0
ARC
  5
F7
  8
0
 62
     7
 10
159.934304
 20
257.45162999999991
 30
0.0
 40
0.6930500000000001
 50
272.17313100000001
 51
357.85649699999999
  0
LINE
  5
F8
  8
0
 62
     7
 10
159.36000000000001
 20
256.75900000000001
 30
0.0
 11
159.96100000000001
 21
256.75900000000001
 31
0.0
  0
LINE
  5
F9
  8
0
 62
     7
 10
159.36000000000001
 20
256.75900000000001
 30
0.0
 11
159.36000000000001
 21
255.226
 31
0.0
  0
LINE
  5
FA
  8
0
 62
     7
 10
161.227
 20
254.25899999999999
 30
0.0
 11
160.62700000000001
 21
254.25899999999999
 31
0.0
  0
LINE
  5
FB
  8
0
 62
     7
 10
161.227
 20
257.72500000000002
 30
0.0
 11
160.62700000000001
 21
257.72500000000002
 31
0.0
  0
LINE
  5
FC
  8
0
 62
     7
 10
160.62700000000001
 20
257.72500000000002
 30
0.0
 11
160.62700000000001
 21
254.25899999999999
 31
0.0
  0
LINE
  5
FD
  8
0
 62
     7
 10
153.89400000000001
 20
221.292
 30
0.0
 11
153.89400000000001
 21
222.02600000000001
 31
0.0
  0
LINE
  5
FE
  8
0
 62
     7
 10
153.89400000000001
 20
221.32599999999999
 30
0.0
 11
154.42699999999999
 21
221.32599999999999
 31
0.0
  0
LINE
  5
FF
  8
0
 62
     7
 10
153.89400000000001
 20
221.99199999999999
 30
0.0
 11
154.42699999999999
 21
221.99199999999999
 31
0.0
  0
LINE
  5
100
  8
0
 62
     7
 10
153.89400000000001
 20
222.32599999999999
 30
0.0
 11
154.42699999999999
 21
222.32599999999999
 31
0.0
  0
LINE
  5
101
  8
0
 62
     7
 10
153.89400000000001
 20
220.99199999999999
 30
0.0
 11
154.42699999999999
 21
220.99199999999999
 31
0.0
  0
LINE
  5
102
  8
0
 62
     7
 10
153.89400000000001
 20
220.99199999999999
 30
0.0
 11
153.89400000000001
 21
222.32599999999999
 31
0.0
  0
LINE
  5
103
  8
0
 62
     7
 10
154.42699999999999
 20
220.99199999999999
 30
0.0
 11
154.42699999999999
 21
222.32599999999999
 31
0.0
  0
LINE
  5
104
  8
0
 62
     7
 10
154.422
 20
220.21600000000001
 30
0.0
 11
154.422
 21
223.32599999999999
 31
0.0
  0
LINE
  5
105
  8
0
 62
     7
 10
150.06
 20
218.51499999999999
 30
0.0
 11
153.87799999999999
 21
219.56100000000001
 31
0.0
  0
ARC
  5
106
  8
0
 62
     7
 10
153.734138
 20
220.233889
 30
0.0
 40
0.688299
 50
282.05463399999991
 51
358.54184700000002
  0
LINE
  5
107
  8
0
 62
     7
 10
155.761
 20
219.72499999999999
 30
0.0
 11
155.761
 21
223.32599999999999
 31
0.0
  0
LINE
  5
108
  8
0
 62
     7
 10
150.185
 20
217.18600000000001
 30
0.0
 11
154.6879999999999
 21
218.41800000000001
 31
0.0
  0
ARC
  5
109
  8
0
 62
     7
 10
154.38518999999999
 20
219.759792
 30
0.0
 40
1.375888999999999
 50
282.72145799999998
 51
358.55518799999999
  0
LINE
  5
10A
  8
0
 62
     7
 10
127.89400000000001
 20
218.49199999999999
 30
0.0
 11
149.815
 21
218.49199999999999
 31
0.0
  0
ARC
  5
10B
  8
0
 62
     7
 10
149.81558899999999
 20
219.81341699999999
 30
0.0
 40
1.3213239999999991
 50
269.96207900000002
 51
280.64473500000003
  0
LINE
  5
10C
  8
0
 62
     7
 10
127.89400000000001
 20
217.16
 30
0.0
 11
149.92400000000001
 21
217.16
 31
0.0
  0
ARC
  5
10D
  8
0
 62
     7
 10
149.924497
 20
218.465723
 30
0.0
 40
1.3062020000000001
 50
269.95975299999998
 51
281.49138700000009
  0
ARC
  5
10E
  8
0
 62
     7
 10
153.97368
 20
226.27014199999999
 30
0.0
 40
2.74743
 50
181.21446800000001
 51
253.64173500000001
  0
ARC
  5
10F
  8
0
 62
     7
 10
153.932084
 20
226.23864900000001
 30
0.0
 40
1.371899999999999
 50
181.174316
 51
253.67508599999999
  0
ARC
  5
110
  8
0
 62
     7
 10
154.38277400000001
 20
223.29548299999999
 30
0.0
 40
1.373030999999999
 50
1.256534
 51
73.656537999999998
  0
LINE
  5
111
  8
0
 62
     7
 10
152.227
 20
221.99199999999999
 30
0.0
 11
153.89400000000001
 21
221.99199999999999
 31
0.0
  0
LINE
  5
112
  8
0
 62
     7
 10
152.227
 20
221.32599999999999
 30
0.0
 11
153.89400000000001
 21
221.32599999999999
 31
0.0
  0
LINE
  5
113
  8
0
 62
     7
 10
152.227
 20
221.32599999999999
 30
0.0
 11
152.227
 21
221.99199999999999
 31
0.0
  0
LINE
  5
114
  8
0
 62
     7
 10
161.227
 20
219.92599999999999
 30
0.0
 11
161.227
 21
223.392
 31
0.0
  0
LINE
  5
115
  8
0
  6
AIGENLINE001
 62
     7
 10
162.57400000000001
 20
221.65899999999999
 30
0.0
 11
151.73500000000001
 21
221.65899999999999
 31
0.0
  0
LINE
  5
116
  8
0
 62
     7
 10
125.03700000000001
 20
240.834
 30
0.0
 11
126.358
 21
240.072
 31
0.0
  0
LINE
  5
117
  8
0
 62
     7
 10
126.358
 20
240.072
 30
0.0
 11
125.595
 21
241.392
 31
0.0
  0
LINE
  5
118
  8
0
 62
     7
 10
125.595
 20
241.392
 30
0.0
 11
125.03700000000001
 21
240.834
 31
0.0
  0
LINE
  5
119
  8
0
 62
     7
 10
130.12200000000001
 20
236.85499999999999
 30
0.0
 11
128.80199999999999
 21
237.61699999999999
 31
0.0
  0
LINE
  5
11A
  8
0
 62
     7
 10
128.80199999999999
 20
237.61699999999999
 30
0.0
 11
129.56399999999999
 21
236.297
 31
0.0
  0
LINE
  5
11B
  8
0
 62
     7
 10
129.56399999999999
 20
236.297
 30
0.0
 11
130.12200000000001
 21
236.85499999999999
 31
0.0
  0
LINE
  5
11C
  8
0
 62
     7
 10
131.702
 20
234.71700000000001
 30
0.0
 11
120.874
 21
245.54499999999999
 31
0.0
  0
LINE
  5
11D
  8
0
  6
AIGENLINE001
 62
     7
 10
156.16800000000001
 20
238.82599999999999
 30
0.0
 11
120.339
 21
238.82599999999999
 31
0.0
  0
LINE
  5
11E
  8
0
 62
     7
 10
161.227
 20
267.41899999999998
 30
0.0
 11
161.227
 21
212.15000000000001
 31
0.0
  0
LINE
  5
11F
  8
0
 62
     7
 10
155.761
 20
221.292
 30
0.0
 11
155.761
 21
222.02600000000001
 31
0.0
  0
LINE
  5
120
  8
0
 62
     7
 10
155.761
 20
221.32599999999999
 30
0.0
 11
156.29400000000001
 21
221.32599999999999
 31
0.0
  0
LINE
  5
121
  8
0
 62
     7
 10
155.761
 20
221.99199999999999
 30
0.0
 11
156.29400000000001
 21
221.99199999999999
 31
0.0
  0
LINE
  5
122
  8
0
 62
     7
 10
155.761
 20
222.32599999999999
 30
0.0
 11
156.29400000000001
 21
222.32599999999999
 31
0.0
  0
LINE
  5
123
  8
0
 62
     7
 10
155.761
 20
220.99199999999999
 30
0.0
 11
156.29400000000001
 21
220.99199999999999
 31
0.0
  0
LINE
  5
124
  8
0
 62
     7
 10
155.761
 20
220.99199999999999
 30
0.0
 11
155.761
 21
222.32599999999999
 31
0.0
  0
LINE
  5
125
  8
0
 62
     7
 10
156.29400000000001
 20
221.99199999999999
 30
0.0
 11
159.36000000000001
 21
221.99199999999999
 31
0.0
  0
LINE
  5
126
  8
0
 62
     7
 10
156.29400000000001
 20
221.32599999999999
 30
0.0
 11
159.36000000000001
 21
221.32599999999999
 31
0.0
  0
LINE
  5
127
  8
0
 62
     7
 10
156.29400000000001
 20
220.99199999999999
 30
0.0
 11
156.29400000000001
 21
222.32599999999999
 31
0.0
  0
ARC
  5
128
  8
0
 62
     7
 10
159.93428
 20
223.11794599999999
 30
0.0
 40
0.693062
 50
272.17510499999997
 51
357.88412499999998
  0
LINE
  5
129
  8
0
 62
     7
 10
159.36000000000001
 20
222.42500000000001
 30
0.0
 11
159.96100000000001
 21
222.42500000000001
 31
0.0
  0
ARC
  5
12A
  8
0
 62
     7
 10
159.934754
 20
220.20020400000001
 30
0.0
 40
0.692584
 50
2.1077479999999991
 51
87.862623999999997
  0
LINE
  5
12B
  8
0
 62
     7
 10
159.36000000000001
 20
220.892
 30
0.0
 11
159.96100000000001
 21
220.892
 31
0.0
  0
LINE
  5
12C
  8
0
 62
     7
 10
159.36000000000001
 20
220.892
 30
0.0
 11
159.36000000000001
 21
222.42500000000001
 31
0.0
  0
LINE
  5
12D
  8
0
 62
     7
 10
161.227
 20
223.392
 30
0.0
 11
160.62700000000001
 21
223.392
 31
0.0
  0
LINE
  5
12E
  8
0
 62
     7
 10
161.227
 20
219.92599999999999
 30
0.0
 11
160.62700000000001
 21
219.92599999999999
 31
0.0
  0
LINE
  5
12F
  8
0
 62
     7
 10
160.62700000000001
 20
219.92599999999999
 30
0.0
 11
160.62700000000001
 21
223.392
 31
0.0
  0
LINE
  5
130
  8
0
 62
     7
 10
128.65100000000001
 20
260.82600000000002
 30
0.0
 11
133.505
 21
260.82600000000002
 31
0.0
  0
LINE
  5
131
  8
0
 62
     7
 10
127.89400000000001
 20
260.82600000000002
 30
0.0
 11
125.89400000000001
 21
260.82600000000002
 31
0.0
  0
LINE
  5
132
  8
0
 62
     7
 10
151.227
 20
168.65700000000001
 30
0.0
 11
151.227
 21
190.714
 31
0.0
  0
LINE
  5
133
  8
0
 62
     7
 10
150.56100000000001
 20
172.227
 30
0.0
 11
150.56100000000001
 21
190.714
 31
0.0
  0
LINE
  5
134
  8
0
 62
     7
 10
163.72499999999999
 20
112.083
 30
0.0
 11
171.292
 21
112.083
 31
0.0
  0
LINE
  5
135
  8
0
  6
AIGENLINE001
 62
     7
 10
162.94800000000001
 20
112.083
 30
0.0
 11
150.65000000000001
 21
112.083
 31
0.0
  0
LINE
  5
136
  8
0
 62
     7
 10
155.2939999999999
 20
112.916
 30
0.0
 11
127.893
 21
112.916
 31
0.0
  0
LINE
  5
137
  8
0
 62
     7
 10
155.761
 20
111.71599999999999
 30
0.0
 11
155.761
 21
112.449
 31
0.0
  0
ARC
  5
138
  8
0
 62
     7
 10
155.27557999999999
 20
112.431068
 30
0.0
 40
0.485405
 50
2.1544560000000001
 51
87.845534000000001
  0
LINE
  5
139
  8
0
 62
     7
 10
155.2939999999999
 20
111.25
 30
0.0
 11
127.89400000000001
 21
111.25
 31
0.0
  0
ARC
  5
13A
  8
0
 62
     7
 10
155.2756399999999
 20
111.734756
 30
0.0
 40
0.48537
 50
272.14761299999998
 51
357.767765
  0
LINE
  5
13B
  8
0
 62
     7
 10
155.761
 20
111.749
 30
0.0
 11
156.29400000000001
 21
111.749
 31
0.0
  0
LINE
  5
13C
  8
0
 62
     7
 10
155.761
 20
112.416
 30
0.0
 11
156.29400000000001
 21
112.416
 31
0.0
  0
LINE
  5
13D
  8
0
 62
     7
 10
155.761
 20
112.75
 30
0.0
 11
156.29400000000001
 21
112.75
 31
0.0
  0
LINE
  5
13E
  8
0
 62
     7
 10
155.761
 20
111.416
 30
0.0
 11
156.29400000000001
 21
111.416
 31
0.0
  0
LINE
  5
13F
  8
0
 62
     7
 10
155.761
 20
111.416
 30
0.0
 11
155.761
 21
112.75
 31
0.0
  0
LINE
  5
140
  8
0
 62
     7
 10
156.29400000000001
 20
112.416
 30
0.0
 11
159.36000000000001
 21
112.416
 31
0.0
  0
LINE
  5
141
  8
0
 62
     7
 10
156.29400000000001
 20
111.749
 30
0.0
 11
159.36000000000001
 21
111.749
 31
0.0
  0
LINE
  5
142
  8
0
 62
     7
 10
156.29400000000001
 20
111.416
 30
0.0
 11
156.29400000000001
 21
112.75
 31
0.0
  0
ARC
  5
143
  8
0
 62
     7
 10
159.935113
 20
113.54139600000001
 30
0.0
 40
0.692226
 50
272.10877599999998
 51
357.891234
  0
LINE
  5
144
  8
0
 62
     7
 10
159.36000000000001
 20
112.84999999999999
 30
0.0
 11
159.96100000000001
 21
112.84999999999999
 31
0.0
  0
ARC
  5
145
  8
0
 62
     7
 10
159.935103
 20
110.624106
 30
0.0
 40
0.692236
 50
2.1095599999999992
 51
87.890430000000009
  0
LINE
  5
146
  8
0
 62
     7
 10
159.36000000000001
 20
111.316
 30
0.0
 11
159.96100000000001
 21
111.316
 31
0.0
  0
LINE
  5
147
  8
0
 62
     7
 10
159.36000000000001
 20
111.316
 30
0.0
 11
159.36000000000001
 21
112.84999999999999
 31
0.0
  0
LINE
  5
148
  8
0
 62
     7
 10
161.227
 20
113.816
 30
0.0
 11
160.62700000000001
 21
113.816
 31
0.0
  0
LINE
  5
149
  8
0
 62
     7
 10
161.227
 20
110.349
 30
0.0
 11
160.62700000000001
 21
110.349
 31
0.0
  0
LINE
  5
14A
  8
0
 62
     7
 10
161.227
 20
110.349
 30
0.0
 11
161.227
 21
113.816
 31
0.0
  0
LINE
  5
14B
  8
0
 62
     7
 10
160.62700000000001
 20
110.349
 30
0.0
 11
160.62700000000001
 21
113.816
 31
0.0
  0
LINE
  5
14C
  8
0
 62
     7
 10
127.89400000000001
 20
111.08199999999999
 30
0.0
 11
127.89400000000001
 21
113.083
 31
0.0
  0
LINE
  5
14D
  8
0
 62
     7
 10
127.89400000000001
 20
111.08199999999999
 30
0.0
 11
125.89400000000001
 21
111.08199999999999
 31
0.0
  0
LINE
  5
14E
  8
0
 62
     7
 10
127.89400000000001
 20
113.083
 30
0.0
 11
125.89400000000001
 21
113.083
 31
0.0
  0
LINE
  5
14F
  8
0
 62
     7
 10
163.72499999999999
 20
134.083
 30
0.0
 11
171.292
 21
134.083
 31
0.0
  0
LINE
  5
150
  8
0
  6
AIGENLINE001
 62
     7
 10
162.94800000000001
 20
134.083
 30
0.0
 11
150.65000000000001
 21
134.083
 31
0.0
  0
LINE
  5
151
  8
0
 62
     7
 10
155.2939999999999
 20
134.916
 30
0.0
 11
127.893
 21
134.916
 31
0.0
  0
LINE
  5
152
  8
0
 62
     7
 10
155.761
 20
133.71600000000001
 30
0.0
 11
155.761
 21
134.44900000000001
 31
0.0
  0
ARC
  5
153
  8
0
 62
     7
 10
155.27593999999999
 20
134.43124499999999
 30
0.0
 40
0.4850450000000001
 50
2.1558280000000001
 51
87.886463000000006
  0
LINE
  5
154
  8
0
 62
     7
 10
155.2939999999999
 20
133.25
 30
0.0
 11
127.89400000000001
 21
133.25
 31
0.0
  0
ARC
  5
155
  8
0
 62
     7
 10
155.27561499999999
 20
133.73459700000001
 30
0.0
 40
0.485382
 50
272.15043300000002
 51
357.807276
  0
LINE
  5
156
  8
0
 62
     7
 10
155.761
 20
133.749
 30
0.0
 11
156.29400000000001
 21
133.749
 31
0.0
  0
LINE
  5
157
  8
0
 62
     7
 10
155.761
 20
134.416
 30
0.0
 11
156.29400000000001
 21
134.416
 31
0.0
  0
LINE
  5
158
  8
0
 62
     7
 10
155.761
 20
134.75
 30
0.0
 11
156.29400000000001
 21
134.75
 31
0.0
  0
LINE
  5
159
  8
0
 62
     7
 10
155.761
 20
133.416
 30
0.0
 11
156.29400000000001
 21
133.416
 31
0.0
  0
LINE
  5
15A
  8
0
 62
     7
 10
155.761
 20
133.416
 30
0.0
 11
155.761
 21
134.75
 31
0.0
  0
LINE
  5
15B
  8
0
 62
     7
 10
156.29400000000001
 20
134.416
 30
0.0
 11
159.36000000000001
 21
134.416
 31
0.0
  0
LINE
  5
15C
  8
0
 62
     7
 10
156.29400000000001
 20
133.749
 30
0.0
 11
159.36000000000001
 21
133.749
 31
0.0
  0
LINE
  5
15D
  8
0
 62
     7
 10
156.29400000000001
 20
133.416
 30
0.0
 11
156.29400000000001
 21
134.75
 31
0.0
  0
ARC
  5
15E
  8
0
 62
     7
 10
159.93508800000001
 20
135.54123799999999
 30
0.0
 40
0.6922380000000001
 50
272.11075599999998
 51
357.91887100000002
  0
LINE
  5
15F
  8
0
 62
     7
 10
159.36000000000001
 20
134.84899999999999
 30
0.0
 11
159.96100000000001
 21
134.84899999999999
 31
0.0
  0
ARC
  5
160
  8
0
 62
     7
 10
159.934415
 20
132.623964
 30
0.0
 40
0.6929220000000002
 50
2.1051449999999998
 51
87.835624999999993
  0
LINE
  5
161
  8
0
 62
     7
 10
159.36000000000001
 20
133.316
 30
0.0
 11
159.96100000000001
 21
133.316
 31
0.0
  0
LINE
  5
162
  8
0
 62
     7
 10
159.36000000000001
 20
133.316
 30
0.0
 11
159.36000000000001
 21
134.84899999999999
 31
0.0
  0
LINE
  5
163
  8
0
 62
     7
 10
161.227
 20
135.816
 30
0.0
 11
160.62700000000001
 21
135.816
 31
0.0
  0
LINE
  5
164
  8
0
 62
     7
 10
161.227
 20
132.34899999999999
 30
0.0
 11
160.62700000000001
 21
132.34899999999999
 31
0.0
  0
LINE
  5
165
  8
0
 62
     7
 10
161.227
 20
132.34899999999999
 30
0.0
 11
161.227
 21
135.816
 31
0.0
  0
LINE
  5
166
  8
0
 62
     7
 10
160.62700000000001
 20
132.34899999999999
 30
0.0
 11
160.62700000000001
 21
135.816
 31
0.0
  0
LINE
  5
167
  8
0
 62
     7
 10
127.89400000000001
 20
133.08199999999999
 30
0.0
 11
127.89400000000001
 21
135.08199999999999
 31
0.0
  0
LINE
  5
168
  8
0
 62
     7
 10
127.89400000000001
 20
133.08199999999999
 30
0.0
 11
125.89400000000001
 21
133.08199999999999
 31
0.0
  0
LINE
  5
169
  8
0
 62
     7
 10
127.89400000000001
 20
135.08199999999999
 30
0.0
 11
125.89400000000001
 21
135.08199999999999
 31
0.0
  0
LINE
  5
16A
  8
0
 62
     7
 10
163.72499999999999
 20
156.083
 30
0.0
 11
171.292
 21
156.083
 31
0.0
  0
LINE
  5
16B
  8
0
  6
AIGENLINE001
 62
     7
 10
162.94800000000001
 20
156.083
 30
0.0
 11
150.65000000000001
 21
156.083
 31
0.0
  0
LINE
  5
16C
  8
0
 62
     7
 10
155.2939999999999
 20
156.916
 30
0.0
 11
127.893
 21
156.916
 31
0.0
  0
LINE
  5
16D
  8
0
 62
     7
 10
155.761
 20
155.71600000000001
 30
0.0
 11
155.761
 21
156.44999999999999
 31
0.0
  0
ARC
  5
16E
  8
0
 62
     7
 10
155.276104
 20
156.43157600000001
 30
0.0
 40
0.484882
 50
2.1583339999999991
 51
87.905118000000002
  0
LINE
  5
16F
  8
0
 62
     7
 10
155.2939999999999
 20
155.25
 30
0.0
 11
127.89400000000001
 21
155.25
 31
0.0
  0
ARC
  5
170
  8
0
 62
     7
 10
155.27561499999999
 20
155.73477099999999
 30
0.0
 40
0.485382
 50
272.15043300000002
 51
357.807276
  0
LINE
  5
171
  8
0
 62
     7
 10
155.761
 20
155.75
 30
0.0
 11
156.29400000000001
 21
155.75
 31
0.0
  0
LINE
  5
172
  8
0
 62
     7
 10
155.761
 20
156.416
 30
0.0
 11
156.29400000000001
 21
156.416
 31
0.0
  0
LINE
  5
173
  8
0
 62
     7
 10
155.761
 20
156.75
 30
0.0
 11
156.29400000000001
 21
156.75
 31
0.0
  0
LINE
  5
174
  8
0
 62
     7
 10
155.761
 20
155.416
 30
0.0
 11
156.29400000000001
 21
155.416
 31
0.0
  0
LINE
  5
175
  8
0
 62
     7
 10
155.761
 20
155.416
 30
0.0
 11
155.761
 21
156.75
 31
0.0
  0
LINE
  5
176
  8
0
 62
     7
 10
156.29400000000001
 20
156.416
 30
0.0
 11
159.36000000000001
 21
156.416
 31
0.0
  0
LINE
  5
177
  8
0
 62
     7
 10
156.29400000000001
 20
155.75
 30
0.0
 11
159.36000000000001
 21
155.75
 31
0.0
  0
LINE
  5
178
  8
0
 62
     7
 10
156.29400000000001
 20
155.416
 30
0.0
 11
156.29400000000001
 21
156.75
 31
0.0
  0
ARC
  5
179
  8
0
 62
     7
 10
159.93508800000001
 20
157.541584
 30
0.0
 40
0.6922380000000001
 50
272.11075599999998
 51
357.91887100000002
  0
LINE
  5
17A
  8
0
 62
     7
 10
159.36000000000001
 20
156.84999999999999
 30
0.0
 11
159.96100000000001
 21
156.84999999999999
 31
0.0
  0
ARC
  5
17B
  8
0
 62
     7
 10
159.93458999999999
 20
154.624133
 30
0.0
 40
0.692748
 50
2.1060490000000001
 51
87.849519999999998
  0
LINE
  5
17C
  8
0
 62
     7
 10
159.36000000000001
 20
155.316
 30
0.0
 11
159.96100000000001
 21
155.316
 31
0.0
  0
LINE
  5
17D
  8
0
 62
     7
 10
159.36000000000001
 20
155.316
 30
0.0
 11
159.36000000000001
 21
156.84999999999999
 31
0.0
  0
LINE
  5
17E
  8
0
 62
     7
 10
161.227
 20
157.816
 30
0.0
 11
160.62700000000001
 21
157.816
 31
0.0
  0
LINE
  5
17F
  8
0
 62
     7
 10
161.227
 20
154.34999999999999
 30
0.0
 11
160.62700000000001
 21
154.34999999999999
 31
0.0
  0
LINE
  5
180
  8
0
 62
     7
 10
161.227
 20
154.34999999999999
 30
0.0
 11
161.227
 21
157.816
 31
0.0
  0
LINE
  5
181
  8
0
 62
     7
 10
160.62700000000001
 20
154.34999999999999
 30
0.0
 11
160.62700000000001
 21
157.816
 31
0.0
  0
LINE
  5
182
  8
0
 62
     7
 10
171.292
 20
182.75
 30
0.0
 11
126.624
 21
182.75
 31
0.0
  0
LINE
  5
183
  8
0
 62
     7
 10
122.893
 20
81.749200000000002
 30
0.0
 11
122.893
 21
74.383499999999984
 31
0.0
  0
LINE
  5
184
  8
0
 62
     7
 10
127.367
 20
75.521799999999985
 30
0.0
 11
125.89400000000001
 21
75.127300000000005
 31
0.0
  0
LINE
  5
185
  8
0
 62
     7
 10
125.89400000000001
 20
75.127300000000005
 30
0.0
 11
127.367
 21
74.732500000000002
 31
0.0
  0
LINE
  5
186
  8
0
 62
     7
 10
127.367
 20
74.732500000000002
 30
0.0
 11
127.367
 21
75.521799999999985
 31
0.0
  0
LINE
  5
187
  8
0
 62
     7
 10
121.42
 20
74.747
 30
0.0
 11
122.893
 21
75.141800000000003
 31
0.0
  0
LINE
  5
188
  8
0
 62
     7
 10
122.893
 20
75.141800000000003
 30
0.0
 11
121.42
 21
75.536299999999997
 31
0.0
  0
LINE
  5
189
  8
0
 62
     7
 10
121.42
 20
75.536299999999997
 30
0.0
 11
121.42
 21
74.747
 31
0.0
  0
LINE
  5
18A
  8
0
 62
     7
 10
120.535
 20
75.134600000000006
 30
0.0
 11
130.721
 21
75.134600000000006
 31
0.0
  0
LINE
  5
18B
  8
0
 62
     7
 10
125.89400000000001
 20
81.415699999999987
 30
0.0
 11
125.89400000000001
 21
74.384200000000007
 31
0.0
  0
LINE
  5
18C
  8
0
 62
     7
 10
122.893
 20
183.75
 30
0.0
 11
122.893
 21
196.88900000000001
 31
0.0
  0
LINE
  5
18D
  8
0
 62
     7
 10
55.047800000000002
 20
134.75
 30
0.0
 11
53.574800000000003
 21
134.35499999999999
 31
0.0
  0
LINE
  5
18E
  8
0
 62
     7
 10
53.574800000000003
 20
134.35499999999999
 30
0.0
 11
55.047800000000002
 21
133.96000000000001
 31
0.0
  0
LINE
  5
18F
  8
0
 62
     7
 10
55.047800000000002
 20
133.96000000000001
 30
0.0
 11
55.047800000000002
 21
134.75
 31
0.0
  0
LINE
  5
190
  8
0
 62
     7
 10
79.769800000000004
 20
133.97399999999999
 30
0.0
 11
81.243300000000005
 21
134.369
 31
0.0
  0
LINE
  5
191
  8
0
 62
     7
 10
81.243300000000005
 20
134.369
 30
0.0
 11
79.769800000000004
 21
134.76400000000001
 31
0.0
  0
LINE
  5
192
  8
0
 62
     7
 10
79.769800000000004
 20
134.76400000000001
 30
0.0
 11
79.769800000000004
 21
133.97399999999999
 31
0.0
  0
LINE
  5
193
  8
0
 62
     7
 10
53.575699999999991
 20
134.36199999999999
 30
0.0
 11
81.242400000000004
 21
134.36199999999999
 31
0.0
  0
LINE
  5
194
  8
0
 62
     7
 10
45.548099999999991
 20
196.298
 30
0.0
 11
44.074800000000003
 21
195.90299999999999
 31
0.0
  0
LINE
  5
195
  8
0
 62
     7
 10
44.074800000000003
 20
195.90299999999999
 30
0.0
 11
45.548099999999991
 21
195.50899999999999
 31
0.0
  0
LINE
  5
196
  8
0
 62
     7
 10
45.548099999999991
 20
195.50899999999999
 30
0.0
 11
45.548099999999991
 21
196.298
 31
0.0
  0
LINE
  5
197
  8
0
 62
     7
 10
89.271100000000004
 20
195.524
 30
0.0
 11
90.744
 21
195.91800000000001
 31
0.0
  0
LINE
  5
198
  8
0
 62
     7
 10
90.744
 20
195.91800000000001
 30
0.0
 11
89.271100000000004
 21
196.3129999999999
 31
0.0
  0
LINE
  5
199
  8
0
 62
     7
 10
89.271100000000004
 20
196.3129999999999
 30
0.0
 11
89.271100000000004
 21
195.524
 31
0.0
  0
LINE
  5
19A
  8
0
 62
     7
 10
44.075600000000001
 20
195.91099999999989
 30
0.0
 11
90.742999999999995
 21
195.91099999999989
 31
0.0
  0
LINE
  5
19B
  8
0
 62
     7
 10
90.742999999999995
 20
183.84999999999999
 30
0.0
 11
90.742999999999995
 21
196.89400000000001
 31
0.0
  0
LINE
  5
19C
  8
0
 62
     7
 10
44.076099999999997
 20
183.84999999999999
 30
0.0
 11
44.076099999999997
 21
196.89400000000001
 31
0.0
  0
LINE
  5
19D
  8
0
 62
     7
 10
103.791
 20
84.221400000000003
 30
0.0
 11
104.185
 21
82.748299999999986
 31
0.0
  0
LINE
  5
19E
  8
0
 62
     7
 10
104.185
 20
82.748299999999986
 30
0.0
 11
104.58
 21
84.221400000000003
 31
0.0
  0
LINE
  5
19F
  8
0
 62
     7
 10
104.58
 20
84.221400000000003
 30
0.0
 11
103.791
 21
84.221400000000003
 31
0.0
  0
LINE
  5
1A0
  8
0
 62
     7
 10
104.566
 20
181.27699999999999
 30
0.0
 11
104.17100000000001
 21
182.751
 31
0.0
  0
LINE
  5
1A1
  8
0
 62
     7
 10
104.17100000000001
 20
182.751
 30
0.0
 11
103.776
 21
181.27699999999999
 31
0.0
  0
LINE
  5
1A2
  8
0
 62
     7
 10
103.776
 20
181.27699999999999
 30
0.0
 11
104.566
 21
181.27699999999999
 31
0.0
  0
LINE
  5
1A3
  8
0
 62
     7
 10
104.178
 20
82.749300000000005
 30
0.0
 11
104.178
 21
182.75
 31
0.0
  0
LINE
  5
1A4
  8
0
 62
     7
 10
91.609800000000007
 20
182.75
 30
0.0
 11
105.161
 21
182.75
 31
0.0
  0
LINE
  5
1A5
  8
0
 62
     7
 10
91.609800000000007
 20
82.749300000000005
 30
0.0
 11
105.161
 21
82.749300000000005
 31
0.0
  0
LINE
  5
1A6
  8
0
 62
     7
 10
68.881200000000007
 20
190.39099999999999
 30
0.0
 11
67.407899999999998
 21
189.99700000000001
 31
0.0
  0
LINE
  5
1A7
  8
0
 62
     7
 10
67.407899999999998
 20
189.99700000000001
 30
0.0
 11
68.881200000000007
 21
189.602
 31
0.0
  0
LINE
  5
1A8
  8
0
 62
     7
 10
68.881200000000007
 20
189.602
 30
0.0
 11
68.881200000000007
 21
190.39099999999999
 31
0.0
  0
LINE
  5
1A9
  8
0
 62
     7
 10
89.270700000000005
 20
189.61699999999999
 30
0.0
 11
90.743700000000004
 21
190.012
 31
0.0
  0
LINE
  5
1AA
  8
0
 62
     7
 10
90.743700000000004
 20
190.012
 30
0.0
 11
89.270700000000005
 21
190.40600000000001
 31
0.0
  0
LINE
  5
1AB
  8
0
 62
     7
 10
89.270700000000005
 20
190.40600000000001
 30
0.0
 11
89.270700000000005
 21
189.61699999999999
 31
0.0
  0
LINE
  5
1AC
  8
0
 62
     7
 10
67.408699999999996
 20
190.00399999999999
 30
0.0
 11
90.742999999999995
 21
190.00399999999999
 31
0.0
  0
LINE
  5
1AD
  8
0
 62
     7
 10
67.408699999999996
 20
170.63999999999999
 30
0.0
 11
67.408699999999996
 21
190.988
 31
0.0
  0
LINE
  5
1AE
  8
0
 62
     7
 10
35.749099999999999
 20
178.22300000000001
 30
0.0
 11
36.144100000000002
 21
176.75
 31
0.0
  0
LINE
  5
1AF
  8
0
 62
     7
 10
36.144100000000002
 20
176.75
 30
0.0
 11
36.538699999999999
 21
178.22300000000001
 31
0.0
  0
LINE
  5
1B0
  8
0
 62
     7
 10
36.538699999999999
 20
178.22300000000001
 30
0.0
 11
35.749099999999999
 21
178.22300000000001
 31
0.0
  0
LINE
  5
1B1
  8
0
 62
     7
 10
97.552300000000002
 20
166.22099999999989
 30
0.0
 11
97.947400000000002
 21
164.749
 31
0.0
  0
LINE
  5
1B2
  8
0
 62
     7
 10
97.947400000000002
 20
164.749
 30
0.0
 11
98.342100000000002
 21
166.22099999999989
 31
0.0
  0
LINE
  5
1B3
  8
0
 62
     7
 10
98.342100000000002
 20
166.22099999999989
 30
0.0
 11
97.552300000000002
 21
166.22099999999989
 31
0.0
  0
LINE
  5
1B4
  8
0
 62
     7
 10
98.327600000000004
 20
181.27799999999999
 30
0.0
 11
97.932599999999994
 21
182.751
 31
0.0
  0
LINE
  5
1B5
  8
0
 62
     7
 10
97.932599999999994
 20
182.751
 30
0.0
 11
97.537999999999997
 21
181.27799999999999
 31
0.0
  0
LINE
  5
1B6
  8
0
 62
     7
 10
97.537999999999997
 20
181.27799999999999
 30
0.0
 11
98.327600000000004
 21
181.27799999999999
 31
0.0
  0
LINE
  5
1B7
  8
0
 62
     7
 10
97.939999999999998
 20
164.749
 30
0.0
 11
97.939999999999998
 21
182.75
 31
0.0
  0
LINE
  5
1B8
  8
0
 62
     7
 10
72.759699999999995
 20
164.749
 30
0.0
 11
98.923599999999993
 21
164.749
 31
0.0
  0
ARC
  5
1B9
  8
0
 62
     7
 10
127.596553
 20
238.87461099999999
 30
0.0
 40
1.7823610000000001
 50
197.16088500000001
 51
268.82314200000002
  0
ARC
  5
1BA
  8
0
 62
     7
 10
127.492923
 20
238.893258
 30
0.0
 40
1.8018789999999989
 50
272.131666
 51
357.84556700000002
  0
ARC
  5
1BB
  8
0
 62
     7
 10
127.493658
 20
238.75923299999999
 30
0.0
 40
1.8010900000000001
 50
2.1091809999999991
 51
87.890809000000004
  0
ARC
  5
1BC
  8
0
 62
     7
 10
127.598482
 20
238.77438000000001
 30
0.0
 40
1.7851379999999999
 50
91.236951000000019
 51
162.797843
  0
ARC
  5
1BD
  8
0
 62
     7
 10
67.349314000000007
 20
164.68315899999999
 30
0.0
 40
1.8005789999999999
 50
2.110530999999999
 51
87.906541000000004
  0
ARC
  5
1BE
  8
0
 62
     7
 10
67.481352999999999
 20
164.68284700000001
 30
0.0
 40
1.800908
 50
92.108665000000016
 51
177.87991600000001
  0
ARC
  5
1BF
  8
0
 62
     7
 10
67.415087999999997
 20
164.749469
 30
0.0
 40
1.733409999999999
 50
179.99996999999999
 51
270.00002000000001
  0
ARC
  5
1C0
  8
0
 62
     7
 10
67.348803000000004
 20
164.815933
 30
0.0
 40
1.8010949999999999
 50
272.10911499999997
 51
357.885201
  0
ARC
  5
1C1
  8
0
 62
     7
 10
67.415173999999993
 20
164.74938299999999
 30
0.0
 40
2.999922999999999
 50
0.001655
 51
90.001625000000004
  0
ARC
  5
1C2
  8
0
 62
     7
 10
67.414916000000005
 20
164.74929700000001
 30
0.0
 40
3.000008999999999
 50
89.996709999999993
 51
179.99668
  0
ARC
  5
1C3
  8
0
 62
     7
 10
67.415087999999997
 20
164.749469
 30
0.0
 40
3.000179999999999
 50
179.99996999999999
 51
270.00002000000001
  0
ARC
  5
1C4
  8
0
 62
     7
 10
67.415002000000001
 20
164.74938399999999
 30
0.0
 40
3.0000949999999991
 50
270.001665
 51
0.001635
  0
LINE
  5
1C5
  8
0
  6
AIGENLINE001
 62
     7
 10
155.952
 20
164.749
 30
0.0
 11
146.46000000000001
 21
164.749
 31
0.0
  0
LINE
  5
1C6
  8
0
  6
AIGENLINE001
 62
     7
 10
71.823999999999998
 20
164.749
 30
0.0
 11
62.331299999999999
 21
164.749
 31
0.0
  0
LINE
  5
1C7
  8
0
 62
     7
 10
127.56
 20
228.613
 30
0.0
 11
127.56
 21
233.762
 31
0.0
  0
LINE
  5
1C8
  8
0
  6
AIGENLINE001
 62
     7
 10
127.56
 20
234.36600000000001
 30
0.0
 11
127.56
 21
243.99199999999999
 31
0.0
  0
LINE
  5
1C9
  8
0
  6
AIGENLINE001
 62
     7
 10
67.408699999999996
 20
159.94499999999999
 30
0.0
 11
67.408699999999996
 21
169.571
 31
0.0
  0
LINE
  5
1CA
  8
0
 62
     7
 10
132.13399999999999
 20
263.63200000000001
 30
0.0
 11
132.52799999999999
 21
262.15899999999999
 31
0.0
  0
LINE
  5
1CB
  8
0
 62
     7
 10
132.52799999999999
 20
262.15899999999999
 30
0.0
 11
132.92400000000001
 21
263.63200000000001
 31
0.0
  0
LINE
  5
1CC
  8
0
 62
     7
 10
132.92400000000001
 20
263.63200000000001
 30
0.0
 11
132.13399999999999
 21
263.63200000000001
 31
0.0
  0
LINE
  5
1CD
  8
0
 62
     7
 10
132.90899999999999
 20
259.35300000000001
 30
0.0
 11
132.51400000000001
 21
260.82600000000002
 31
0.0
  0
LINE
  5
1CE
  8
0
 62
     7
 10
132.51400000000001
 20
260.82600000000002
 30
0.0
 11
132.119
 21
259.35300000000001
 31
0.0
  0
LINE
  5
1CF
  8
0
 62
     7
 10
132.119
 20
259.35300000000001
 30
0.0
 11
132.90899999999999
 21
259.35300000000001
 31
0.0
  0
LINE
  5
1D0
  8
0
 62
     7
 10
55.860900000000001
 20
159.92099999999999
 30
0.0
 11
62.5871
 21
159.92099999999999
 31
0.0
  0
LINE
  5
1D1
  8
0
 62
     7
 10
114.498
 20
245.54499999999999
 30
0.0
 11
120.874
 21
245.54499999999999
 31
0.0
  0
LINE
  5
1D2
  8
0
 62
     7
 10
132.52199999999999
 20
257.82999999999998
 30
0.0
 11
132.52199999999999
 21
267.25799999999998
 31
0.0
  0
LINE
  5
1D3
  8
0
 62
     7
 10
126.876
 20
262.15899999999999
 30
0.0
 11
133.505
 21
262.15899999999999
 31
0.0
  0
ARC
  5
1D4
  8
0
 62
     7
 10
123.239041
 20
261.81379199999998
 30
0.0
 40
0.346072
 50
92.047434999999993
 51
177.95253500000001
  0
LINE
  5
1D5
  8
0
 62
     7
 10
125.89400000000001
 20
262.15899999999999
 30
0.0
 11
123.227
 21
262.15899999999999
 31
0.0
  0
LINE
  5
1D6
  8
0
 62
     7
 10
122.893
 20
259.029
 30
0.0
 11
122.893
 21
261.82600000000002
 31
0.0
  0
LINE
  5
1D7
  8
0
 62
     7
 10
125.89400000000001
 20
257.78699999999998
 30
0.0
 11
146.261
 21
254.90199999999999
 31
0.0
  0
LINE
  5
1D8
  8
0
 62
     7
 10
127.89400000000001
 20
258.82499999999999
 30
0.0
 11
125.89400000000001
 21
258.82499999999999
 31
0.0
  0
LINE
  5
1D9
  8
0
 62
     7
 10
127.89400000000001
 20
260.82600000000002
 30
0.0
 11
127.89400000000001
 21
258.82499999999999
 31
0.0
  0
ARC
  5
1DA
  8
0
 62
     7
 10
150.53474499999999
 20
248.04121000000001
 30
0.0
 40
0.692936
 50
2.1083080000000001
 51
87.891681999999975
  0
ARC
  5
1DB
  8
0
 62
     7
 10
123.23982599999999
 20
215.839066
 30
0.0
 40
0.346886
 50
182.172371
 51
267.82765899999998
  0
LINE
  5
1DC
  8
0
 62
     7
 10
125.89400000000001
 20
215.49199999999999
 30
0.0
 11
123.227
 21
215.49199999999999
 31
0.0
  0
LINE
  5
1DD
  8
0
 62
     7
 10
122.893
 20
215.82599999999999
 30
0.0
 11
122.893
 21
218.62299999999999
 31
0.0
  0
LINE
  5
1DE
  8
0
 62
     7
 10
125.89400000000001
 20
219.86600000000001
 30
0.0
 11
146.255
 21
222.749
 31
0.0
  0
LINE
  5
1DF
  8
0
 62
     7
 10
127.89400000000001
 20
216.82599999999999
 30
0.0
 11
127.89400000000001
 21
218.827
 31
0.0
  0
LINE
  5
1E0
  8
0
 62
     7
 10
127.89400000000001
 20
216.82599999999999
 30
0.0
 11
125.89400000000001
 21
216.82599999999999
 31
0.0
  0
LINE
  5
1E1
  8
0
 62
     7
 10
127.89400000000001
 20
218.827
 30
0.0
 11
125.89400000000001
 21
218.827
 31
0.0
  0
ARC
  5
1E2
  8
0
 62
     7
 10
150.533939
 20
229.610635
 30
0.0
 40
0.693771
 50
272.17236100000002
 51
357.82764900000001
  0
LINE
  5
1E3
  8
0
 62
     7
 10
122.893
 20
218.62299999999999
 30
0.0
 11
122.893
 21
259.029
 31
0.0
  0
LINE
  5
1E4
  8
0
 62
     7
 10
125.89400000000001
 20
262.15899999999999
 30
0.0
 11
125.89400000000001
 21
215.49199999999999
 31
0.0
  0
LINE
  5
1E5
  8
0
 62
     7
 10
151.227
 20
248.06700000000001
 30
0.0
 11
151.227
 21
229.584
 31
0.0
  0
LINE
  5
1E6
  8
0
 62
     7
 10
152.56
 20
251.441
 30
0.0
 11
152.56
 21
226.21100000000001
 31
0.0
  0
LINE
  5
1E7
  8
0
 62
     7
 10
151.227
 20
226.21199999999999
 30
0.0
 11
151.227
 21
251.44
 31
0.0
  0
ARC
  5
1E8
  8
0
 62
     7
 10
55.242628000000003
 20
172.00747000000001
 30
0.0
 40
1.666747999999999
 50
90.0
 51
179.99996999999999
  0
ARC
  5
1E9
  8
0
 62
     7
 10
49.40866599999999
 20
175.08309800000001
 30
0.0
 40
1.6665759999999989
 50
90.0
 51
179.99996999999999
  0
ARC
  5
1EA
  8
0
 62
     7
 10
49.463954999999999
 20
88.808087999999998
 30
0.0
 40
1.722516999999999
 50
181.57678999999999
 51
259.71753200000001
  0
ARC
  5
1EB
  8
0
 62
     7
 10
54.882418000000001
 20
109.659695
 30
0.0
 40
1.306538999999999
 50
180.07072500000001
 51
202.05260000000001
  0
ARC
  5
1EC
  8
0
 62
     7
 10
55.323977999999997
 20
109.81446800000001
 30
0.0
 40
1.774046
 50
201.33118400000001
 51
226.28776500000001
  0
ARC
  5
1ED
  8
0
 62
     7
 10
55.560330999999998
 20
110.018095
 30
0.0
 40
2.084778
 50
225.459767
 51
254.66680299999999
  0
LINE
  5
1EE
  8
0
 62
     7
 10
53.575699999999991
 20
109.658
 30
0.0
 11
53.575699999999991
 21
172.00700000000001
 31
0.0
  0
LINE
  5
1EF
  8
0
 62
     7
 10
47.742400000000004
 20
88.7607
 30
0.0
 11
47.742400000000004
 21
175.083
 31
0.0
  0
ARC
  5
1F0
  8
0
 62
     7
 10
79.576266000000004
 20
172.00755599999999
 30
0.0
 40
1.666661999999999
 50
359.997049
 51
89.997018999999995
  0
ARC
  5
1F1
  8
0
 62
     7
 10
85.409193999999985
 20
175.08284
 30
0.0
 40
1.666833999999999
 50
0.008892
 51
90.008861999999993
  0
ARC
  5
1F2
  8
0
 62
     7
 10
123.239029
 20
182.403672
 30
0.0
 40
0.346066
 50
92.045450999999986
 51
177.924916
  0
LINE
  5
1F3
  8
0
 62
     7
 10
123.227
 20
182.75
 30
0.0
 11
125.89400000000001
 21
182.75
 31
0.0
  0
LINE
  5
1F4
  8
0
 62
     7
 10
127.89400000000001
 20
155.083
 30
0.0
 11
127.89400000000001
 21
157.083
 31
0.0
  0
LINE
  5
1F5
  8
0
 62
     7
 10
127.89400000000001
 20
155.083
 30
0.0
 11
125.89400000000001
 21
155.083
 31
0.0
  0
LINE
  5
1F6
  8
0
 62
     7
 10
127.89400000000001
 20
157.083
 30
0.0
 11
125.89400000000001
 21
157.083
 31
0.0
  0
LINE
  5
1F7
  8
0
 62
     7
 10
122.893
 20
182.416
 30
0.0
 11
122.893
 21
176.999
 31
0.0
  0
ARC
  5
1F8
  8
0
 62
     7
 10
85.353009999999998
 20
88.808948000000001
 30
0.0
 40
1.723692999999999
 50
280.337628
 51
358.39568600000001
  0
ARC
  5
1F9
  8
0
 62
     7
 10
123.239476
 20
83.095605000000006
 30
0.0
 40
0.346537
 50
182.17598599999999
 51
267.883264
  0
LINE
  5
1FA
  8
0
 62
     7
 10
123.227
 20
82.748999999999995
 30
0.0
 11
125.89400000000001
 21
82.748999999999995
 31
0.0
  0
LINE
  5
1FB
  8
0
 62
     7
 10
122.893
 20
86.200999999999993
 30
0.0
 11
122.893
 21
83.082400000000007
 31
0.0
  0
LINE
  5
1FC
  8
0
 62
     7
 10
81.242400000000004
 20
109.657
 30
0.0
 11
81.242400000000004
 21
172.00700000000001
 31
0.0
  0
LINE
  5
1FD
  8
0
 62
     7
 10
87.0762
 20
88.761700000000005
 30
0.0
 11
87.0762
 21
175.083
 31
0.0
  0
LINE
  5
1FE
  8
0
 62
     7
 10
122.893
 20
86.200999999999993
 30
0.0
 11
122.893
 21
176.999
 31
0.0
  0
LINE
  5
1FF
  8
0
 62
     7
 10
125.89400000000001
 20
82.748999999999995
 30
0.0
 11
125.89400000000001
 21
182.75
 31
0.0
  0
ARC
  5
200
  8
0
 62
     7
 10
67.132035999999985
 20
204.56657899999999
 30
0.0
 40
118.820909
 50
261.29874100000001
 51
270.69048900000001
  0
ARC
  5
201
  8
0
 62
     7
 10
67.435176999999996
 20
208.203487
 30
0.0
 40
122.454391
 50
270.52815399999997
 51
278.56020799999999
  0
ARC
  5
202
  8
0
 62
     7
 10
69.125782999999984
 20
175.30128199999999
 30
0.0
 40
0.016345
 50
313.67748899999998
 51
359.01890700000001
  0
ARC
  5
203
  8
0
 62
     7
 10
69.089670999999996
 20
175.33534399999999
 30
0.0
 40
0.065969
 50
292.62971800000003
 51
315.93187599999999
  0
ARC
  5
204
  8
0
 62
     7
 10
68.980063999999985
 20
175.57217299999999
 30
0.0
 40
0.326893
 50
283.74725999999998
 51
294.39019300000001
  0
ARC
  5
205
  8
0
 62
     7
 10
68.745108999999999
 20
176.48560699999999
 30
0.0
 40
1.2700439999999991
 50
278.50422400000002
 51
284.25057700000002
  0
ARC
  5
206
  8
0
 62
     7
 10
68.360840999999994
 20
178.94593399999999
 30
0.0
 40
3.7601809999999989
 50
275.47259100000002
 51
278.75114300000001
  0
ARC
  5
207
  8
0
 62
     7
 10
67.918989999999994
 20
183.41811799999999
 30
0.0
 40
8.2541299999999982
 50
273.30693600000001
 51
275.56510300000002
  0
ARC
  5
208
  8
0
 62
     7
 10
67.473171999999991
 20
191.06858799999989
 30
0.0
 40
15.917579
 50
269.76799299999999
 51
273.320472
  0
ARC
  5
209
  8
0
 62
     7
 10
67.406512000000006
 20
193.83317199999999
 30
0.0
 40
18.682032
 50
267.35980799999999
 51
270.00676600000003
  0
ARC
  5
20A
  8
0
 62
     7
 10
67.016377000000006
 20
185.015355
 30
0.0
 40
9.8556179999999998
 50
265.06438600000001
 51
267.26410499999997
  0
ARC
  5
20B
  8
0
 62
     7
 10
66.538062999999994
 20
179.60072099999999
 30
0.0
 40
4.4199219999999988
 50
261.7650569999999
 51
265.20288900000003
  0
ARC
  5
20C
  8
0
 62
     7
 10
66.09485699999999
 20
176.5895689999999
 30
0.0
 40
1.376355999999999
 50
255.90614600000001
 51
262.07065799999998
  0
ARC
  5
20D
  8
0
 62
     7
 10
65.823906999999991
 20
175.53055499999999
 30
0.0
 40
0.283284
 50
242.99581499999999
 51
256.89966399999997
  0
ARC
  5
20E
  8
0
 62
     7
 10
65.707905000000011
 20
175.30935299999999
 30
0.0
 40
0.033654
 50
194.366882
 51
247.966756
  0
ARC
  5
20F
  8
0
 62
     7
 10
65.691733999999997
 20
175.30072799999999
 30
0.0
 40
0.016432
 50
133.80885799999999
 51
179.04413500000001
  0
ARC
  5
210
  8
0
 62
     7
 10
65.727796999999995
 20
175.26685599999999
 30
0.0
 40
0.065892
 50
112.689469
 51
136.05010300000001
  0
ARC
  5
211
  8
0
 62
     7
 10
65.836972000000003
 20
175.031554
 30
0.0
 40
0.3252489999999999
 50
103.743937
 51
114.444501
  0
ARC
  5
212
  8
0
 62
     7
 10
66.072213000000005
 20
174.118055
 30
0.0
 40
1.268532999999999
 50
98.507790999999997
 51
104.26214299999999
  0
ARC
  5
213
  8
0
 62
     7
 10
66.449761999999993
 20
171.70953499999999
 30
0.0
 40
3.7064449999999991
 50
95.445307000000014
 51
98.771632000000011
  0
ARC
  5
214
  8
0
 62
     7
 10
66.898551999999995
 20
167.168735
 30
0.0
 40
8.2693560000000002
 50
93.301076999999992
 51
95.555211999999983
  0
ARC
  5
215
  8
0
 62
     7
 10
67.343885999999983
 20
159.49173500000001
 30
0.0
 40
15.959262000000001
 50
89.767247999999995
 51
93.310164000000015
  0
ARC
  5
216
  8
0
 62
     7
 10
67.410886000000005
 20
156.703192
 30
0.0
 40
18.747672999999999
 50
87.368712000000016
 51
90.006625999999997
  0
ARC
  5
217
  8
0
 62
     7
 10
67.801687999999999
 20
165.57032899999999
 30
0.0
 40
9.8719579999999993
 50
85.075881999999979
 51
87.271872999999999
  0
ARC
  5
218
  8
0
 62
     7
 10
68.280828
 20
171.009523
 30
0.0
 40
4.4117239999999986
 50
81.768314000000004
 51
85.212141000000017
  0
ARC
  5
219
  8
0
 62
     7
 10
68.723444000000001
 20
174.018653
 30
0.0
 40
1.3702430000000001
 50
75.878810000000001
 51
82.070222999999999
  0
ARC
  5
21A
  8
0
 62
     7
 10
68.993832999999995
 20
175.07301699999999
 30
0.0
 40
0.281816
 50
62.913230000000013
 51
76.891553999999999
  0
ARC
  5
21B
  8
0
 62
     7
 10
69.109451000000007
 20
175.29269400000001
 30
0.0
 40
0.033714
 50
14.266514000000001
 51
67.864822000000004
  0
LINE
  5
21C
  8
0
 62
     7
 10
79.576400000000007
 20
173.67400000000001
 30
0.0
 11
55.242600000000003
 21
173.67400000000001
 31
0.0
  0
LINE
  5
21D
  8
0
 62
     7
 10
49.408700000000003
 20
176.75
 30
0.0
 11
85.408900000000003
 21
176.75
 31
0.0
  0
LINE
  5
21E
  8
0
 62
     7
 10
150.56100000000001
 20
167.69
 30
0.0
 11
150.56100000000001
 21
161.809
 31
0.0
  0
ARC
  5
21F
  8
0
 62
     7
 10
150.89583999999999
 20
167.69963999999999
 30
0.0
 40
0.33569
 50
181.313682
 51
224.65490199999999
  0
ARC
  5
220
  8
0
 62
     7
 10
145.356481
 20
168.92442399999999
 30
0.0
 40
5.1754419999999994
 50
3.016465999999999
 51
83.253760000000014
  0
LINE
  5
221
  8
0
 62
     7
 10
150.65700000000001
 20
162.036
 30
0.0
 11
151.227
 21
162.94900000000001
 31
0.0
  0
LINE
  5
222
  8
0
 62
     7
 10
150.65700000000001
 20
167.46199999999999
 30
0.0
 11
151.227
 21
166.54900000000001
 31
0.0
  0
LINE
  5
223
  8
0
 62
     7
 10
151.227
 20
166.54900000000001
 30
0.0
 11
151.227
 21
162.94900000000001
 31
0.0
  0
ARC
  5
224
  8
0
 62
     7
 10
150.89343799999989
 20
161.80115000000001
 30
0.0
 40
0.333286
 50
135.09221700000001
 51
178.699006
  0
LINE
  5
225
  8
0
 62
     7
 10
150.52500000000001
 20
169.19999999999999
 30
0.0
 11
150.56100000000001
 21
167.69
 31
0.0
  0
LINE
  5
226
  8
0
 62
     7
 10
150.56100000000001
 20
133.25
 30
0.0
 11
150.56100000000001
 21
112.916
 31
0.0
  0
LINE
  5
227
  8
0
 62
     7
 10
151.227
 20
133.25
 30
0.0
 11
151.227
 21
112.916
 31
0.0
  0
LINE
  5
228
  8
0
 62
     7
 10
161.227
 20
77.943700000000007
 30
0.0
 11
161.227
 21
196.88900000000001
 31
0.0
  0
LINE
  5
229
  8
0
 62
     7
 10
151.227
 20
155.25
 30
0.0
 11
151.227
 21
134.916
 31
0.0
  0
LINE
  5
22A
  8
0
 62
     7
 10
150.56100000000001
 20
155.25
 30
0.0
 11
150.56100000000001
 21
134.916
 31
0.0
  0
LINE
  5
22B
  8
0
 62
     7
 10
150.56100000000001
 20
161.809
 30
0.0
 11
150.56100000000001
 21
156.916
 31
0.0
  0
LINE
  5
22C
  8
0
 62
     7
 10
125.89400000000001
 20
175.84999999999999
 30
0.0
 11
145.964
 21
174.06399999999999
 31
0.0
  0
ARC
  5
22D
  8
0
 62
     7
 10
145.400038
 20
249.80742699999999
 30
0.0
 40
5.1665830000000001
 50
2.8484929999999991
 51
80.410471999999984
  0
ARC
  5
22E
  8
0
 62
     7
 10
145.40043899999989
 20
227.844246
 30
0.0
 40
5.1665099999999988
 50
279.51929999999999
 51
357.07938899999999
  0
LINE
  5
22F
  8
0
 62
     7
 10
150.56100000000001
 20
250.06700000000001
 30
0.0
 11
150.56100000000001
 21
227.584
 31
0.0
  0
LINE
  5
230
  8
_________2
 62
     7
 10
210.001
 20
148.482
 30
0.0
 11
188.251
 21
148.482
 31
0.0
  0
LINE
  5
231
  8
_________2
 62
     7
 10
105.0
 20
16.979900000000001
 30
0.0
 11
105.0
 21
-0.000344512
 31
0.0
  0
LINE
  5
232
  8
_________2
 62
     7
 10
105.0
 20
297.00200000000001
 30
0.0
 11
105.0
 21
279.98200000000003
 31
0.0
  0
LINE
  5
233
  8
_________2
 62
     7
 10
21.749700000000001
 20
148.482
 30
0.0
 11
-0.000689023
 21
148.482
 31
0.0
  0
LINE
  5
234
  8
_________2
 62
     7
 10
81.441199999999995
 20
50.875799999999991
 30
0.0
 11
79.254900000000006
 21
50.875799999999991
 31
0.0
  0
LINE
  5
235
  8
_________2
 62
     7
 10
81.933800000000005
 20
50.875799999999991
 30
0.0
 11
81.681700000000006
 21
50.875799999999991
 31
0.0
  0
LINE
  5
236
  8
_________2
 62
     7
 10
82.426500000000004
 20
50.875799999999991
 30
0.0
 11
85.351399999999998
 21
50.875799999999991
 31
0.0
  0
LINE
  5
237
  8
_________2
 62
     7
 10
81.933800000000005
 20
50.875799999999991
 30
0.0
 11
82.186000000000007
 21
50.875799999999991
 31
0.0
  0
LINE
  5
238
  8
_________2
 62
     7
 10
75.537599999999998
 20
50.875799999999991
 30
0.0
 11
73.350700000000003
 21
50.875799999999991
 31
0.0
  0
LINE
  5
239
  8
_________2
 62
     7
 10
76.029600000000002
 20
50.875799999999991
 30
0.0
 11
75.778099999999995
 21
50.875799999999991
 31
0.0
  0
LINE
  5
23A
  8
_________2
 62
     7
 10
76.029600000000002
 20
51.368400000000001
 30
0.0
 11
76.029600000000002
 21
53.555399999999999
 31
0.0
  0
LINE
  5
23B
  8
_________2
 62
     7
 10
76.029600000000002
 20
50.875799999999991
 30
0.0
 11
76.029600000000002
 21
51.128
 31
0.0
  0
LINE
  5
23C
  8
_________2
 62
     7
 10
76.522300000000001
 20
50.875799999999991
 30
0.0
 11
78.709199999999996
 21
50.875799999999991
 31
0.0
  0
LINE
  5
23D
  8
_________2
 62
     7
 10
76.029600000000002
 20
50.875799999999991
 30
0.0
 11
76.281800000000004
 21
50.875799999999991
 31
0.0
  0
LINE
  5
23E
  8
_________2
 62
     7
 10
76.029600000000002
 20
50.383800000000001
 30
0.0
 11
76.029600000000002
 21
48.196800000000003
 31
0.0
  0
LINE
  5
23F
  8
_________2
 62
     7
 10
76.029600000000002
 20
50.875799999999991
 30
0.0
 11
76.029600000000002
 21
50.624299999999991
 31
0.0
  0
LINE
  5
240
  8
_________2
 62
     7
 10
79.740700000000004
 20
49.656199999999998
 30
0.0
 11
84.918700000000001
 21
48.791499999999999
 31
0.0
  0
LINE
  5
241
  8
_________2
 62
     7
 10
79.740700000000004
 20
52.095300000000002
 30
0.0
 11
84.918700000000001
 21
52.960799999999992
 31
0.0
  0
LINE
  5
242
  8
_________2
 62
     7
 10
84.918700000000001
 20
48.791499999999999
 30
0.0
 11
84.918700000000001
 21
52.960799999999992
 31
0.0
  0
LINE
  5
243
  8
_________2
 62
     7
 10
79.740700000000004
 20
49.656199999999998
 30
0.0
 11
79.740700000000004
 21
52.095300000000002
 31
0.0
  0
ARC
  5
244
  8
_________2
 62
     7
 10
75.983362999999997
 20
50.828812999999997
 30
0.0
 40
1.2673709999999989
 50
2.1232950000000002
 51
87.909056000000007
  0
ARC
  5
245
  8
_________2
 62
     7
 10
76.076526999999999
 20
50.828847000000003
 30
0.0
 40
1.267363
 50
92.121785999999986
 51
177.878185
  0
ARC
  5
246
  8
_________2
 62
     7
 10
76.076526999999999
 20
50.922691999999998
 30
0.0
 40
1.267363
 50
182.121815
 51
267.87821400000001
  0
ARC
  5
247
  8
_________2
 62
     7
 10
75.982714000000001
 20
50.923374000000003
 30
0.0
 40
1.2680439999999991
 50
272.11916400000001
 51
357.84848499999998
  0
ARC
  5
248
  8
_________2
 62
     7
 10
76.029604000000006
 20
50.875768999999998
 30
0.0
 40
2.0849849999999992
 50
0.00001
 51
89.999980000000008
  0
ARC
  5
249
  8
_________2
 62
     7
 10
76.109640999999996
 20
50.796447000000001
 30
0.0
 40
2.1657860000000002
 50
92.117855000000034
 51
177.90105299999999
  0
ARC
  5
24A
  8
_________2
 62
     7
 10
76.109607999999994
 20
50.955773000000001
 30
0.0
 40
2.1657779999999991
 50
182.11700400000001
 51
267.88302499999998
  0
ARC
  5
24B
  8
_________2
 62
     7
 10
75.949632999999992
 20
50.956456000000003
 30
0.0
 40
2.1664590000000001
 50
272.11546800000002
 51
357.86560400000002
  0
TEXT
  5
24C
  8
_________2
 62
     7
 10
109.30500000000001
 20
22.750499999999999
 30
0.0
 40
3.0923400000000001
  1
図番
 41
0.5
  0
LINE
  5
24D
  8
_________2
 62
     7
 10
108.25
 20
26.979700000000001
 30
0.0
 11
188.251
 21
26.979700000000001
 31
0.0
  0
TEXT
  5
24E
  8
_________2
 62
     7
 10
109.30500000000001
 20
32.750300000000003
 30
0.0
 40
3.0923400000000001
  1
品番
 41
0.5
  0
TEXT
  5
24F
  8
_________2
 62
     7
 10
109.30500000000001
 20
52.889099999999999
 30
0.0
 40
3.0923400000000001
  1
名称
 41
0.5
  0
TEXT
  5
250
  8
_________2
 62
     7
 10
96.545258333333337
 20
47.892999999999986
 30
0.0
 40
3.6545800000000002
  1
mm
 41
0.5
 72
     1
 11
98.067999999999998
 21
47.892999999999986
 31
0.0
  0
TEXT
  5
251
  8
_________2
 62
     7
 10
90.343400000000003
 20
52.889099999999999
 30
0.0
 40
3.0923400000000001
  1
単位
 41
0.5
  0
TEXT
  5
252
  8
_________2
 62
     7
 10
90.343400000000003
 20
40.481900000000003
 30
0.0
 40
3.0923400000000001
  1
尺度
 41
0.5
  0
TEXT
  5
253
  8
_________2
 62
     7
 10
94.639861999999994
 20
34.288899999999998
 30
0.0
 40
3.6545800000000002
  1
1 ： 15
 41
0.5
 72
     1
 11
98.659899999999993
 21
34.288899999999998
 31
0.0
  0
TEXT
  5
254
  8
_________2
 62
     7
 10
141.69049999999999
 20
30.178899999999999
 30
0.0
 40
3.9357000000000002
  1
VR5251R
 41
0.5
 72
     1
 11
148.25
 21
30.178899999999999
 31
0.0
  0
TEXT
  5
255
  8
_________2
 62
     7
 10
141.69049999999999
 20
20.1784
 30
0.0
 40
3.9357000000000002
  1
VR5251R
 41
0.5
 72
     1
 11
148.25
 21
20.1784
 31
0.0
  0
TEXT
  5
256
  8
_________2
 62
     7
 10
29.286899999999999
 20
21.778300000000002
 30
0.0
 40
3.9357000000000002
  1
実容量：155L、重量：19kg
 41
0.5
  0
TEXT
  5
257
  8
_________2
 62
     7
 10
113.879
 20
45.296700000000001
 30
0.0
 40
3.9357000000000002
  1
ネオン バスタブ　1500サイズ
 41
0.5
  0
TEXT
  5
258
  8
_________2
 62
     7
 10
44.125500333333328
 20
34.674100000000003
 30
0.0
 40
3.6545800000000002
  1
早川
 41
0.5
 72
     1
 11
46.0137
 21
34.674100000000003
 31
0.0
  0
TEXT
  5
259
  8
_________2
 62
     7
 10
25.49059066666667
 20
34.674100000000003
 30
0.0
 40
3.6545800000000002
  1
石原
 41
0.5
 72
     1
 11
27.439699999999998
 21
34.674100000000003
 31
0.0
  0
TEXT
  5
25A
  8
_________2
 62
     7
 10
72.486000000000004
 20
34.288899999999998
 30
0.0
 40
3.6545800000000002
  1
15.10.08
 41
0.5
  0
TEXT
  5
25B
  8
_________2
 62
     7
 10
71.293300000000002
 20
40.481900000000003
 30
0.0
 40
3.0923400000000001
  1
日付
 41
0.5
  0
TEXT
  5
25C
  8
_________2
 62
     7
 10
34.339599999999997
 20
40.481900000000003
 30
0.0
 40
3.0923400000000001
  1
検図
 41
0.5
  0
TEXT
  5
25D
  8
_________2
 62
     7
 10
22.7212
 20
26.282499999999999
 30
0.0
 40
3.0923400000000001
  1
備考
 41
0.5
  0
TEXT
  5
25E
  8
_________2
 62
     7
 10
22.7212
 20
40.481900000000003
 30
0.0
 40
3.0923400000000001
  1
製図
 41
0.5
  0
TEXT
  5
25F
  8
_________2
 62
     7
 10
28.488665333333341
 20
49.00780000000001
 30
0.0
 40
4.4979399999999989
  1
セラトレーディング株式会社
 41
0.5
 72
     1
 11
45.880699999999997
 21
49.00780000000001
 31
0.0
  0
LINE
  5
260
  8
_________2
 62
     7
 10
188.251
 20
16.979900000000001
 30
0.0
 11
21.749700000000001
 21
16.979900000000001
 31
0.0
  0
LINE
  5
261
  8
_________2
 62
     7
 10
21.749700000000001
 20
16.979900000000001
 30
0.0
 11
21.749700000000001
 21
279.98200000000003
 31
0.0
  0
LINE
  5
262
  8
_________2
 62
     7
 10
21.749700000000001
 20
279.98200000000003
 30
0.0
 11
188.251
 21
279.98200000000003
 31
0.0
  0
LINE
  5
263
  8
_________2
 62
     7
 10
188.251
 20
279.98200000000003
 30
0.0
 11
188.251
 21
16.979900000000001
 31
0.0
  0
LINE
  5
264
  8
_________2
 62
     7
 10
70.250100000000003
 20
30.48
 30
0.0
 11
70.250100000000003
 21
56.979799999999997
 31
0.0
  0
LINE
  5
265
  8
_________2
 62
     7
 10
89.249899999999997
 20
30.48
 30
0.0
 11
89.249899999999997
 21
56.979799999999997
 31
0.0
  0
LINE
  5
266
  8
_________2
 62
     7
 10
108.25
 20
16.979900000000001
 30
0.0
 11
108.25
 21
56.979799999999997
 31
0.0
  0
LINE
  5
267
  8
_________2
 62
     7
 10
33.249499999999998
 20
30.48
 30
0.0
 11
33.249499999999998
 21
44.4803
 31
0.0
  0
LINE
  5
268
  8
_________2
 62
     7
 10
21.749700000000001
 20
30.48
 30
0.0
 11
108.25
 21
30.48
 31
0.0
  0
LINE
  5
269
  8
_________2
 62
     7
 10
21.749700000000001
 20
44.4803
 30
0.0
 11
108.25
 21
44.4803
 31
0.0
  0
LINE
  5
26A
  8
_________2
 62
     7
 10
108.25
 20
36.979500000000002
 30
0.0
 11
188.251
 21
36.979500000000002
 31
0.0
  0
LINE
  5
26B
  8
_________2
 62
     7
 10
21.749700000000001
 20
56.979799999999997
 30
0.0
 11
188.251
 21
56.979799999999997
 31
0.0
  0
ENDSEC
  0
EOF
