  0
SECTION
  2
HEADER
  9
$ACADVER
  1
AC1009
  9
$INSBASE
 10
0.0
 20
0.0
 30
0.0
  9
$EXTMIN
 10
-0.000689023
 20
-0.000344512
 30
0.0
  9
$EXTMAX
 10
210.001
 20
297.00200000000001
 30
0.0
  9
$LIMMIN
 10
0.0
 20
0.0
  9
$LIMMAX
 10
12.0
 20
9.0
  9
$ORTHOMODE
 70
     0
  9
$REGENMODE
 70
     1
  9
$FILLMODE
 70
     1
  9
$QTEXTMODE
 70
     0
  9
$MIRRTEXT
 70
     1
  9
$DRAGMODE
 70
     2
  9
$LTSCALE
 40
1.0
  9
$OSMODE
 70
    37
  9
$ATTMODE
 70
     1
  9
$TEXTSIZE
 40
0.0
  9
$TRACEWID
 40
0.05
  9
$TEXTSTYLE
  7
STANDARD
  9
$CLAYER
  8
0
  9
$CELTYPE
  6
CONTINUOUS
  9
$CECOLOR
 62
   256
  9
$DIMSCALE
 40
1.0
  9
$DIMASZ
 40
0.18
  9
$DIMEXO
 40
0.0625
  9
$DIMDLI
 40
0.38
  9
$DIMRND
 40
0.0
  9
$DIMDLE
 40
0.0
  9
$DIMEXE
 40
0.18
  9
$DIMTP
 40
0.0
  9
$DIMTM
 40
0.0
  9
$DIMTXT
 40
0.18
  9
$DIMCEN
 40
0.09
  9
$DIMTSZ
 40
0.0
  9
$DIMTOL
 70
     0
  9
$DIMLIM
 70
     0
  9
$DIMTIH
 70
     1
  9
$DIMTOH
 70
     1
  9
$DIMSE1
 70
     0
  9
$DIMSE2
 70
     0
  9
$DIMTAD
 70
     0
  9
$DIMZIN
 70
     0
  9
$DIMBLK
  1

  9
$DIMASO
 70
     1
  9
$DIMSHO
 70
     1
  9
$DIMPOST
  1

  9
$DIMAPOST
  1

  9
$DIMALT
 70
     0
  9
$DIMALTD
 70
     2
  9
$DIMALTF
 40
25.399999999999999
  9
$DIMLFAC
 40
1.0
  9
$DIMTOFL
 70
     0
  9
$DIMTVP
 40
0.0
  9
$DIMTIX
 70
     0
  9
$DIMSOXD
 70
     0
  9
$DIMSAH
 70
     0
  9
$DIMBLK1
  1

  9
$DIMBLK2
  1

  9
$DIMSTYLE
  2
STANDARD
  9
$DIMCLRD
 70
     0
  9
$DIMCLRE
 70
     0
  9
$DIMCLRT
 70
     0
  9
$DIMTFAC
 40
1.0
  9
$DIMGAP
 40
0.09
  9
$LUNITS
 70
     2
  9
$LUPREC
 70
     4
  9
$SKETCHINC
 40
0.1
  9
$FILLETRAD
 40
0.0
  9
$AUNITS
 70
     0
  9
$AUPREC
 70
     0
  9
$MENU
  1
.
  9
$ELEVATION
 40
0.0
  9
$PELEVATION
 40
0.0
  9
$THICKNESS
 40
0.0
  9
$LIMCHECK
 70
     0
  9
$BLIPMODE
 70
     0
  9
$CHAMFERA
 40
0.0
  9
$CHAMFERB
 40
0.0
  9
$SKPOLY
 70
     0
  9
$TDCREATE
 40
2444972.375
  9
$TDUPDATE
 40
2457332.2543886122
  9
$TDINDWG
 40
0.0000285069
  9
$TDUSRTIMER
 40
0.0000285069
  9
$USRTIMER
 70
     1
  9
$ANGBASE
 50
0.0
  9
$ANGDIR
 70
     0
  9
$PDMODE
 70
     0
  9
$PDSIZE
 40
0.0
  9
$PLINEWID
 40
0.0
  9
$COORDS
 70
     1
  9
$SPLFRAME
 70
     0
  9
$SPLINETYPE
 70
     6
  9
$SPLINESEGS
 70
     8
  9
$ATTDIA
 70
     1
  9
$ATTREQ
 70
     1
  9
$HANDLING
 70
     1
  9
$HANDSEED
  5
31B
  9
$SURFTAB1
 70
     6
  9
$SURFTAB2
 70
     6
  9
$SURFTYPE
 70
     6
  9
$SURFU
 70
     6
  9
$SURFV
 70
     6
  9
$UCSNAME
  2

  9
$UCSORG
 10
0.0
 20
0.0
 30
0.0
  9
$UCSXDIR
 10
1.0
 20
0.0
 30
0.0
  9
$UCSYDIR
 10
0.0
 20
1.0
 30
0.0
  9
$PUCSNAME
  2

  9
$PUCSORG
 10
0.0
 20
0.0
 30
0.0
  9
$PUCSXDIR
 10
1.0
 20
0.0
 30
0.0
  9
$PUCSYDIR
 10
0.0
 20
1.0
 30
0.0
  9
$USERI1
 70
     0
  9
$USERI2
 70
     0
  9
$USERI3
 70
     0
  9
$USERI4
 70
     0
  9
$USERI5
 70
     0
  9
$USERR1
 40
0.0
  9
$USERR2
 40
0.0
  9
$USERR3
 40
0.0
  9
$USERR4
 40
0.0
  9
$USERR5
 40
0.0
  9
$WORLDVIEW
 70
     1
  9
$SHADEDGE
 70
     3
  9
$SHADEDIF
 70
    70
  9
$TILEMODE
 70
     1
  9
$MAXACTVP
 70
    48
  9
$PLIMCHECK
 70
     0
  9
$PEXTMIN
 10
1.0000000000000000E+020
 20
1.0000000000000000E+020
 30
1.0000000000000000E+020
  9
$PEXTMAX
 10
-1.0000000000000000E+020
 20
-1.0000000000000000E+020
 30
-1.0000000000000000E+020
  9
$PLIMMIN
 10
0.0
 20
0.0
  9
$PLIMMAX
 10
12.0
 20
9.0
  9
$UNITMODE
 70
     0
  9
$VISRETAIN
 70
     1
  9
$PLINEGEN
 70
     0
  9
$PSLTSCALE
 70
     1
  0
ENDSEC
  0
SECTION
  2
TABLES
  0
TABLE
  2
VPORT
 70
     1
  0
VPORT
  2
*ACTIVE
 70
     0
 10
0.0
 20
0.0
 11
1.0
 21
1.0
 12
170.42796018490671
 22
148.50082774399999
 13
0.0
 23
0.0
 14
1.0
 24
1.0
 15
0.0
 25
0.0
 16
0.0
 26
0.0
 36
1.0
 17
0.0
 27
0.0
 37
0.0
 40
283.5287645499867
 41
2.1001926782273599
 42
50.0
 43
0.0
 44
0.0
 50
0.0
 51
0.0
 71
     0
 72
   100
 73
     1
 74
     1
 75
     0
 76
     0
 77
     0
 78
     0
  0
ENDTAB
  0
TABLE
  2
LTYPE
 70
     2
  0
LTYPE
  2
CONTINUOUS
 70
     0
  3
Solid line
 72
    65
 73
     0
 40
0.0
  0
LTYPE
  2
AIGENLINE001
 70
     0
  3
generate AI->DXF Converter
 72
    65
 73
     4
 40
5.8561449999999988
 49
3.5278
 49
-0.776115
 49
0.776115
 49
-0.776115
  0
ENDTAB
  0
TABLE
  2
LAYER
 70
     2
  0
LAYER
  2
0
 70
     0
 62
     7
  6
CONTINUOUS
  0
LAYER
  2
_________2
 70
     0
 62
     7
  6
CONTINUOUS
  0
ENDTAB
  0
TABLE
  2
STYLE
 70
     1
  0
STYLE
  2
STANDARD
 70
     0
 40
0.0
 41
0.0
 50
0.0
 71
     0
 42
0.0
  3
TXT
  4
EXTFONT.SHX
  0
ENDTAB
  0
TABLE
  2
VIEW
 70
     0
  0
ENDTAB
  0
TABLE
  2
UCS
 70
     0
  0
ENDTAB
  0
TABLE
  2
APPID
 70
     3
  0
APPID
  2
ACAD
 70
     0
  0
APPID
  2
ACAD_NAV_VCDISPLAY
 70
     0
  0
APPID
  2
ACAD_MLEADERVER
 70
     0
  0
ENDTAB
  0
TABLE
  2
DIMSTYLE
 70
     1
  0
DIMSTYLE
  2
STANDARD
 70
     0
  3

  4

  5

  6

  7

 40
1.0
 41
0.18
 42
0.0625
 43
0.38
 44
0.18
 45
0.0
 46
0.0
 47
0.0
 48
0.0
140
0.18
141
0.09
142
0.0
143
25.399999999999999
144
1.0
145
0.0
146
1.0
147
0.09
 71
     0
 72
     0
 73
     1
 74
     1
 75
     0
 76
     0
 77
     0
 78
     0
170
     0
171
     2
172
     0
173
     0
174
     0
175
     0
176
     0
177
     0
178
     0
  0
ENDTAB
  0
ENDSEC
  0
SECTION
  2
BLOCKS
  0
BLOCK
  8
0
  2
$MODEL_SPACE
 70
     0
 10
0.0
 20
0.0
 30
0.0
  3
$MODEL_SPACE
  1

  0
ENDBLK
  5
1A
  8
0
  0
BLOCK
 67
     1
  8
0
  2
$PAPER_SPACE
 70
     0
 10
0.0
 20
0.0
 30
0.0
  3
$PAPER_SPACE
  1

  0
ENDBLK
  5
17
 67
     1
  8
0
  0
ENDSEC
  0
SECTION
  2
ENTITIES
  0
TEXT
  5
22
  8
0
 62
     7
 10
162.821831
 20
191.00999999999999
 30
0.0
 40
3.0923400000000001
  1
100～150
 41
0.5
 72
     2
 11
171.63499999999999
 21
191.00999999999999
 31
0.0
  0
TEXT
  5
23
  8
0
 62
     7
 10
149.03306749999999
 20
191.559
 30
0.0
 40
3.0923400000000001
  1
10
 41
0.5
 72
     1
 11
149.935
 21
191.559
 31
0.0
  0
TEXT
  5
24
  8
0
 62
     7
 10
136.64548300000001
 20
198.61099999999999
 30
0.0
 40
3.0923400000000001
  1
525～575
 41
0.5
 72
     1
 11
141.95400000000001
 21
198.61099999999999
 31
0.0
  0
TEXT
  5
25
  8
0
 62
     7
 10
133.904135
 20
191.00999999999999
 30
0.0
 40
3.0923400000000001
  1
415
 41
0.5
 72
     1
 11
135.708
 21
191.00999999999999
 31
0.0
  0
TEXT
  5
26
  8
0
 62
     7
 10
136.21744000000001
 20
232.01599999999999
 30
0.0
 40
3.0923400000000001
  1
345
 41
0.5
 72
     1
 11
138.279
 21
232.01599999999999
 31
0.0
  0
TEXT
  5
27
  8
0
 62
     7
 10
117.125
 20
231.946
 30
0.0
 40
3.0923400000000001
  1
70
 41
0.5
  0
TEXT
  5
28
  8
0
 62
     7
 10
58.848300000000002
 20
160.75299999999999
 30
0.0
 40
3.0923400000000001
  1
%%c52
 41
0.5
  0
TEXT
  5
29
  8
0
 62
     7
 10
113.63500000000001
 20
248.00700000000001
 30
0.0
 40
3.0923400000000001
  1
%%c52
 41
0.5
  0
TEXT
  5
2A
  8
0
 62
     7
 10
45.605725
 20
68.441000000000003
 30
0.0
 40
3.0923400000000001
  1
55
 41
0.5
 72
     1
 11
46.894199999999998
 21
68.441000000000003
 31
0.0
  0
TEXT
  5
2B
  8
0
 62
     7
 10
67.694787500000004
 20
68.441000000000003
 30
0.0
 40
3.0923400000000001
  1
640
 41
0.5
 72
     1
 11
69.627499999999984
 21
68.441000000000003
 31
0.0
  0
TEXT
  5
2C
  8
0
 62
     7
 10
127.31305
 20
68.441000000000003
 30
0.0
 40
3.0923400000000001
  1
45
 41
0.5
 72
     2
 11
129.88999999999999
 21
68.441000000000003
 31
0.0
  0
TEXT
  5
2D
  8
0
 62
     7
 10
91.947424999999996
 20
68.441000000000003
 30
0.0
 40
3.0923400000000001
  1
55
 41
0.5
 72
     1
 11
93.235900000000015
 21
68.441000000000003
 31
0.0
  0
TEXT
  5
2E
  8
0
 62
     7
 10
67.950287500000002
 20
126.768
 30
0.0
 40
3.0923400000000001
  1
450
 41
0.5
 72
     1
 11
69.882999999999996
 21
126.768
 31
0.0
  0
TEXT
  5
2F
  8
0
 62
     7
 10
80.558040000000005
 20
191.018
 30
0.0
 40
3.0923400000000001
  1
375
 41
0.5
 72
     1
 11
82.619600000000005
 21
191.018
 31
0.0
  0
TEXT
  5
30
  8
0
 62
     7
 10
68.090187500000013
 20
196.92400000000001
 30
0.0
 40
3.0923400000000001
  1
750
 41
0.5
 72
     1
 11
70.022900000000007
 21
196.92400000000001
 31
0.0
  0
TEXT
  5
31
  8
0
 62
     7
 10
80.272599999999997
 20
136.16259249999999
 30
0.0
 40
3.0923400000000001
  1
1120
 50
90.0
 41
0.5
 72
     1
 11
80.272599999999997
 21
138.35300000000001
 31
0.0
  0
TEXT
  5
32
  8
0
 62
     7
 10
101.675
 20
172.05228750000001
 30
0.0
 40
3.0923400000000001
  1
270
 50
90.0
 41
0.5
 72
     1
 11
101.675
 21
173.98500000000001
 31
0.0
  0
TEXT
  5
33
  8
0
 62
     7
 10
168.65899999999999
 20
238.52744000000001
 30
0.0
 40
3.0923400000000001
  1
535
 50
90.0
 41
0.5
 72
     1
 11
168.65899999999999
 21
240.589
 31
0.0
  0
TEXT
  5
34
  8
0
 62
     7
 10
168.61600000000001
 20
168.23128750000001
 30
0.0
 40
3.0923400000000001
  1
390
 50
90.0
 41
0.5
 72
     1
 11
168.61600000000001
 21
170.16399999999999
 31
0.0
  0
TEXT
  5
35
  8
0
 62
     7
 10
168.61600000000001
 20
141.76928749999999
 30
0.0
 40
3.0923400000000001
  1
390
 50
90.0
 41
0.5
 72
     1
 11
168.61600000000001
 21
143.702
 31
0.0
  0
TEXT
  5
36
  8
0
 62
     7
 10
168.61600000000001
 20
115.91228750000001
 30
0.0
 40
3.0923400000000001
  1
390
 50
90.0
 41
0.5
 72
     1
 11
168.61600000000001
 21
117.845
 31
0.0
  0
TEXT
  5
37
  8
0
 62
     7
 10
168.61600000000001
 20
88.639787500000011
 30
0.0
 40
3.0923400000000001
  1
430
 50
90.0
 41
0.5
 72
     1
 11
168.61600000000001
 21
90.572500000000005
 31
0.0
  0
TEXT
  5
38
  8
0
 62
     7
 10
131.00999999999999
 20
268.26874499999991
 30
0.0
 40
3.0923400000000001
  1
20
 50
90.0
 41
0.5
 72
     2
 11
131.00999999999999
 21
270.58800000000002
 31
0.0
  0
TEXT
  5
39
  8
0
 62
     7
 10
107.827
 20
127.18174500000001
 30
0.0
 40
3.0923400000000001
  1
1600
 50
90.0
 41
0.5
 72
     1
 11
107.827
 21
129.501
 31
0.0
  0
TEXT
  5
3A
  8
0
 62
     7
 10
36.697200000000002
 20
76.549124999999989
 30
0.0
 40
3.0923400000000001
  1
45
 50
90.0
 41
0.5
 72
     1
 11
36.697200000000002
 21
77.837599999999995
 31
0.0
  0
TEXT
  5
3B
  8
0
 62
     7
 10
36.697200000000002
 20
178.89137249999999
 30
0.0
 40
3.0923400000000001
  1
90
 50
90.0
 41
0.5
 72
     1
 11
36.697200000000002
 21
180.05099999999999
 31
0.0
  0
TEXT
  5
3C
  8
0
 62
     7
 10
36.697200000000002
 20
125.40105
 30
0.0
 40
3.0923400000000001
  1
1465
 50
90.0
 41
0.5
 72
     1
 11
36.697200000000002
 21
127.97799999999999
 31
0.0
  0
ARC
  5
3D
  8
0
 62
     7
 10
94.833696000000003
 20
76.742452999999983
 30
0.0
 40
0.346531
 50
272.144384
 51
357.826008
  0
LINE
  5
3E
  8
0
 62
     7
 10
94.846699999999984
 20
76.396199999999993
 30
0.0
 11
45.512900000000002
 21
76.396199999999993
 31
0.0
  0
ARC
  5
3F
  8
0
 62
     7
 10
45.525658999999997
 20
76.742217000000011
 30
0.0
 40
0.346287
 50
182.13659200000001
 51
267.893056
  0
LINE
  5
40
  8
0
 62
     7
 10
45.179600000000001
 20
76.729299999999995
 30
0.0
 11
45.179600000000001
 21
182.72999999999999
 31
0.0
  0
ARC
  5
41
  8
0
 62
     7
 10
45.525675999999997
 20
182.71730500000001
 30
0.0
 40
0.346298
 50
92.109700000000004
 51
177.89027100000001
  0
LINE
  5
42
  8
0
 62
     7
 10
45.512900000000002
 20
183.06299999999999
 30
0.0
 11
94.846699999999984
 21
183.06299999999999
 31
0.0
  0
ARC
  5
43
  8
0
 62
     7
 10
94.834305000000001
 20
182.71769599999999
 30
0.0
 40
0.345893
 50
2.0472950000000001
 51
87.952694999999991
  0
LINE
  5
44
  8
0
 62
     7
 10
95.180000000000007
 20
182.72999999999999
 30
0.0
 11
95.180000000000007
 21
76.729299999999995
 31
0.0
  0
LINE
  5
45
  8
0
 62
     7
 10
121.98099999999999
 20
190.31
 30
0.0
 11
171.63499999999999
 21
190.31
 31
0.0
  0
LINE
  5
46
  8
0
 62
     7
 10
153.50999999999999
 20
257.089
 30
0.0
 11
152.28999999999999
 21
256.78100000000001
 31
0.0
  0
LINE
  5
47
  8
0
 62
     7
 10
153.857
 20
255.80099999999999
 30
0.0
 11
152.637
 21
255.494
 31
0.0
  0
LINE
  5
48
  8
0
 62
     7
 10
153.50999999999999
 20
224.08799999999999
 30
0.0
 11
152.28999999999999
 21
224.39599999999999
 31
0.0
  0
LINE
  5
49
  8
0
 62
     7
 10
153.857
 20
225.375
 30
0.0
 11
152.637
 21
225.68299999999999
 31
0.0
  0
LINE
  5
4A
  8
0
 62
     7
 10
151.78800000000001
 20
190.70500000000001
 30
0.0
 11
150.315
 21
190.31
 31
0.0
  0
LINE
  5
4B
  8
0
 62
     7
 10
150.315
 20
190.31
 30
0.0
 11
151.78800000000001
 21
189.916
 31
0.0
  0
LINE
  5
4C
  8
0
 62
     7
 10
151.78800000000001
 20
189.916
 30
0.0
 11
151.78800000000001
 21
190.70500000000001
 31
0.0
  0
LINE
  5
4D
  8
0
 62
     7
 10
123.45399999999999
 20
198.298
 30
0.0
 11
121.98099999999999
 21
197.90299999999999
 31
0.0
  0
LINE
  5
4E
  8
0
 62
     7
 10
121.98099999999999
 20
197.90299999999999
 30
0.0
 11
123.45399999999999
 21
197.50899999999999
 31
0.0
  0
LINE
  5
4F
  8
0
 62
     7
 10
123.45399999999999
 20
197.50899999999999
 30
0.0
 11
123.45399999999999
 21
198.298
 31
0.0
  0
LINE
  5
50
  8
0
 62
     7
 10
158.84299999999999
 20
197.524
 30
0.0
 11
160.315
 21
197.91800000000001
 31
0.0
  0
LINE
  5
51
  8
0
 62
     7
 10
160.315
 20
197.91800000000001
 30
0.0
 11
158.84299999999999
 21
198.31299999999999
 31
0.0
  0
LINE
  5
52
  8
0
 62
     7
 10
158.84299999999999
 20
198.31299999999999
 30
0.0
 11
158.84299999999999
 21
197.524
 31
0.0
  0
LINE
  5
53
  8
0
 62
     7
 10
121.98099999999999
 20
197.911
 30
0.0
 11
160.315
 21
197.911
 31
0.0
  0
LINE
  5
54
  8
0
 62
     7
 10
123.45399999999999
 20
190.70500000000001
 30
0.0
 11
121.98099999999999
 21
190.31
 31
0.0
  0
LINE
  5
55
  8
0
 62
     7
 10
121.98099999999999
 20
190.31
 30
0.0
 11
123.45399999999999
 21
189.916
 31
0.0
  0
LINE
  5
56
  8
0
 62
     7
 10
123.45399999999999
 20
189.916
 30
0.0
 11
123.45399999999999
 21
190.70500000000001
 31
0.0
  0
LINE
  5
57
  8
0
 62
     7
 10
148.17599999999999
 20
189.93100000000001
 30
0.0
 11
149.649
 21
190.32499999999999
 31
0.0
  0
LINE
  5
58
  8
0
 62
     7
 10
149.649
 20
190.32499999999999
 30
0.0
 11
148.17599999999999
 21
190.72
 31
0.0
  0
LINE
  5
59
  8
0
 62
     7
 10
148.17599999999999
 20
190.72
 30
0.0
 11
148.17599999999999
 21
189.93100000000001
 31
0.0
  0
LINE
  5
5A
  8
0
 62
     7
 10
158.84299999999999
 20
189.93100000000001
 30
0.0
 11
160.316
 21
190.32499999999999
 31
0.0
  0
LINE
  5
5B
  8
0
 62
     7
 10
160.316
 20
190.32499999999999
 30
0.0
 11
158.84299999999999
 21
190.72
 31
0.0
  0
LINE
  5
5C
  8
0
 62
     7
 10
158.84299999999999
 20
190.72
 30
0.0
 11
158.84299999999999
 21
189.93100000000001
 31
0.0
  0
LINE
  5
5D
  8
0
 62
     7
 10
121.98099999999999
 20
190.31800000000001
 30
0.0
 11
160.315
 21
190.31800000000001
 31
0.0
  0
LINE
  5
5E
  8
0
 62
     7
 10
150.315
 20
168.97
 30
0.0
 11
150.315
 21
191.261
 31
0.0
  0
LINE
  5
5F
  8
0
 62
     7
 10
149.649
 20
172.541
 30
0.0
 11
149.649
 21
191.261
 31
0.0
  0
LINE
  5
60
  8
0
 62
     7
 10
121.98099999999999
 20
184.06399999999999
 30
0.0
 11
121.98099999999999
 21
198.88900000000001
 31
0.0
  0
LINE
  5
61
  8
0
  6
AIGENLINE001
 62
     7
 10
155.03999999999999
 20
165.06299999999999
 30
0.0
 11
145.548
 21
165.06299999999999
 31
0.0
  0
LINE
  5
62
  8
0
 62
     7
 10
160.315
 20
78.257199999999997
 30
0.0
 11
160.315
 21
198.88999999999999
 31
0.0
  0
LINE
  5
63
  8
0
 62
     7
 10
128.12100000000001
 20
231.703
 30
0.0
 11
126.648
 21
231.309
 31
0.0
  0
LINE
  5
64
  8
0
 62
     7
 10
126.648
 20
231.309
 30
0.0
 11
128.12100000000001
 21
230.91399999999999
 31
0.0
  0
LINE
  5
65
  8
0
 62
     7
 10
128.12100000000001
 20
230.91399999999999
 30
0.0
 11
128.12100000000001
 21
231.703
 31
0.0
  0
LINE
  5
66
  8
0
 62
     7
 10
120.509
 20
230.928
 30
0.0
 11
121.982
 21
231.32300000000001
 31
0.0
  0
LINE
  5
67
  8
0
 62
     7
 10
121.982
 20
231.32300000000001
 30
0.0
 11
120.509
 21
231.71799999999999
 31
0.0
  0
LINE
  5
68
  8
0
 62
     7
 10
120.509
 20
231.71799999999999
 30
0.0
 11
120.509
 21
230.928
 31
0.0
  0
LINE
  5
69
  8
0
 62
     7
 10
148.17599999999999
 20
230.928
 30
0.0
 11
149.649
 21
231.32300000000001
 31
0.0
  0
LINE
  5
6A
  8
0
 62
     7
 10
149.649
 20
231.32300000000001
 30
0.0
 11
148.17599999999999
 21
231.71799999999999
 31
0.0
  0
LINE
  5
6B
  8
0
 62
     7
 10
148.17599999999999
 20
231.71799999999999
 30
0.0
 11
148.17599999999999
 21
230.928
 31
0.0
  0
LINE
  5
6C
  8
0
 62
     7
 10
117.125
 20
231.316
 30
0.0
 11
149.649
 21
231.316
 31
0.0
  0
LINE
  5
6D
  8
0
 62
     7
 10
124.125
 20
242.59700000000001
 30
0.0
 11
125.44499999999999
 21
241.83500000000001
 31
0.0
  0
LINE
  5
6E
  8
0
 62
     7
 10
125.44499999999999
 20
241.83500000000001
 30
0.0
 11
124.68300000000001
 21
243.155
 31
0.0
  0
LINE
  5
6F
  8
0
 62
     7
 10
124.68300000000001
 20
243.155
 30
0.0
 11
124.125
 21
242.59700000000001
 31
0.0
  0
LINE
  5
70
  8
0
 62
     7
 10
129.209
 20
238.61699999999999
 30
0.0
 11
127.889
 21
239.38
 31
0.0
  0
LINE
  5
71
  8
0
 62
     7
 10
127.889
 20
239.38
 30
0.0
 11
128.65199999999999
 21
238.06
 31
0.0
  0
LINE
  5
72
  8
0
 62
     7
 10
128.65199999999999
 20
238.06
 30
0.0
 11
129.209
 21
238.61699999999999
 31
0.0
  0
LINE
  5
73
  8
0
 62
     7
 10
130.78999999999999
 20
236.47900000000001
 30
0.0
 11
119.962
 21
247.30699999999999
 31
0.0
  0
ARC
  5
74
  8
0
 62
     7
 10
126.683877
 20
240.63587999999999
 30
0.0
 40
1.781272
 50
197.12951899999999
 51
268.83556599999997
  0
ARC
  5
75
  8
0
 62
     7
 10
126.58061600000001
 20
240.655978
 30
0.0
 40
1.8022509999999989
 50
272.13249100000002
 51
357.856134
  0
ARC
  5
76
  8
0
 62
     7
 10
126.582576
 20
240.52220399999999
 30
0.0
 40
1.800252999999999
 50
2.1122959999999988
 51
87.927552000000006
  0
ARC
  5
77
  8
0
 62
     7
 10
126.686204
 20
240.53657200000001
 30
0.0
 40
1.7851239999999999
 50
91.236611999999994
 51
162.798181
  0
LINE
  5
78
  8
0
 62
     7
 10
126.648
 20
230.376
 30
0.0
 11
126.648
 21
235.524
 31
0.0
  0
LINE
  5
79
  8
0
 62
     7
 10
58.848300000000002
 20
160.053
 30
0.0
 11
65.175600000000003
 21
160.053
 31
0.0
  0
LINE
  5
7A
  8
0
 62
     7
 10
113.63500000000001
 20
247.30699999999999
 30
0.0
 11
119.962
 21
247.30699999999999
 31
0.0
  0
ARC
  5
7B
  8
0
 62
     7
 10
71.902780000000007
 20
175.61547300000001
 30
0.0
 40
0.016285
 50
313.58797399999997
 51
359.02973600000001
  0
ARC
  5
7C
  8
0
 62
     7
 10
71.866551999999999
 20
175.64966100000001
 30
0.0
 40
0.06608
 50
292.63250299999999
 51
315.90302100000002
  0
ARC
  5
7D
  8
0
 62
     7
 10
71.75703
 20
175.886359
 30
0.0
 40
0.3268499999999999
 50
283.73811000000001
 51
294.386053
  0
ARC
  5
7E
  8
0
 62
     7
 10
71.520372999999992
 20
176.80501599999999
 30
0.0
 40
1.275480999999999
 50
278.540505
 51
284.26458100000008
  0
ARC
  5
7F
  8
0
 62
     7
 10
71.144114999999999
 20
179.194433
 30
0.0
 40
3.6943199999999989
 50
275.46994799999999
 51
278.80783600000001
  0
ARC
  5
80
  8
0
 62
     7
 10
70.690356999999992
 20
183.75372300000001
 30
0.0
 40
8.2761189999999996
 50
273.33571599999999
 51
275.58822500000002
  0
ARC
  5
81
  8
0
 62
     7
 10
70.24933
 20
191.27809099999999
 30
0.0
 40
15.813401000000001
 50
269.76928600000002
 51
273.34465
  0
ARC
  5
82
  8
0
 62
     7
 10
70.183373000000003
 20
193.98795699999999
 30
0.0
 40
18.523139999999991
 50
267.33701200000002
 51
270.00705900000003
  0
ARC
  5
83
  8
0
 62
     7
 10
69.798411000000002
 20
185.34967499999999
 30
0.0
 40
9.8763149999999982
 50
265.04416400000002
 51
267.23955000000001
  0
ARC
  5
84
  8
0
 62
     7
 10
69.316339999999997
 20
179.90773999999999
 30
0.0
 40
4.4130900000000004
 50
261.73244299999999
 51
265.17594400000002
  0
ARC
  5
85
  8
0
 62
     7
 10
68.870755000000003
 20
176.89575600000001
 30
0.0
 40
1.3683579999999991
 50
255.859466
 51
262.06087000000002
  0
ARC
  5
86
  8
0
 62
     7
 10
68.600422999999992
 20
175.843977
 30
0.0
 40
0.282454
 50
242.96646200000001
 51
256.91211900000002
  0
ARC
  5
87
  8
0
 62
     7
 10
68.484643999999989
 20
175.623569
 30
0.0
 40
0.033634
 50
194.41284699999991
 51
248.00113400000001
  0
ARC
  5
88
  8
0
 62
     7
 10
68.468350999999984
 20
175.61492100000001
 30
0.0
 40
0.016285
 50
133.587954
 51
179.02971599999989
  0
ARC
  5
89
  8
0
 62
     7
 10
68.504643999999985
 20
175.580603
 30
0.0
 40
0.066217
 50
112.649073
 51
135.86117999999999
  0
ARC
  5
8A
  8
0
 62
     7
 10
68.614225000000005
 20
175.343345
 30
0.0
 40
0.327522
 50
103.73466000000001
 51
114.35764899999999
  0
ARC
  5
8B
  8
0
 62
     7
 10
68.848275999999998
 20
174.43497199999999
 30
0.0
 40
1.265544
 50
98.495693000000003
 51
104.26378800000001
  0
ARC
  5
8C
  8
0
 62
     7
 10
69.233682999999985
 20
171.97360699999999
 30
0.0
 40
3.7568800000000002
 50
95.481376999999995
 51
98.763300000000015
  0
ARC
  5
8D
  8
0
 62
     7
 10
69.678077000000002
 20
167.48574199999999
 30
0.0
 40
8.2666839999999997
 50
93.321014999999974
 51
95.576127999999997
  0
ARC
  5
8E
  8
0
 62
     7
 10
70.122588000000007
 20
159.85208600000001
 30
0.0
 40
15.913271
 50
89.772930000000017
 51
93.326573999999994
  0
ARC
  5
8F
  8
0
 62
     7
 10
70.187889999999996
 20
157.168959
 30
0.0
 40
18.596273
 50
87.347964000000005
 51
90.006888000000004
  0
ARC
  5
90
  8
0
 62
     7
 10
70.577188000000007
 20
165.91447700000001
 30
0.0
 40
9.8421219999999998
 50
85.053241999999997
 51
87.256128000000004
  0
ARC
  5
91
  8
0
 62
     7
 10
71.054602000000003
 20
171.308513
 30
0.0
 40
4.427022
 50
81.756590000000017
 51
85.189262000000014
  0
ARC
  5
92
  8
0
 62
     7
 10
71.499572999999998
 20
174.327879
 30
0.0
 40
1.375073999999999
 50
75.896134000000004
 51
82.067453999999998
  0
ARC
  5
93
  8
0
 62
     7
 10
71.770652999999996
 20
175.38599099999999
 30
0.0
 40
0.282846
 50
62.995863999999997
 51
76.92264200000001
  0
ARC
  5
94
  8
0
 62
     7
 10
71.886488
 20
175.606809
 30
0.0
 40
0.033637
 50
14.440988000000001
 51
68.015067000000002
  0
ARC
  5
95
  8
0
 62
     7
 10
70.154545999999996
 20
177.761595
 30
0.0
 40
78.440590999999984
 50
270.01807500000001
 51
270.58546699999999
  0
ARC
  5
96
  8
0
 62
     7
 10
69.53219
 20
253.24328700000001
 30
0.0
 40
153.92477400000001
 50
270.53002400000003
 51
272.56242500000002
  0
ARC
  5
97
  8
0
 62
     7
 10
72.23725300000001
 20
190.88181700000001
 30
0.0
 40
91.504761000000002
 50
272.61607299999997
 51
274.61505699999998
  0
ARC
  5
98
  8
0
 62
     7
 10
75.67559
 20
146.70747600000001
 30
0.0
 40
47.197163000000003
 50
274.769362
 51
276.70181600000001
  0
ARC
  5
99
  8
0
 62
     7
 10
78.078232
 20
125.988865
 30
0.0
 40
26.339749000000001
 50
276.77072800000002
 51
279.35379799999998
  0
ARC
  5
9A
  8
0
 62
     7
 10
80.131924999999995
 20
113.38053499999999
 30
0.0
 40
13.565296
 50
279.45030299999991
 51
282.934618
  0
ARC
  5
9B
  8
0
 62
     7
 10
81.648008000000004
 20
106.705721
 30
0.0
 40
6.72051
 50
283.07502599999998
 51
288.19186000000002
  0
ARC
  5
9C
  8
0
 62
     7
 10
83.871814999999998
 20
101.97328899999999
 30
0.0
 40
1.3075039999999989
 50
337.95817499999998
 51
359.929574
  0
ARC
  5
9D
  8
0
 62
     7
 10
83.432123000000004
 20
102.127309
 30
0.0
 40
1.7729999999999999
 50
313.707336
 51
338.67708599999997
  0
ARC
  5
9E
  8
0
 62
     7
 10
83.195391000000001
 20
102.33128600000001
 30
0.0
 40
2.0842459999999989
 50
285.32232099999999
 51
314.537172
  0
ARC
  5
9F
  8
0
 62
     7
 10
70.204021999999995
 20
177.71955199999999
 30
0.0
 40
78.398548000000005
 50
269.41439600000001
 51
269.98192699999998
  0
ARC
  5
A0
  8
0
 62
     7
 10
70.826883999999993
 20
253.24732900000001
 30
0.0
 40
153.92881800000001
 50
267.43760700000001
 51
269.46990099999999
  0
ARC
  5
A1
  8
0
 62
     7
 10
68.121808000000001
 20
190.886877
 30
0.0
 40
91.509821999999986
 50
265.385085
 51
267.38400799999999
  0
ARC
  5
A2
  8
0
 62
     7
 10
64.683299000000005
 20
146.70901699999999
 30
0.0
 40
47.198701999999997
 50
263.29833200000002
 51
265.23076200000003
  0
ARC
  5
A3
  8
0
 62
     7
 10
62.280906999999992
 20
125.991018
 30
0.0
 40
26.341923999999999
 50
260.646298
 51
263.22914300000002
  0
ARC
  5
A4
  8
0
 62
     7
 10
60.226472999999999
 20
113.377894
 30
0.0
 40
13.562621999999999
 50
257.064751
 51
260.54964200000001
  0
ARC
  5
A5
  8
0
 62
     7
 10
58.710383999999991
 20
106.703395
 30
0.0
 40
6.7181410000000001
 50
251.806093
 51
256.92428899999999
  0
LINE
  5
A6
  8
0
 62
     7
 10
43.706499999999998
 20
67.353800000000007
 30
0.0
 11
45.179600000000001
 21
67.748199999999997
 31
0.0
  0
LINE
  5
A7
  8
0
 62
     7
 10
45.179600000000001
 20
67.748199999999997
 30
0.0
 11
43.706499999999998
 21
68.143000000000001
 31
0.0
  0
LINE
  5
A8
  8
0
 62
     7
 10
43.706499999999998
 20
68.143000000000001
 30
0.0
 11
43.706499999999998
 21
67.353800000000007
 31
0.0
  0
LINE
  5
A9
  8
0
 62
     7
 10
90.040199999999999
 20
67.353800000000007
 30
0.0
 11
91.513199999999998
 21
67.748199999999997
 31
0.0
  0
LINE
  5
AA
  8
0
 62
     7
 10
91.513199999999998
 20
67.748199999999997
 30
0.0
 11
90.040199999999999
 21
68.143000000000001
 31
0.0
  0
LINE
  5
AB
  8
0
 62
     7
 10
90.040199999999999
 20
68.143000000000001
 30
0.0
 11
90.040199999999999
 21
67.353800000000007
 31
0.0
  0
LINE
  5
AC
  8
0
 62
     7
 10
96.652799999999999
 20
68.128600000000006
 30
0.0
 11
95.179799999999986
 21
67.733800000000002
 31
0.0
  0
LINE
  5
AD
  8
0
 62
     7
 10
95.179799999999986
 20
67.733800000000002
 30
0.0
 11
96.652799999999999
 21
67.339299999999994
 31
0.0
  0
LINE
  5
AE
  8
0
 62
     7
 10
96.652799999999999
 20
67.339299999999994
 30
0.0
 11
96.652799999999999
 21
68.128600000000006
 31
0.0
  0
LINE
  5
AF
  8
0
 62
     7
 10
50.319600000000001
 20
68.128600000000006
 30
0.0
 11
48.846400000000003
 21
67.733800000000002
 31
0.0
  0
LINE
  5
B0
  8
0
 62
     7
 10
48.846400000000003
 20
67.733800000000002
 30
0.0
 11
50.319600000000001
 21
67.339299999999994
 31
0.0
  0
LINE
  5
B1
  8
0
 62
     7
 10
50.319600000000001
 20
67.339299999999994
 30
0.0
 11
50.319600000000001
 21
68.128600000000006
 31
0.0
  0
LINE
  5
B2
  8
0
 62
     7
 10
97.951899999999995
 20
67.741
 30
0.0
 11
42.636400000000002
 21
67.741
 31
0.0
  0
LINE
  5
B3
  8
0
 62
     7
 10
95.179799999999986
 20
67.040899999999993
 30
0.0
 11
95.179799999999986
 21
75.138999999999996
 31
0.0
  0
LINE
  5
B4
  8
0
 62
     7
 10
91.513199999999998
 20
67.040899999999993
 30
0.0
 11
91.513199999999998
 21
79.961200000000005
 31
0.0
  0
LINE
  5
B5
  8
0
 62
     7
 10
48.846400000000003
 20
67.040899999999993
 30
0.0
 11
48.846400000000003
 21
79.961200000000005
 31
0.0
  0
LINE
  5
B6
  8
0
 62
     7
 10
45.179600000000001
 20
67.040899999999993
 30
0.0
 11
45.179600000000001
 21
75.138999999999996
 31
0.0
  0
LINE
  5
B7
  8
0
 62
     7
 10
38.103299999999997
 20
74.923400000000001
 30
0.0
 11
37.7087
 21
76.396199999999993
 31
0.0
  0
LINE
  5
B8
  8
0
 62
     7
 10
37.7087
 20
76.396199999999993
 30
0.0
 11
37.314100000000003
 21
74.923400000000001
 31
0.0
  0
LINE
  5
B9
  8
0
 62
     7
 10
37.314100000000003
 20
74.923400000000001
 30
0.0
 11
38.103299999999997
 21
74.923400000000001
 31
0.0
  0
LINE
  5
BA
  8
0
 62
     7
 10
37.320999999999998
 20
80.869299999999996
 30
0.0
 11
37.715800000000002
 21
79.396199999999993
 31
0.0
  0
LINE
  5
BB
  8
0
 62
     7
 10
37.715800000000002
 20
79.396199999999993
 30
0.0
 11
38.110399999999998
 21
80.869299999999996
 31
0.0
  0
LINE
  5
BC
  8
0
 62
     7
 10
38.110399999999998
 20
80.869299999999996
 30
0.0
 11
37.320999999999998
 21
80.869299999999996
 31
0.0
  0
LINE
  5
BD
  8
0
 62
     7
 10
38.096299999999999
 20
181.59
 30
0.0
 11
37.70150000000001
 21
183.06299999999999
 31
0.0
  0
LINE
  5
BE
  8
0
 62
     7
 10
37.70150000000001
 20
183.06299999999999
 30
0.0
 11
37.306800000000003
 21
181.59
 31
0.0
  0
LINE
  5
BF
  8
0
 62
     7
 10
37.306800000000003
 20
181.59
 30
0.0
 11
38.096299999999999
 21
181.59
 31
0.0
  0
LINE
  5
C0
  8
0
 62
     7
 10
37.7087
 20
72.443600000000004
 30
0.0
 11
37.7087
 21
183.06299999999999
 31
0.0
  0
LINE
  5
C1
  8
0
 62
     7
 10
37.008699999999997
 20
76.396199999999993
 30
0.0
 11
44.300400000000003
 21
76.396199999999993
 31
0.0
  0
LINE
  5
C2
  8
0
 62
     7
 10
37.008699999999997
 20
79.396199999999993
 30
0.0
 11
59.174199999999992
 21
79.396199999999993
 31
0.0
  0
LINE
  5
C3
  8
0
 62
     7
 10
37.008699999999997
 20
177.06399999999999
 30
0.0
 11
48.807000000000002
 21
177.06399999999999
 31
0.0
  0
LINE
  5
C4
  8
0
 62
     7
 10
37.008699999999997
 20
183.06299999999999
 30
0.0
 11
44.300400000000003
 21
183.06299999999999
 31
0.0
  0
LINE
  5
C5
  8
0
 62
     7
 10
68.192099999999996
 20
162.52199999999999
 30
0.0
 11
68.954899999999995
 21
163.84299999999999
 31
0.0
  0
LINE
  5
C6
  8
0
 62
     7
 10
68.954899999999995
 20
163.84299999999999
 30
0.0
 11
67.634
 21
163.08000000000001
 31
0.0
  0
LINE
  5
C7
  8
0
 62
     7
 10
67.634
 20
163.08000000000001
 30
0.0
 11
68.192099999999996
 21
162.52199999999999
 31
0.0
  0
LINE
  5
C8
  8
0
 62
     7
 10
72.173699999999997
 20
167.61000000000001
 30
0.0
 11
71.411299999999997
 21
166.28899999999999
 31
0.0
  0
LINE
  5
C9
  8
0
 62
     7
 10
71.411299999999997
 20
166.28899999999999
 30
0.0
 11
72.732299999999995
 21
167.05099999999999
 31
0.0
  0
LINE
  5
CA
  8
0
 62
     7
 10
72.732299999999995
 20
167.05099999999999
 30
0.0
 11
72.173699999999997
 21
167.61000000000001
 31
0.0
  0
LINE
  5
CB
  8
0
 62
     7
 10
73.743799999999993
 20
168.6209999999999
 30
0.0
 11
65.175600000000003
 21
160.053
 31
0.0
  0
LINE
  5
CC
  8
0
 62
     7
 10
78.152699999999996
 20
99.320999999999998
 30
0.0
 11
82.401200000000003
 21
99.320999999999998
 31
0.0
  0
LINE
  5
CD
  8
0
 62
     7
 10
80.681200000000004
 20
100.79300000000001
 30
0.0
 11
81.075800000000001
 21
99.319999999999993
 31
0.0
  0
LINE
  5
CE
  8
0
 62
     7
 10
81.075800000000001
 20
99.319999999999993
 30
0.0
 11
81.470500000000001
 21
100.79300000000001
 31
0.0
  0
LINE
  5
CF
  8
0
 62
     7
 10
81.470500000000001
 20
100.79300000000001
 30
0.0
 11
80.681200000000004
 21
100.79300000000001
 31
0.0
  0
LINE
  5
D0
  8
0
 62
     7
 10
81.455799999999996
 20
172.51599999999999
 30
0.0
 11
81.061199999999999
 21
173.989
 31
0.0
  0
LINE
  5
D1
  8
0
 62
     7
 10
81.061199999999999
 20
173.989
 30
0.0
 11
80.666399999999996
 21
172.51599999999999
 31
0.0
  0
LINE
  5
D2
  8
0
 62
     7
 10
80.666399999999996
 20
172.51599999999999
 30
0.0
 11
81.455799999999996
 21
172.51599999999999
 31
0.0
  0
LINE
  5
D3
  8
0
 62
     7
 10
81.068600000000004
 20
99.320700000000016
 30
0.0
 11
81.068600000000004
 21
173.988
 31
0.0
  0
LINE
  5
D4
  8
0
 62
     7
 10
169.774
 20
155.59100000000001
 30
0.0
 11
169.38
 21
157.06399999999999
 31
0.0
  0
LINE
  5
D5
  8
0
 62
     7
 10
169.38
 20
157.06399999999999
 30
0.0
 11
168.98500000000001
 21
155.59100000000001
 31
0.0
  0
LINE
  5
D6
  8
0
 62
     7
 10
168.98500000000001
 20
155.59100000000001
 30
0.0
 11
169.774
 21
155.59100000000001
 31
0.0
  0
LINE
  5
D7
  8
0
 62
     7
 10
168.999
 20
224.22800000000001
 30
0.0
 11
169.39400000000001
 21
222.755
 31
0.0
  0
LINE
  5
D8
  8
0
 62
     7
 10
169.39400000000001
 20
222.755
 30
0.0
 11
169.78800000000001
 21
224.22800000000001
 31
0.0
  0
LINE
  5
D9
  8
0
 62
     7
 10
169.78800000000001
 20
224.22800000000001
 30
0.0
 11
168.999
 21
224.22800000000001
 31
0.0
  0
LINE
  5
DA
  8
0
 62
     7
 10
169.774
 20
256.95100000000002
 30
0.0
 11
169.38
 21
258.423
 31
0.0
  0
LINE
  5
DB
  8
0
 62
     7
 10
169.38
 20
258.423
 30
0.0
 11
168.98500000000001
 21
256.95100000000002
 31
0.0
  0
LINE
  5
DC
  8
0
 62
     7
 10
168.98500000000001
 20
256.95100000000002
 30
0.0
 11
169.774
 21
256.95100000000002
 31
0.0
  0
LINE
  5
DD
  8
0
 62
     7
 10
169.387
 20
258.42200000000003
 30
0.0
 11
169.387
 21
222.755
 31
0.0
  0
LINE
  5
DE
  8
0
 62
     7
 10
162.58000000000001
 20
222.755
 30
0.0
 11
170.08699999999999
 21
222.755
 31
0.0
  0
LINE
  5
DF
  8
0
 62
     7
 10
170.08699999999999
 20
258.42200000000003
 30
0.0
 11
162.238
 21
258.42200000000003
 31
0.0
  0
LINE
  5
E0
  8
0
 62
     7
 10
168.999
 20
158.53700000000001
 30
0.0
 11
169.39400000000001
 21
157.06399999999999
 31
0.0
  0
LINE
  5
E1
  8
0
 62
     7
 10
169.39400000000001
 20
157.06399999999999
 30
0.0
 11
169.78800000000001
 21
158.53700000000001
 31
0.0
  0
LINE
  5
E2
  8
0
 62
     7
 10
169.78800000000001
 20
158.53700000000001
 30
0.0
 11
168.999
 21
158.53700000000001
 31
0.0
  0
LINE
  5
E3
  8
0
 62
     7
 10
169.774
 20
129.59
 30
0.0
 11
169.38
 21
131.06299999999999
 31
0.0
  0
LINE
  5
E4
  8
0
 62
     7
 10
169.38
 20
131.06299999999999
 30
0.0
 11
168.98500000000001
 21
129.59
 31
0.0
  0
LINE
  5
E5
  8
0
 62
     7
 10
168.98500000000001
 20
129.59
 30
0.0
 11
169.774
 21
129.59
 31
0.0
  0
LINE
  5
E6
  8
0
 62
     7
 10
168.999
 20
132.53700000000001
 30
0.0
 11
169.39400000000001
 21
131.06299999999999
 31
0.0
  0
LINE
  5
E7
  8
0
 62
     7
 10
169.39400000000001
 20
131.06299999999999
 30
0.0
 11
169.78800000000001
 21
132.53700000000001
 31
0.0
  0
LINE
  5
E8
  8
0
 62
     7
 10
169.78800000000001
 20
132.53700000000001
 30
0.0
 11
168.999
 21
132.53700000000001
 31
0.0
  0
LINE
  5
E9
  8
0
 62
     7
 10
169.774
 20
103.59
 30
0.0
 11
169.38
 21
105.063
 31
0.0
  0
LINE
  5
EA
  8
0
 62
     7
 10
169.38
 20
105.063
 30
0.0
 11
168.98500000000001
 21
103.59
 31
0.0
  0
LINE
  5
EB
  8
0
 62
     7
 10
168.98500000000001
 20
103.59
 30
0.0
 11
169.774
 21
103.59
 31
0.0
  0
LINE
  5
EC
  8
0
 62
     7
 10
169.774
 20
181.59200000000001
 30
0.0
 11
169.38
 21
183.06399999999999
 31
0.0
  0
LINE
  5
ED
  8
0
 62
     7
 10
169.38
 20
183.06399999999999
 30
0.0
 11
168.98500000000001
 21
181.59200000000001
 31
0.0
  0
LINE
  5
EE
  8
0
 62
     7
 10
168.98500000000001
 20
181.59200000000001
 30
0.0
 11
169.774
 21
181.59200000000001
 31
0.0
  0
LINE
  5
EF
  8
0
 62
     7
 10
168.999
 20
106.536
 30
0.0
 11
169.39400000000001
 21
105.063
 31
0.0
  0
LINE
  5
F0
  8
0
 62
     7
 10
169.39400000000001
 20
105.063
 30
0.0
 11
169.78800000000001
 21
106.536
 31
0.0
  0
LINE
  5
F1
  8
0
 62
     7
 10
169.78800000000001
 20
106.536
 30
0.0
 11
168.999
 21
106.536
 31
0.0
  0
LINE
  5
F2
  8
0
 62
     7
 10
168.999
 20
77.868600000000001
 30
0.0
 11
169.39400000000001
 21
76.395099999999999
 31
0.0
  0
LINE
  5
F3
  8
0
 62
     7
 10
169.39400000000001
 20
76.395099999999999
 30
0.0
 11
169.78800000000001
 21
77.868600000000001
 31
0.0
  0
LINE
  5
F4
  8
0
 62
     7
 10
169.78800000000001
 20
77.868600000000001
 30
0.0
 11
168.999
 21
77.868600000000001
 31
0.0
  0
LINE
  5
F5
  8
0
 62
     7
 10
169.387
 20
183.06299999999999
 30
0.0
 11
169.387
 21
76.396199999999993
 31
0.0
  0
LINE
  5
F6
  8
0
  6
AIGENLINE001
 62
     7
 10
126.648
 20
177.79499999999999
 30
0.0
 11
126.648
 21
172.904
 31
0.0
  0
LINE
  5
F7
  8
0
 62
     7
 10
125.941
 20
76.396199999999993
 30
0.0
 11
170.08699999999999
 21
76.396199999999993
 31
0.0
  0
LINE
  5
F8
  8
0
 62
     7
 10
149.648
 20
104.229
 30
0.0
 11
149.648
 21
102.471
 31
0.0
  0
LINE
  5
F9
  8
0
 62
     7
 10
124.982
 20
81.802599999999998
 30
0.0
 11
146.52199999999999
 21
96.127000000000024
 31
0.0
  0
ARC
  5
FA
  8
0
 62
     7
 10
141.52176299999999
 20
102.532939
 30
0.0
 40
8.1264440000000011
 50
307.97905500000002
 51
359.56244099999998
  0
LINE
  5
FB
  8
0
 62
     7
 10
152.98099999999999
 20
258.78899999999999
 30
0.0
 11
152.98099999999999
 21
258.05599999999998
 31
0.0
  0
LINE
  5
FC
  8
0
 62
     7
 10
152.98099999999999
 20
258.75599999999997
 30
0.0
 11
153.5149999999999
 21
258.75599999999997
 31
0.0
  0
LINE
  5
FD
  8
0
 62
     7
 10
152.98099999999999
 20
258.089
 30
0.0
 11
153.5149999999999
 21
258.089
 31
0.0
  0
LINE
  5
FE
  8
0
 62
     7
 10
152.98099999999999
 20
257.75599999999997
 30
0.0
 11
153.5149999999999
 21
257.75599999999997
 31
0.0
  0
LINE
  5
FF
  8
0
 62
     7
 10
152.98099999999999
 20
259.089
 30
0.0
 11
153.5149999999999
 21
259.089
 31
0.0
  0
LINE
  5
100
  8
0
 62
     7
 10
152.98099999999999
 20
259.089
 30
0.0
 11
152.98099999999999
 21
257.75599999999997
 31
0.0
  0
LINE
  5
101
  8
0
 62
     7
 10
153.5149999999999
 20
259.42200000000003
 30
0.0
 11
153.5149999999999
 21
258.089
 31
0.0
  0
LINE
  5
102
  8
0
 62
     7
 10
153.50999999999999
 20
260.86399999999998
 30
0.0
 11
153.50999999999999
 21
257.089
 31
0.0
  0
LINE
  5
103
  8
0
 62
     7
 10
149.14699999999999
 20
262.56599999999997
 30
0.0
 11
152.96600000000001
 21
261.51999999999998
 31
0.0
  0
ARC
  5
104
  8
0
 62
     7
 10
152.821776
 20
260.846407
 30
0.0
 40
0.688403
 50
1.4876629999999991
 51
77.909801999999985
  0
LINE
  5
105
  8
0
 62
     7
 10
154.84800000000001
 20
261.35599999999999
 30
0.0
 11
154.84800000000001
 21
257.089
 31
0.0
  0
LINE
  5
106
  8
0
 62
     7
 10
149.273
 20
263.89499999999998
 30
0.0
 11
153.77600000000001
 21
262.66300000000001
 31
0.0
  0
ARC
  5
107
  8
0
 62
     7
 10
153.47225599999999
 20
261.32075200000003
 30
0.0
 40
1.3762190000000001
 50
1.456189999999999
 51
77.238458000000008
  0
LINE
  5
108
  8
0
 62
     7
 10
126.982
 20
262.589
 30
0.0
 11
148.90199999999999
 21
262.589
 31
0.0
  0
ARC
  5
109
  8
0
 62
     7
 10
148.89760000000001
 20
261.19895100000002
 30
0.0
 40
1.3896170000000001
 50
79.658752000000007
 51
89.814335999999997
  0
LINE
  5
10A
  8
0
 62
     7
 10
126.982
 20
263.92099999999999
 30
0.0
 11
149.011
 21
263.92099999999999
 31
0.0
  0
ARC
  5
10B
  8
0
 62
     7
 10
149.01030900000001
 20
262.60132700000003
 30
0.0
 40
1.320320999999999
 50
78.532830000000004
 51
89.986331999999976
  0
ARC
  5
10C
  8
0
 62
     7
 10
153.059359
 20
254.14590000000001
 30
0.0
 40
2.745010999999999
 50
106.335898
 51
178.80503899999999
  0
ARC
  5
10D
  8
0
 62
     7
 10
153.02043699999999
 20
254.17547500000001
 30
0.0
 40
1.372871999999999
 50
106.324983
 51
178.809157
  0
ARC
  5
10E
  8
0
 62
     7
 10
153.47025300000001
 20
257.118448
 30
0.0
 40
1.3725860000000001
 50
286.34495800000002
 51
358.76129600000002
  0
LINE
  5
10F
  8
0
 62
     7
 10
151.649
 20
258.089
 30
0.0
 11
152.98099999999999
 21
258.089
 31
0.0
  0
LINE
  5
110
  8
0
 62
     7
 10
151.649
 20
258.75599999999997
 30
0.0
 11
152.98099999999999
 21
258.75599999999997
 31
0.0
  0
LINE
  5
111
  8
0
 62
     7
 10
151.649
 20
258.755
 30
0.0
 11
151.649
 21
258.089
 31
0.0
  0
LINE
  5
112
  8
0
 62
     7
 10
160.315
 20
260.15499999999997
 30
0.0
 11
160.315
 21
256.68900000000002
 31
0.0
  0
LINE
  5
113
  8
0
  6
AIGENLINE001
 62
     7
 10
161.661
 20
258.42200000000003
 30
0.0
 11
151.15600000000001
 21
258.42200000000003
 31
0.0
  0
LINE
  5
114
  8
0
 62
     7
 10
154.84800000000001
 20
259.12200000000001
 30
0.0
 11
154.84800000000001
 21
258.38900000000001
 31
0.0
  0
LINE
  5
115
  8
0
 62
     7
 10
154.84800000000001
 20
258.75599999999997
 30
0.0
 11
155.381
 21
258.75599999999997
 31
0.0
  0
LINE
  5
116
  8
0
 62
     7
 10
154.84800000000001
 20
258.089
 30
0.0
 11
155.381
 21
258.089
 31
0.0
  0
LINE
  5
117
  8
0
 62
     7
 10
154.84800000000001
 20
257.75599999999997
 30
0.0
 11
155.381
 21
257.75599999999997
 31
0.0
  0
LINE
  5
118
  8
0
 62
     7
 10
154.84800000000001
 20
259.089
 30
0.0
 11
155.381
 21
259.089
 31
0.0
  0
LINE
  5
119
  8
0
 62
     7
 10
154.84800000000001
 20
259.42200000000003
 30
0.0
 11
154.84800000000001
 21
258.089
 31
0.0
  0
LINE
  5
11A
  8
0
 62
     7
 10
155.381
 20
258.089
 30
0.0
 11
158.447
 21
258.089
 31
0.0
  0
LINE
  5
11B
  8
0
 62
     7
 10
155.381
 20
258.75599999999997
 30
0.0
 11
158.447
 21
258.75599999999997
 31
0.0
  0
LINE
  5
11C
  8
0
 62
     7
 10
155.381
 20
259.089
 30
0.0
 11
155.381
 21
257.75599999999997
 31
0.0
  0
ARC
  5
11D
  8
0
 62
     7
 10
159.02213800000001
 20
256.96374800000001
 30
0.0
 40
0.6929330000000001
 50
2.1059380000000001
 51
87.834831999999992
  0
LINE
  5
11E
  8
0
 62
     7
 10
158.447
 20
257.65600000000001
 30
0.0
 11
159.048
 21
257.65600000000001
 31
0.0
  0
ARC
  5
11F
  8
0
 62
     7
 10
159.04814500000001
 20
259.85537699999998
 30
0.0
 40
0.666458
 50
270.01482900000002
 51
0.014799
  0
LINE
  5
120
  8
0
 62
     7
 10
158.447
 20
259.18900000000002
 30
0.0
 11
159.048
 21
259.18900000000002
 31
0.0
  0
LINE
  5
121
  8
0
 62
     7
 10
158.447
 20
259.18900000000002
 30
0.0
 11
158.447
 21
257.65600000000001
 31
0.0
  0
LINE
  5
122
  8
0
 62
     7
 10
160.315
 20
256.68900000000002
 30
0.0
 11
159.715
 21
256.68900000000002
 31
0.0
  0
LINE
  5
123
  8
0
 62
     7
 10
160.315
 20
260.15499999999997
 30
0.0
 11
159.715
 21
260.15499999999997
 31
0.0
  0
LINE
  5
124
  8
0
 62
     7
 10
159.715
 20
260.15499999999997
 30
0.0
 11
159.715
 21
256.68900000000002
 31
0.0
  0
LINE
  5
125
  8
0
 62
     7
 10
152.98099999999999
 20
222.38800000000001
 30
0.0
 11
152.98099999999999
 21
223.12200000000001
 31
0.0
  0
LINE
  5
126
  8
0
 62
     7
 10
152.98099999999999
 20
222.422
 30
0.0
 11
153.5149999999999
 21
222.422
 31
0.0
  0
LINE
  5
127
  8
0
 62
     7
 10
152.98099999999999
 20
223.08799999999999
 30
0.0
 11
153.5149999999999
 21
223.08799999999999
 31
0.0
  0
LINE
  5
128
  8
0
 62
     7
 10
152.98099999999999
 20
223.422
 30
0.0
 11
153.5149999999999
 21
223.422
 31
0.0
  0
LINE
  5
129
  8
0
 62
     7
 10
152.98099999999999
 20
222.08799999999999
 30
0.0
 11
153.5149999999999
 21
222.08799999999999
 31
0.0
  0
LINE
  5
12A
  8
0
 62
     7
 10
152.98099999999999
 20
222.08799999999999
 30
0.0
 11
152.98099999999999
 21
223.422
 31
0.0
  0
LINE
  5
12B
  8
0
 62
     7
 10
153.5149999999999
 20
221.755
 30
0.0
 11
153.5149999999999
 21
223.08799999999999
 31
0.0
  0
LINE
  5
12C
  8
0
 62
     7
 10
153.50999999999999
 20
220.31200000000001
 30
0.0
 11
153.50999999999999
 21
224.08799999999999
 31
0.0
  0
LINE
  5
12D
  8
0
 62
     7
 10
149.14699999999999
 20
218.61099999999999
 30
0.0
 11
152.96600000000001
 21
219.65700000000001
 31
0.0
  0
ARC
  5
12E
  8
0
 62
     7
 10
152.82208
 20
220.32976400000001
 30
0.0
 40
0.6880880000000001
 50
282.0699259999999
 51
358.54741100000001
  0
LINE
  5
12F
  8
0
 62
     7
 10
154.84800000000001
 20
219.821
 30
0.0
 11
154.84800000000001
 21
224.08799999999999
 31
0.0
  0
LINE
  5
130
  8
0
 62
     7
 10
149.273
 20
217.28100000000001
 30
0.0
 11
153.77600000000001
 21
218.51300000000001
 31
0.0
  0
ARC
  5
131
  8
0
 62
     7
 10
153.47295099999999
 20
219.85510199999999
 30
0.0
 40
1.3755049999999991
 50
282.73860200000001
 51
358.57415300000002
  0
LINE
  5
132
  8
0
 62
     7
 10
126.982
 20
218.58799999999999
 30
0.0
 11
148.90199999999999
 21
218.58799999999999
 31
0.0
  0
ARC
  5
133
  8
0
 62
     7
 10
148.902974
 20
219.88983999999999
 30
0.0
 40
1.301973
 50
269.961634
 51
280.80495100000002
  0
LINE
  5
134
  8
0
 62
     7
 10
126.982
 20
217.256
 30
0.0
 11
149.011
 21
217.256
 31
0.0
  0
ARC
  5
135
  8
0
 62
     7
 10
149.011551
 20
218.59818799999999
 30
0.0
 40
1.342376
 50
269.96040699999998
 51
281.22220499999997
  0
ARC
  5
136
  8
0
 62
     7
 10
153.05746199999999
 20
227.02958100000001
 30
0.0
 40
2.743074
 50
181.154447
 51
253.69352699999999
  0
ARC
  5
137
  8
0
 62
     7
 10
153.01925499999999
 20
227.001093
 30
0.0
 40
1.3716829999999991
 50
181.17613700000001
 51
253.71190200000001
  0
ARC
  5
138
  8
0
 62
     7
 10
153.470134
 20
224.058054
 30
0.0
 40
1.3727139999999991
 50
1.257093
 51
73.651457999999991
  0
LINE
  5
139
  8
0
 62
     7
 10
151.649
 20
223.08799999999999
 30
0.0
 11
152.98099999999999
 21
223.08799999999999
 31
0.0
  0
LINE
  5
13A
  8
0
 62
     7
 10
151.649
 20
222.422
 30
0.0
 11
152.98099999999999
 21
222.422
 31
0.0
  0
LINE
  5
13B
  8
0
 62
     7
 10
151.649
 20
222.422
 30
0.0
 11
151.649
 21
223.08799999999999
 31
0.0
  0
LINE
  5
13C
  8
0
 62
     7
 10
160.315
 20
221.02099999999999
 30
0.0
 11
160.315
 21
224.488
 31
0.0
  0
LINE
  5
13D
  8
0
  6
AIGENLINE001
 62
     7
 10
161.661
 20
222.755
 30
0.0
 11
151.15600000000001
 21
222.755
 31
0.0
  0
LINE
  5
13E
  8
0
  6
AIGENLINE001
 62
     7
 10
155.255
 20
240.589
 30
0.0
 11
119.42700000000001
 21
240.589
 31
0.0
  0
LINE
  5
13F
  8
0
 62
     7
 10
160.315
 20
270.84800000000001
 30
0.0
 11
160.315
 21
212.24600000000001
 31
0.0
  0
LINE
  5
140
  8
0
 62
     7
 10
154.84800000000001
 20
222.05500000000001
 30
0.0
 11
154.84800000000001
 21
222.78800000000001
 31
0.0
  0
LINE
  5
141
  8
0
 62
     7
 10
154.84800000000001
 20
222.422
 30
0.0
 11
155.381
 21
222.422
 31
0.0
  0
LINE
  5
142
  8
0
 62
     7
 10
154.84800000000001
 20
223.08799999999999
 30
0.0
 11
155.381
 21
223.08799999999999
 31
0.0
  0
LINE
  5
143
  8
0
 62
     7
 10
154.84800000000001
 20
223.422
 30
0.0
 11
155.381
 21
223.422
 31
0.0
  0
LINE
  5
144
  8
0
 62
     7
 10
154.84800000000001
 20
222.08799999999999
 30
0.0
 11
155.381
 21
222.08799999999999
 31
0.0
  0
LINE
  5
145
  8
0
 62
     7
 10
154.84800000000001
 20
221.755
 30
0.0
 11
154.84800000000001
 21
223.08799999999999
 31
0.0
  0
LINE
  5
146
  8
0
 62
     7
 10
155.381
 20
223.08799999999999
 30
0.0
 11
158.447
 21
223.08799999999999
 31
0.0
  0
LINE
  5
147
  8
0
 62
     7
 10
155.381
 20
222.422
 30
0.0
 11
158.447
 21
222.422
 31
0.0
  0
LINE
  5
148
  8
0
 62
     7
 10
155.381
 20
222.08799999999999
 30
0.0
 11
155.381
 21
223.422
 31
0.0
  0
ARC
  5
149
  8
0
 62
     7
 10
159.02200199999999
 20
224.21384900000001
 30
0.0
 40
0.6930740000000001
 50
272.17597699999999
 51
357.88325400000002
  0
LINE
  5
14A
  8
0
 62
     7
 10
158.447
 20
223.52099999999999
 30
0.0
 11
159.048
 21
223.52099999999999
 31
0.0
  0
ARC
  5
14B
  8
0
 62
     7
 10
159.04840300000001
 20
221.321482
 30
0.0
 40
0.6662
 50
0.007417
 51
90.007386999999994
  0
LINE
  5
14C
  8
0
 62
     7
 10
158.447
 20
221.988
 30
0.0
 11
159.048
 21
221.988
 31
0.0
  0
LINE
  5
14D
  8
0
 62
     7
 10
158.447
 20
221.988
 30
0.0
 11
158.447
 21
223.52099999999999
 31
0.0
  0
LINE
  5
14E
  8
0
 62
     7
 10
160.315
 20
224.488
 30
0.0
 11
159.715
 21
224.488
 31
0.0
  0
LINE
  5
14F
  8
0
 62
     7
 10
160.315
 20
221.02099999999999
 30
0.0
 11
159.715
 21
221.02099999999999
 31
0.0
  0
LINE
  5
150
  8
0
 62
     7
 10
159.715
 20
221.02099999999999
 30
0.0
 11
159.715
 21
224.488
 31
0.0
  0
LINE
  5
151
  8
0
 62
     7
 10
127.739
 20
264.255
 30
0.0
 11
132.59299999999999
 21
264.255
 31
0.0
  0
LINE
  5
152
  8
0
 62
     7
 10
126.982
 20
264.255
 30
0.0
 11
124.982
 21
264.255
 31
0.0
  0
LINE
  5
153
  8
0
 62
     7
 10
162.81299999999999
 20
105.063
 30
0.0
 11
170.08699999999999
 21
105.063
 31
0.0
  0
LINE
  5
154
  8
0
  6
AIGENLINE001
 62
     7
 10
162.036
 20
105.063
 30
0.0
 11
149.738
 21
105.063
 31
0.0
  0
LINE
  5
155
  8
0
 62
     7
 10
154.381
 20
105.896
 30
0.0
 11
126.982
 21
105.896
 31
0.0
  0
LINE
  5
156
  8
0
 62
     7
 10
154.84800000000001
 20
104.696
 30
0.0
 11
154.84800000000001
 21
105.43000000000001
 31
0.0
  0
ARC
  5
157
  8
0
 62
     7
 10
154.36296899999999
 20
105.411298
 30
0.0
 40
0.485405
 50
2.1544560000000001
 51
87.845534000000001
  0
LINE
  5
158
  8
0
 62
     7
 10
154.381
 20
104.229
 30
0.0
 11
126.982
 21
104.229
 31
0.0
  0
ARC
  5
159
  8
0
 62
     7
 10
154.362955
 20
104.71432799999999
 30
0.0
 40
0.485405
 50
272.1560740000001
 51
357.88620500000002
  0
LINE
  5
15A
  8
0
 62
     7
 10
154.84800000000001
 20
104.729
 30
0.0
 11
155.381
 21
104.729
 31
0.0
  0
LINE
  5
15B
  8
0
 62
     7
 10
154.84800000000001
 20
105.396
 30
0.0
 11
155.381
 21
105.396
 31
0.0
  0
LINE
  5
15C
  8
0
 62
     7
 10
154.84800000000001
 20
105.73
 30
0.0
 11
155.381
 21
105.73
 31
0.0
  0
LINE
  5
15D
  8
0
 62
     7
 10
154.84800000000001
 20
104.39700000000001
 30
0.0
 11
155.381
 21
104.39700000000001
 31
0.0
  0
LINE
  5
15E
  8
0
 62
     7
 10
154.84800000000001
 20
104.39700000000001
 30
0.0
 11
154.84800000000001
 21
105.73
 31
0.0
  0
LINE
  5
15F
  8
0
 62
     7
 10
155.381
 20
105.396
 30
0.0
 11
158.447
 21
105.396
 31
0.0
  0
LINE
  5
160
  8
0
 62
     7
 10
155.381
 20
104.729
 30
0.0
 11
158.447
 21
104.729
 31
0.0
  0
LINE
  5
161
  8
0
 62
     7
 10
155.381
 20
104.39700000000001
 30
0.0
 11
155.381
 21
105.73
 31
0.0
  0
ARC
  5
162
  8
0
 62
     7
 10
159.02283600000001
 20
106.521635
 30
0.0
 40
0.692236
 50
272.10957000000002
 51
357.89044000000001
  0
LINE
  5
163
  8
0
 62
     7
 10
158.447
 20
105.83
 30
0.0
 11
159.048
 21
105.83
 31
0.0
  0
ARC
  5
164
  8
0
 62
     7
 10
159.02249699999999
 20
103.604009
 30
0.0
 40
0.6925740000000001
 50
2.1069539999999991
 51
87.863417999999996
  0
LINE
  5
165
  8
0
 62
     7
 10
158.447
 20
104.29600000000001
 30
0.0
 11
159.048
 21
104.29600000000001
 31
0.0
  0
LINE
  5
166
  8
0
 62
     7
 10
158.447
 20
104.29600000000001
 30
0.0
 11
158.447
 21
105.83
 31
0.0
  0
LINE
  5
167
  8
0
 62
     7
 10
160.315
 20
106.797
 30
0.0
 11
159.715
 21
106.797
 31
0.0
  0
LINE
  5
168
  8
0
 62
     7
 10
160.315
 20
103.32899999999999
 30
0.0
 11
159.715
 21
103.32899999999999
 31
0.0
  0
LINE
  5
169
  8
0
 62
     7
 10
160.315
 20
103.32899999999999
 30
0.0
 11
160.315
 21
106.797
 31
0.0
  0
LINE
  5
16A
  8
0
 62
     7
 10
159.715
 20
103.32899999999999
 30
0.0
 11
159.715
 21
106.797
 31
0.0
  0
LINE
  5
16B
  8
0
 62
     7
 10
126.982
 20
104.063
 30
0.0
 11
126.982
 21
106.062
 31
0.0
  0
LINE
  5
16C
  8
0
 62
     7
 10
126.982
 20
104.063
 30
0.0
 11
124.982
 21
104.063
 31
0.0
  0
LINE
  5
16D
  8
0
 62
     7
 10
126.982
 20
106.062
 30
0.0
 11
124.982
 21
106.062
 31
0.0
  0
LINE
  5
16E
  8
0
 62
     7
 10
162.81299999999999
 20
131.06299999999999
 30
0.0
 11
170.08699999999999
 21
131.06299999999999
 31
0.0
  0
LINE
  5
16F
  8
0
  6
AIGENLINE001
 62
     7
 10
162.036
 20
131.06299999999999
 30
0.0
 11
149.738
 21
131.06299999999999
 31
0.0
  0
LINE
  5
170
  8
0
 62
     7
 10
154.381
 20
131.89599999999999
 30
0.0
 11
126.982
 21
131.89599999999999
 31
0.0
  0
LINE
  5
171
  8
0
 62
     7
 10
154.84800000000001
 20
130.696
 30
0.0
 11
154.84800000000001
 21
131.43000000000001
 31
0.0
  0
ARC
  5
172
  8
0
 62
     7
 10
154.363339
 20
131.41126600000001
 30
0.0
 40
0.485034
 50
2.154617
 51
87.887672999999992
  0
LINE
  5
173
  8
0
 62
     7
 10
154.381
 20
130.22999999999999
 30
0.0
 11
126.982
 21
130.22999999999999
 31
0.0
  0
ARC
  5
174
  8
0
 62
     7
 10
154.36300399999999
 20
130.714607
 30
0.0
 40
0.485382
 50
272.15043300000002
 51
357.807276
  0
LINE
  5
175
  8
0
 62
     7
 10
154.84800000000001
 20
130.72900000000001
 30
0.0
 11
155.381
 21
130.72900000000001
 31
0.0
  0
LINE
  5
176
  8
0
 62
     7
 10
154.84800000000001
 20
131.39599999999999
 30
0.0
 11
155.381
 21
131.39599999999999
 31
0.0
  0
LINE
  5
177
  8
0
 62
     7
 10
154.84800000000001
 20
131.72999999999999
 30
0.0
 11
155.381
 21
131.72999999999999
 31
0.0
  0
LINE
  5
178
  8
0
 62
     7
 10
154.84800000000001
 20
130.39599999999999
 30
0.0
 11
155.381
 21
130.39599999999999
 31
0.0
  0
LINE
  5
179
  8
0
 62
     7
 10
154.84800000000001
 20
130.39599999999999
 30
0.0
 11
154.84800000000001
 21
131.72999999999999
 31
0.0
  0
LINE
  5
17A
  8
0
 62
     7
 10
155.381
 20
131.39599999999999
 30
0.0
 11
158.447
 21
131.39599999999999
 31
0.0
  0
LINE
  5
17B
  8
0
 62
     7
 10
155.381
 20
130.72900000000001
 30
0.0
 11
158.447
 21
130.72900000000001
 31
0.0
  0
LINE
  5
17C
  8
0
 62
     7
 10
155.381
 20
130.39599999999999
 30
0.0
 11
155.381
 21
131.72999999999999
 31
0.0
  0
ARC
  5
17D
  8
0
 62
     7
 10
159.02281099999999
 20
132.52125799999999
 30
0.0
 40
0.692249
 50
272.11155000000002
 51
357.91807800000009
  0
LINE
  5
17E
  8
0
 62
     7
 10
158.447
 20
131.82900000000001
 30
0.0
 11
159.048
 21
131.82900000000001
 31
0.0
  0
ARC
  5
17F
  8
0
 62
     7
 10
159.02214799999999
 20
129.60397399999999
 30
0.0
 40
0.6929220000000002
 50
2.1051449999999998
 51
87.835624999999993
  0
LINE
  5
180
  8
0
 62
     7
 10
158.447
 20
130.29599999999999
 30
0.0
 11
159.048
 21
130.29599999999999
 31
0.0
  0
LINE
  5
181
  8
0
 62
     7
 10
158.447
 20
130.29599999999999
 30
0.0
 11
158.447
 21
131.82900000000001
 31
0.0
  0
LINE
  5
182
  8
0
 62
     7
 10
160.315
 20
132.79599999999999
 30
0.0
 11
159.715
 21
132.79599999999999
 31
0.0
  0
LINE
  5
183
  8
0
 62
     7
 10
160.315
 20
129.32900000000001
 30
0.0
 11
159.715
 21
129.32900000000001
 31
0.0
  0
LINE
  5
184
  8
0
 62
     7
 10
160.315
 20
129.32900000000001
 30
0.0
 11
160.315
 21
132.79599999999999
 31
0.0
  0
LINE
  5
185
  8
0
 62
     7
 10
159.715
 20
129.32900000000001
 30
0.0
 11
159.715
 21
132.79599999999999
 31
0.0
  0
LINE
  5
186
  8
0
 62
     7
 10
126.982
 20
130.06200000000001
 30
0.0
 11
126.982
 21
132.06299999999999
 31
0.0
  0
LINE
  5
187
  8
0
 62
     7
 10
126.982
 20
130.06200000000001
 30
0.0
 11
124.982
 21
130.06200000000001
 31
0.0
  0
LINE
  5
188
  8
0
 62
     7
 10
126.982
 20
132.06299999999999
 30
0.0
 11
124.982
 21
132.06299999999999
 31
0.0
  0
LINE
  5
189
  8
0
 62
     7
 10
162.81299999999999
 20
157.06299999999999
 30
0.0
 11
170.08699999999999
 21
157.06299999999999
 31
0.0
  0
LINE
  5
18A
  8
0
  6
AIGENLINE001
 62
     7
 10
162.036
 20
157.06299999999999
 30
0.0
 11
149.738
 21
157.06299999999999
 31
0.0
  0
LINE
  5
18B
  8
0
 62
     7
 10
154.381
 20
157.89699999999999
 30
0.0
 11
126.982
 21
157.89699999999999
 31
0.0
  0
LINE
  5
18C
  8
0
 62
     7
 10
154.84800000000001
 20
156.697
 30
0.0
 11
154.84800000000001
 21
157.43000000000001
 31
0.0
  0
ARC
  5
18D
  8
0
 62
     7
 10
154.36366699999999
 20
157.41222500000001
 30
0.0
 40
0.484708
 50
2.1596289999999998
 51
87.924993000000015
  0
LINE
  5
18E
  8
0
 62
     7
 10
154.381
 20
156.22999999999999
 30
0.0
 11
126.982
 21
156.22999999999999
 31
0.0
  0
ARC
  5
18F
  8
0
 62
     7
 10
154.36299199999999
 20
156.71508399999999
 30
0.0
 40
0.4853880000000001
 50
272.1518430000001
 51
357.82702
  0
LINE
  5
190
  8
0
 62
     7
 10
154.84800000000001
 20
156.72999999999999
 30
0.0
 11
155.381
 21
156.72999999999999
 31
0.0
  0
LINE
  5
191
  8
0
 62
     7
 10
154.84800000000001
 20
157.39699999999999
 30
0.0
 11
155.381
 21
157.39699999999999
 31
0.0
  0
LINE
  5
192
  8
0
 62
     7
 10
154.84800000000001
 20
157.72999999999999
 30
0.0
 11
155.381
 21
157.72999999999999
 31
0.0
  0
LINE
  5
193
  8
0
 62
     7
 10
154.84800000000001
 20
156.39699999999999
 30
0.0
 11
155.381
 21
156.39699999999999
 31
0.0
  0
LINE
  5
194
  8
0
 62
     7
 10
154.84800000000001
 20
156.39699999999999
 30
0.0
 11
154.84800000000001
 21
157.72999999999999
 31
0.0
  0
LINE
  5
195
  8
0
 62
     7
 10
155.381
 20
157.39699999999999
 30
0.0
 11
158.447
 21
157.39699999999999
 31
0.0
  0
LINE
  5
196
  8
0
 62
     7
 10
155.381
 20
156.72999999999999
 30
0.0
 11
158.447
 21
156.72999999999999
 31
0.0
  0
LINE
  5
197
  8
0
 62
     7
 10
155.381
 20
156.39699999999999
 30
0.0
 11
155.381
 21
157.72999999999999
 31
0.0
  0
ARC
  5
198
  8
0
 62
     7
 10
159.02278699999999
 20
158.5219139999999
 30
0.0
 40
0.6922610000000001
 50
272.11353000000003
 51
357.94569999999999
  0
LINE
  5
199
  8
0
 62
     7
 10
158.447
 20
157.83000000000001
 30
0.0
 11
159.048
 21
157.83000000000001
 31
0.0
  0
ARC
  5
19A
  8
0
 62
     7
 10
159.022313
 20
155.60460399999999
 30
0.0
 40
0.6927590000000001
 50
2.106843
 51
87.848726000000013
  0
LINE
  5
19B
  8
0
 62
     7
 10
158.447
 20
156.297
 30
0.0
 11
159.048
 21
156.297
 31
0.0
  0
LINE
  5
19C
  8
0
 62
     7
 10
158.447
 20
156.297
 30
0.0
 11
158.447
 21
157.83000000000001
 31
0.0
  0
LINE
  5
19D
  8
0
 62
     7
 10
160.315
 20
158.797
 30
0.0
 11
159.715
 21
158.797
 31
0.0
  0
LINE
  5
19E
  8
0
 62
     7
 10
160.315
 20
155.33000000000001
 30
0.0
 11
159.715
 21
155.33000000000001
 31
0.0
  0
LINE
  5
19F
  8
0
 62
     7
 10
160.315
 20
155.33000000000001
 30
0.0
 11
160.315
 21
158.797
 31
0.0
  0
LINE
  5
1A0
  8
0
 62
     7
 10
159.715
 20
155.33000000000001
 30
0.0
 11
159.715
 21
158.797
 31
0.0
  0
LINE
  5
1A1
  8
0
 62
     7
 10
170.08699999999999
 20
183.06299999999999
 30
0.0
 11
125.712
 21
183.06299999999999
 31
0.0
  0
LINE
  5
1A2
  8
0
 62
     7
 10
121.98099999999999
 20
75.395700000000005
 30
0.0
 11
121.98099999999999
 21
67.223500000000001
 31
0.0
  0
LINE
  5
1A3
  8
0
 62
     7
 10
126.45399999999999
 20
68.128600000000006
 30
0.0
 11
124.982
 21
67.733800000000002
 31
0.0
  0
LINE
  5
1A4
  8
0
 62
     7
 10
124.982
 20
67.733800000000002
 30
0.0
 11
126.45399999999999
 21
67.338999999999999
 31
0.0
  0
LINE
  5
1A5
  8
0
 62
     7
 10
126.45399999999999
 20
67.338999999999999
 30
0.0
 11
126.45399999999999
 21
68.128600000000006
 31
0.0
  0
LINE
  5
1A6
  8
0
 62
     7
 10
120.50700000000001
 20
67.353800000000007
 30
0.0
 11
121.98099999999999
 21
67.748199999999997
 31
0.0
  0
LINE
  5
1A7
  8
0
 62
     7
 10
121.98099999999999
 20
67.748199999999997
 30
0.0
 11
120.50700000000001
 21
68.142700000000005
 31
0.0
  0
LINE
  5
1A8
  8
0
 62
     7
 10
120.50700000000001
 20
68.142700000000005
 30
0.0
 11
120.50700000000001
 21
67.353800000000007
 31
0.0
  0
LINE
  5
1A9
  8
0
 62
     7
 10
119.101
 20
67.741
 30
0.0
 11
129.88999999999999
 21
67.741
 31
0.0
  0
LINE
  5
1AA
  8
0
 62
     7
 10
124.982
 20
75.062899999999985
 30
0.0
 11
124.982
 21
67.2239
 31
0.0
  0
LINE
  5
1AB
  8
0
 62
     7
 10
56.651699999999991
 20
126.456
 30
0.0
 11
55.178699999999999
 21
126.062
 31
0.0
  0
LINE
  5
1AC
  8
0
 62
     7
 10
55.178699999999999
 20
126.062
 30
0.0
 11
56.651699999999991
 21
125.667
 31
0.0
  0
LINE
  5
1AD
  8
0
 62
     7
 10
56.651699999999991
 20
125.667
 30
0.0
 11
56.651699999999991
 21
126.456
 31
0.0
  0
LINE
  5
1AE
  8
0
 62
     7
 10
83.707000000000008
 20
125.681
 30
0.0
 11
85.180000000000007
 21
126.07599999999999
 31
0.0
  0
LINE
  5
1AF
  8
0
 62
     7
 10
85.180000000000007
 20
126.07599999999999
 30
0.0
 11
83.707000000000008
 21
126.471
 31
0.0
  0
LINE
  5
1B0
  8
0
 62
     7
 10
83.707000000000008
 20
126.471
 30
0.0
 11
83.707000000000008
 21
125.681
 31
0.0
  0
LINE
  5
1B1
  8
0
 62
     7
 10
55.179200000000002
 20
126.068
 30
0.0
 11
85.179299999999984
 21
126.068
 31
0.0
  0
LINE
  5
1B2
  8
0
 62
     7
 10
46.651499999999992
 20
196.61099999999999
 30
0.0
 11
45.178400000000003
 21
196.21700000000001
 31
0.0
  0
LINE
  5
1B3
  8
0
 62
     7
 10
45.178400000000003
 20
196.21700000000001
 30
0.0
 11
46.651499999999992
 21
195.822
 31
0.0
  0
LINE
  5
1B4
  8
0
 62
     7
 10
46.651499999999992
 20
195.822
 30
0.0
 11
46.651499999999992
 21
196.61099999999999
 31
0.0
  0
LINE
  5
1B5
  8
0
 62
     7
 10
93.707899999999995
 20
195.83699999999999
 30
0.0
 11
95.180800000000005
 21
196.232
 31
0.0
  0
LINE
  5
1B6
  8
0
 62
     7
 10
95.180800000000005
 20
196.232
 30
0.0
 11
93.707899999999995
 21
196.626
 31
0.0
  0
LINE
  5
1B7
  8
0
 62
     7
 10
93.707899999999995
 20
196.626
 30
0.0
 11
93.707899999999995
 21
195.83699999999999
 31
0.0
  0
LINE
  5
1B8
  8
0
 62
     7
 10
45.179600000000001
 20
196.22399999999999
 30
0.0
 11
95.180699999999987
 21
196.22399999999999
 31
0.0
  0
LINE
  5
1B9
  8
0
 62
     7
 10
95.179799999999986
 20
184.39599999999999
 30
0.0
 11
95.179799999999986
 21
197.208
 31
0.0
  0
LINE
  5
1BA
  8
0
 62
     7
 10
45.179600000000001
 20
184.39599999999999
 30
0.0
 11
45.179600000000001
 21
197.208
 31
0.0
  0
LINE
  5
1BB
  8
0
 62
     7
 10
108.22799999999999
 20
77.868600000000001
 30
0.0
 11
108.622
 21
76.395099999999999
 31
0.0
  0
LINE
  5
1BC
  8
0
 62
     7
 10
108.622
 20
76.395099999999999
 30
0.0
 11
109.017
 21
77.868600000000001
 31
0.0
  0
LINE
  5
1BD
  8
0
 62
     7
 10
109.017
 20
77.868600000000001
 30
0.0
 11
108.22799999999999
 21
77.868600000000001
 31
0.0
  0
LINE
  5
1BE
  8
0
 62
     7
 10
109.003
 20
181.59100000000001
 30
0.0
 11
108.608
 21
183.06399999999999
 31
0.0
  0
LINE
  5
1BF
  8
0
 62
     7
 10
108.608
 20
183.06399999999999
 30
0.0
 11
108.21299999999999
 21
181.59100000000001
 31
0.0
  0
LINE
  5
1C0
  8
0
 62
     7
 10
108.21299999999999
 20
181.59100000000001
 30
0.0
 11
109.003
 21
181.59100000000001
 31
0.0
  0
LINE
  5
1C1
  8
0
 62
     7
 10
108.61499999999999
 20
76.396199999999993
 30
0.0
 11
108.61499999999999
 21
183.06299999999999
 31
0.0
  0
LINE
  5
1C2
  8
0
 62
     7
 10
96.513400000000004
 20
183.06299999999999
 30
0.0
 11
109.598
 21
183.06299999999999
 31
0.0
  0
LINE
  5
1C3
  8
0
 62
     7
 10
96.513400000000004
 20
76.396199999999993
 30
0.0
 11
109.598
 21
76.396199999999993
 31
0.0
  0
LINE
  5
1C4
  8
0
 62
     7
 10
71.65100000000001
 20
190.70500000000001
 30
0.0
 11
70.177899999999994
 21
190.31
 31
0.0
  0
LINE
  5
1C5
  8
0
 62
     7
 10
70.177899999999994
 20
190.31
 30
0.0
 11
71.65100000000001
 21
189.916
 31
0.0
  0
LINE
  5
1C6
  8
0
 62
     7
 10
71.65100000000001
 20
189.916
 30
0.0
 11
71.65100000000001
 21
190.70500000000001
 31
0.0
  0
LINE
  5
1C7
  8
0
 62
     7
 10
93.707499999999996
 20
189.93000000000001
 30
0.0
 11
95.180699999999987
 21
190.32499999999999
 31
0.0
  0
LINE
  5
1C8
  8
0
 62
     7
 10
95.180699999999987
 20
190.32499999999999
 30
0.0
 11
93.707499999999996
 21
190.71899999999999
 31
0.0
  0
LINE
  5
1C9
  8
0
 62
     7
 10
93.707499999999996
 20
190.71899999999999
 30
0.0
 11
93.707499999999996
 21
189.93000000000001
 31
0.0
  0
LINE
  5
1CA
  8
0
 62
     7
 10
70.179299999999984
 20
190.31800000000001
 30
0.0
 11
95.179799999999986
 21
190.31800000000001
 31
0.0
  0
LINE
  5
1CB
  8
0
 62
     7
 10
70.179299999999984
 20
170.95500000000001
 30
0.0
 11
70.179299999999984
 21
191.30099999999999
 31
0.0
  0
LINE
  5
1CC
  8
0
 62
     7
 10
37.314100000000003
 20
178.53700000000001
 30
0.0
 11
37.7087
 21
177.06399999999999
 31
0.0
  0
LINE
  5
1CD
  8
0
 62
     7
 10
37.7087
 20
177.06399999999999
 30
0.0
 11
38.103299999999997
 21
178.53700000000001
 31
0.0
  0
LINE
  5
1CE
  8
0
 62
     7
 10
38.103299999999997
 20
178.53700000000001
 30
0.0
 11
37.314100000000003
 21
178.53700000000001
 31
0.0
  0
LINE
  5
1CF
  8
0
 62
     7
 10
101.98999999999999
 20
166.53599999999989
 30
0.0
 11
102.384
 21
165.06200000000001
 31
0.0
  0
LINE
  5
1D0
  8
0
 62
     7
 10
102.384
 20
165.06200000000001
 30
0.0
 11
102.779
 21
166.53599999999989
 31
0.0
  0
LINE
  5
1D1
  8
0
 62
     7
 10
102.779
 20
166.53599999999989
 30
0.0
 11
101.98999999999999
 21
166.53599999999989
 31
0.0
  0
LINE
  5
1D2
  8
0
 62
     7
 10
102.764
 20
181.59200000000001
 30
0.0
 11
102.37
 21
183.06399999999999
 31
0.0
  0
LINE
  5
1D3
  8
0
 62
     7
 10
102.37
 20
183.06399999999999
 30
0.0
 11
101.97499999999999
 21
181.59200000000001
 31
0.0
  0
LINE
  5
1D4
  8
0
 62
     7
 10
101.97499999999999
 20
181.59200000000001
 30
0.0
 11
102.764
 21
181.59200000000001
 31
0.0
  0
LINE
  5
1D5
  8
0
 62
     7
 10
102.377
 20
165.06299999999999
 30
0.0
 11
102.377
 21
183.06299999999999
 31
0.0
  0
LINE
  5
1D6
  8
0
 62
     7
 10
75.530199999999994
 20
165.06299999999999
 30
0.0
 11
103.361
 21
165.06299999999999
 31
0.0
  0
ARC
  5
1D7
  8
0
 62
     7
 10
70.120215999999999
 20
164.99699000000001
 30
0.0
 40
1.8002409999999991
 50
2.1115339999999989
 51
87.91692900000001
  0
ARC
  5
1D8
  8
0
 62
     7
 10
70.251887999999994
 20
164.99618899999999
 30
0.0
 40
1.801070999999999
 50
92.107573000000002
 51
177.863924
  0
ARC
  5
1D9
  8
0
 62
     7
 10
70.251937999999996
 20
165.129606
 30
0.0
 40
1.8010900000000001
 50
182.109183
 51
267.89084600000001
  0
ARC
  5
1DA
  8
0
 62
     7
 10
70.119344999999996
 20
165.129627
 30
0.0
 40
1.8011109999999999
 50
272.109801
 51
357.89020900000003
  0
ARC
  5
1DB
  8
0
 62
     7
 10
70.070184999999995
 20
164.94821099999999
 30
0.0
 40
3.117427999999999
 50
2.116083999999999
 51
87.877325999999996
  0
ARC
  5
1DC
  8
0
 62
     7
 10
70.300768000000005
 20
164.94820300000001
 30
0.0
 40
3.1174240000000002
 50
92.116230000000016
 51
177.88374099999999
  0
ARC
  5
1DD
  8
0
 62
     7
 10
70.300425000000004
 20
165.178451
 30
0.0
 40
3.1170810000000002
 50
182.11675099999999
 51
267.889858
  0
ARC
  5
1DE
  8
0
 62
     7
 10
70.070538999999997
 20
165.17843199999999
 30
0.0
 40
3.1170749999999989
 50
272.11640799999998
 51
357.883602
  0
LINE
  5
1DF
  8
0
  6
AIGENLINE001
 62
     7
 10
74.594499999999996
 20
165.06299999999999
 30
0.0
 11
65.101900000000001
 21
165.06299999999999
 31
0.0
  0
LINE
  5
1E0
  8
0
  6
AIGENLINE001
 62
     7
 10
126.648
 20
236.12799999999999
 30
0.0
 11
126.648
 21
245.755
 31
0.0
  0
LINE
  5
1E1
  8
0
  6
AIGENLINE001
 62
     7
 10
70.179299999999984
 20
160.25800000000001
 30
0.0
 11
70.179299999999984
 21
169.88399999999999
 31
0.0
  0
LINE
  5
1E2
  8
0
 62
     7
 10
131.221
 20
267.06200000000001
 30
0.0
 11
131.61600000000001
 21
265.589
 31
0.0
  0
LINE
  5
1E3
  8
0
 62
     7
 10
131.61600000000001
 20
265.589
 30
0.0
 11
132.011
 21
267.06200000000001
 31
0.0
  0
LINE
  5
1E4
  8
0
 62
     7
 10
132.011
 20
267.06200000000001
 30
0.0
 11
131.221
 21
267.06200000000001
 31
0.0
  0
LINE
  5
1E5
  8
0
 62
     7
 10
131.99700000000001
 20
262.78199999999998
 30
0.0
 11
131.602
 21
264.255
 31
0.0
  0
LINE
  5
1E6
  8
0
 62
     7
 10
131.602
 20
264.255
 30
0.0
 11
131.20699999999999
 21
262.78199999999998
 31
0.0
  0
LINE
  5
1E7
  8
0
 62
     7
 10
131.20699999999999
 20
262.78199999999998
 30
0.0
 11
131.99700000000001
 21
262.78199999999998
 31
0.0
  0
LINE
  5
1E8
  8
0
 62
     7
 10
131.60900000000001
 20
261.25999999999999
 30
0.0
 11
131.60900000000001
 21
270.66000000000003
 31
0.0
  0
LINE
  5
1E9
  8
0
 62
     7
 10
125.964
 20
265.589
 30
0.0
 11
132.59299999999999
 21
265.589
 31
0.0
  0
ARC
  5
1EA
  8
0
 62
     7
 10
122.32674900000001
 20
265.24288799999999
 30
0.0
 40
0.346417
 50
92.041292999999996
 51
177.84029799999999
  0
LINE
  5
1EB
  8
0
 62
     7
 10
124.982
 20
265.589
 30
0.0
 11
122.31399999999999
 21
265.589
 31
0.0
  0
LINE
  5
1EC
  8
0
 62
     7
 10
121.98099999999999
 20
262.459
 30
0.0
 11
121.98099999999999
 21
265.25599999999997
 31
0.0
  0
LINE
  5
1ED
  8
0
 62
     7
 10
124.982
 20
261.21600000000001
 30
0.0
 11
145.34800000000001
 21
258.3309999999999
 31
0.0
  0
LINE
  5
1EE
  8
0
 62
     7
 10
126.982
 20
262.255
 30
0.0
 11
124.982
 21
262.255
 31
0.0
  0
LINE
  5
1EF
  8
0
 62
     7
 10
126.982
 20
264.255
 30
0.0
 11
126.982
 21
262.255
 31
0.0
  0
ARC
  5
1F0
  8
0
 62
     7
 10
149.62211400000001
 20
251.471149
 30
0.0
 40
0.6929570000000001
 50
2.109893
 51
87.890096999999983
  0
ARC
  5
1F1
  8
0
 62
     7
 10
122.327225
 20
215.935036
 30
0.0
 40
0.346897
 50
182.17631600000001
 51
267.88287300000002
  0
LINE
  5
1F2
  8
0
 62
     7
 10
124.982
 20
215.58799999999999
 30
0.0
 11
122.31399999999999
 21
215.58799999999999
 31
0.0
  0
LINE
  5
1F3
  8
0
 62
     7
 10
121.98099999999999
 20
215.922
 30
0.0
 11
121.98099999999999
 21
218.71899999999999
 31
0.0
  0
LINE
  5
1F4
  8
0
 62
     7
 10
124.982
 20
219.96100000000001
 30
0.0
 11
145.34299999999999
 21
222.845
 31
0.0
  0
LINE
  5
1F5
  8
0
 62
     7
 10
126.982
 20
216.923
 30
0.0
 11
126.982
 21
218.923
 31
0.0
  0
LINE
  5
1F6
  8
0
 62
     7
 10
126.982
 20
216.923
 30
0.0
 11
124.982
 21
216.923
 31
0.0
  0
LINE
  5
1F7
  8
0
 62
     7
 10
126.982
 20
218.923
 30
0.0
 11
124.982
 21
218.923
 31
0.0
  0
ARC
  5
1F8
  8
0
 62
     7
 10
149.621364
 20
229.70708200000001
 30
0.0
 40
0.6937540000000001
 50
272.16940299999999
 51
357.78619800000001
  0
LINE
  5
1F9
  8
0
 62
     7
 10
121.98099999999999
 20
218.71899999999999
 30
0.0
 11
121.98099999999999
 21
262.459
 31
0.0
  0
LINE
  5
1FA
  8
0
 62
     7
 10
124.982
 20
265.589
 30
0.0
 11
124.982
 21
215.58799999999999
 31
0.0
  0
LINE
  5
1FB
  8
0
 62
     7
 10
150.315
 20
251.49700000000001
 30
0.0
 11
150.315
 21
229.68000000000001
 31
0.0
  0
LINE
  5
1FC
  8
0
 62
     7
 10
151.648
 20
254.20400000000001
 30
0.0
 11
151.648
 21
226.97300000000001
 31
0.0
  0
LINE
  5
1FD
  8
0
 62
     7
 10
150.315
 20
226.97399999999999
 30
0.0
 11
150.315
 21
254.203
 31
0.0
  0
ARC
  5
1FE
  8
0
 62
     7
 10
56.910437000000002
 20
172.25720000000001
 30
0.0
 40
1.732054999999999
 50
92.121124999999992
 51
177.86700099999999
  0
ARC
  5
1FF
  8
0
 62
     7
 10
50.576828999999989
 20
175.33279300000001
 30
0.0
 40
1.7322649999999999
 50
92.123118999999988
 51
177.894611
  0
ARC
  5
200
  8
0
 62
     7
 10
50.567168000000002
 20
82.454964000000004
 30
0.0
 40
1.722086999999999
 50
181.57776100000001
 51
259.73530299999999
  0
ARC
  5
201
  8
0
 62
     7
 10
56.487085
 20
101.97328899999999
 30
0.0
 40
1.3075039999999989
 50
180.070446
 51
202.041845
  0
ARC
  5
202
  8
0
 62
     7
 10
56.926778000000013
 20
102.127309
 30
0.0
 40
1.7729999999999999
 50
201.322934
 51
226.29268400000001
  0
ARC
  5
203
  8
0
 62
     7
 10
57.163509999999988
 20
102.33128600000001
 30
0.0
 40
2.0842459999999989
 50
225.46284800000001
 51
254.67769899999999
  0
LINE
  5
204
  8
0
 62
     7
 10
55.179200000000002
 20
101.97199999999999
 30
0.0
 11
55.179200000000002
 21
172.322
 31
0.0
  0
LINE
  5
205
  8
0
 62
     7
 10
48.846400000000003
 20
82.407499999999999
 30
0.0
 11
48.846400000000003
 21
175.39599999999999
 31
0.0
  0
ARC
  5
206
  8
0
 62
     7
 10
83.449869000000007
 20
172.25791599999999
 30
0.0
 40
1.7313130000000001
 50
2.1101679999999989
 51
87.901667000000003
  0
ARC
  5
207
  8
0
 62
     7
 10
89.781244999999984
 20
175.33231799999999
 30
0.0
 40
1.7327639999999991
 50
2.1204779999999999
 51
87.855831000000009
  0
ARC
  5
208
  8
0
 62
     7
 10
122.32674900000001
 20
182.71717100000001
 30
0.0
 40
0.346417
 50
92.041292999999996
 51
177.84029799999999
  0
LINE
  5
209
  8
0
 62
     7
 10
122.31399999999999
 20
183.06299999999999
 30
0.0
 11
124.982
 21
183.06299999999999
 31
0.0
  0
LINE
  5
20A
  8
0
 62
     7
 10
126.982
 20
156.06299999999999
 30
0.0
 11
126.982
 21
158.06299999999999
 31
0.0
  0
LINE
  5
20B
  8
0
 62
     7
 10
126.982
 20
156.06299999999999
 30
0.0
 11
124.982
 21
156.06299999999999
 31
0.0
  0
LINE
  5
20C
  8
0
 62
     7
 10
126.982
 20
158.06299999999999
 30
0.0
 11
124.982
 21
158.06299999999999
 31
0.0
  0
LINE
  5
20D
  8
0
 62
     7
 10
121.98099999999999
 20
182.72999999999999
 30
0.0
 11
121.98099999999999
 21
177.31299999999999
 31
0.0
  0
ARC
  5
20E
  8
0
 62
     7
 10
89.791049000000015
 20
82.455061999999984
 30
0.0
 40
1.7224289999999991
 50
280.309054
 51
358.41931699999998
  0
ARC
  5
20F
  8
0
 62
     7
 10
122.326887
 20
76.742500000000007
 30
0.0
 40
0.34656
 50
182.181682
 51
267.93672800000002
  0
LINE
  5
210
  8
0
 62
     7
 10
122.31399999999999
 20
76.395499999999984
 30
0.0
 11
124.982
 21
76.395499999999984
 31
0.0
  0
LINE
  5
211
  8
0
 62
     7
 10
121.98099999999999
 20
79.847499999999997
 30
0.0
 11
121.98099999999999
 21
76.729299999999995
 31
0.0
  0
LINE
  5
212
  8
0
 62
     7
 10
85.179299999999984
 20
101.971
 30
0.0
 11
85.179299999999984
 21
172.322
 31
0.0
  0
LINE
  5
213
  8
0
 62
     7
 10
91.513199999999998
 20
82.408900000000003
 30
0.0
 11
91.513199999999998
 21
175.39599999999999
 31
0.0
  0
LINE
  5
214
  8
0
 62
     7
 10
121.98099999999999
 20
79.847499999999997
 30
0.0
 11
121.98099999999999
 21
177.31299999999999
 31
0.0
  0
LINE
  5
215
  8
0
 62
     7
 10
124.982
 20
76.395499999999984
 30
0.0
 11
124.982
 21
183.06299999999999
 31
0.0
  0
ARC
  5
216
  8
0
 62
     7
 10
65.375637999999995
 20
179.556332
 30
0.0
 40
99.945494999999994
 50
261.30146000000002
 51
264.50192900000002
  0
ARC
  5
217
  8
0
 62
     7
 10
69.00445400000001
 20
214.00542799999999
 30
0.0
 40
134.58415099999999
 50
264.369328
 51
268.13681100000002
  0
ARC
  5
218
  8
0
 62
     7
 10
70.134709000000001
 20
237.341657
 30
0.0
 40
157.94522599999999
 50
268.00225599999999
 51
274.117932
  0
ARC
  5
219
  8
0
 62
     7
 10
72.255359999999996
 20
203.886359
 30
0.0
 40
124.424346
 50
274.25019800000001
 51
277.05370599999998
  0
ARC
  5
21A
  8
0
 62
     7
 10
75.320882999999995
 20
177.613708
 30
0.0
 40
97.974266999999998
 50
277.16127799999998
 51
278.67559899999998
  0
LINE
  5
21B
  8
0
 62
     7
 10
83.513300000000001
 20
173.988
 30
0.0
 11
56.846299999999999
 21
173.988
 31
0.0
  0
LINE
  5
21C
  8
0
 62
     7
 10
50.512700000000002
 20
177.06299999999999
 30
0.0
 11
89.846100000000007
 21
177.06299999999999
 31
0.0
  0
LINE
  5
21D
  8
0
 62
     7
 10
149.648
 20
168.00399999999999
 30
0.0
 11
149.648
 21
162.12299999999999
 31
0.0
  0
ARC
  5
21E
  8
0
 62
     7
 10
149.98377400000001
 20
168.01337100000001
 30
0.0
 40
0.336238
 50
181.32065900000001
 51
224.61685600000001
  0
ARC
  5
21F
  8
0
 62
     7
 10
144.44384600000001
 20
169.238124
 30
0.0
 40
5.175463999999999
 50
3.0162140000000002
 51
83.24969200000001
  0
LINE
  5
220
  8
0
 62
     7
 10
149.745
 20
162.34999999999999
 30
0.0
 11
150.315
 21
163.26300000000001
 31
0.0
  0
LINE
  5
221
  8
0
 62
     7
 10
149.745
 20
167.77600000000001
 30
0.0
 11
150.315
 21
166.863
 31
0.0
  0
LINE
  5
222
  8
0
 62
     7
 10
150.315
 20
166.863
 30
0.0
 11
150.315
 21
163.26300000000001
 31
0.0
  0
ARC
  5
223
  8
0
 62
     7
 10
149.982032
 20
162.11394899999999
 30
0.0
 40
0.334517
 50
135.08968100000001
 51
178.523573
  0
LINE
  5
224
  8
0
 62
     7
 10
149.613
 20
169.51300000000001
 30
0.0
 11
149.648
 21
168.00399999999999
 31
0.0
  0
LINE
  5
225
  8
0
 62
     7
 10
149.648
 20
130.22999999999999
 30
0.0
 11
149.648
 21
105.896
 31
0.0
  0
LINE
  5
226
  8
0
 62
     7
 10
150.315
 20
130.22999999999999
 30
0.0
 11
150.315
 21
105.896
 31
0.0
  0
LINE
  5
227
  8
0
 62
     7
 10
150.315
 20
156.22999999999999
 30
0.0
 11
150.315
 21
131.89599999999999
 31
0.0
  0
LINE
  5
228
  8
0
 62
     7
 10
149.648
 20
156.22999999999999
 30
0.0
 11
149.648
 21
131.89599999999999
 31
0.0
  0
LINE
  5
229
  8
0
 62
     7
 10
149.648
 20
162.12299999999999
 30
0.0
 11
149.648
 21
157.89699999999999
 31
0.0
  0
LINE
  5
22A
  8
0
 62
     7
 10
124.982
 20
176.16399999999999
 30
0.0
 11
145.05199999999999
 21
174.37799999999999
 31
0.0
  0
ARC
  5
22B
  8
0
 62
     7
 10
144.48805200000001
 20
253.237616
 30
0.0
 40
5.1659119999999996
 50
2.8386589999999989
 51
80.416253999999995
  0
ARC
  5
22C
  8
0
 62
     7
 10
144.48820900000001
 20
227.93978200000001
 30
0.0
 40
5.1660979999999999
 50
279.51963799999999
 51
357.08563400000003
  0
LINE
  5
22D
  8
0
 62
     7
 10
149.648
 20
253.49600000000001
 30
0.0
 11
149.648
 21
227.68000000000001
 31
0.0
  0
LINE
  5
22E
  8
_________2
 62
     7
 10
210.001
 20
148.482
 30
0.0
 11
188.251
 21
148.482
 31
0.0
  0
LINE
  5
22F
  8
_________2
 62
     7
 10
105.0
 20
16.979900000000001
 30
0.0
 11
105.0
 21
-0.000344512
 31
0.0
  0
LINE
  5
230
  8
_________2
 62
     7
 10
105.0
 20
297.00200000000001
 30
0.0
 11
105.0
 21
279.98200000000003
 31
0.0
  0
LINE
  5
231
  8
_________2
 62
     7
 10
21.749700000000001
 20
148.482
 30
0.0
 11
-0.000689023
 21
148.482
 31
0.0
  0
LINE
  5
232
  8
_________2
 62
     7
 10
81.441199999999995
 20
50.875799999999991
 30
0.0
 11
79.254900000000006
 21
50.875799999999991
 31
0.0
  0
LINE
  5
233
  8
_________2
 62
     7
 10
81.933800000000005
 20
50.875799999999991
 30
0.0
 11
81.681700000000006
 21
50.875799999999991
 31
0.0
  0
LINE
  5
234
  8
_________2
 62
     7
 10
82.426500000000004
 20
50.875799999999991
 30
0.0
 11
85.351399999999998
 21
50.875799999999991
 31
0.0
  0
LINE
  5
235
  8
_________2
 62
     7
 10
81.933800000000005
 20
50.875799999999991
 30
0.0
 11
82.186000000000007
 21
50.875799999999991
 31
0.0
  0
LINE
  5
236
  8
_________2
 62
     7
 10
75.537599999999998
 20
50.875799999999991
 30
0.0
 11
73.350700000000003
 21
50.875799999999991
 31
0.0
  0
LINE
  5
237
  8
_________2
 62
     7
 10
76.029600000000002
 20
50.875799999999991
 30
0.0
 11
75.778099999999995
 21
50.875799999999991
 31
0.0
  0
LINE
  5
238
  8
_________2
 62
     7
 10
76.029600000000002
 20
51.368400000000001
 30
0.0
 11
76.029600000000002
 21
53.555399999999999
 31
0.0
  0
LINE
  5
239
  8
_________2
 62
     7
 10
76.029600000000002
 20
50.875799999999991
 30
0.0
 11
76.029600000000002
 21
51.128
 31
0.0
  0
LINE
  5
23A
  8
_________2
 62
     7
 10
76.522300000000001
 20
50.875799999999991
 30
0.0
 11
78.709199999999996
 21
50.875799999999991
 31
0.0
  0
LINE
  5
23B
  8
_________2
 62
     7
 10
76.029600000000002
 20
50.875799999999991
 30
0.0
 11
76.281800000000004
 21
50.875799999999991
 31
0.0
  0
LINE
  5
23C
  8
_________2
 62
     7
 10
76.029600000000002
 20
50.383800000000001
 30
0.0
 11
76.029600000000002
 21
48.196800000000003
 31
0.0
  0
LINE
  5
23D
  8
_________2
 62
     7
 10
76.029600000000002
 20
50.875799999999991
 30
0.0
 11
76.029600000000002
 21
50.624299999999991
 31
0.0
  0
LINE
  5
23E
  8
_________2
 62
     7
 10
79.740700000000004
 20
49.656199999999998
 30
0.0
 11
84.918700000000001
 21
48.791499999999999
 31
0.0
  0
LINE
  5
23F
  8
_________2
 62
     7
 10
79.740700000000004
 20
52.095300000000002
 30
0.0
 11
84.918700000000001
 21
52.960799999999992
 31
0.0
  0
LINE
  5
240
  8
_________2
 62
     7
 10
84.918700000000001
 20
48.791499999999999
 30
0.0
 11
84.918700000000001
 21
52.960799999999992
 31
0.0
  0
LINE
  5
241
  8
_________2
 62
     7
 10
79.740700000000004
 20
49.656199999999998
 30
0.0
 11
79.740700000000004
 21
52.095300000000002
 31
0.0
  0
ARC
  5
242
  8
_________2
 62
     7
 10
75.983362999999997
 20
50.828812999999997
 30
0.0
 40
1.2673709999999989
 50
2.1232950000000002
 51
87.909056000000007
  0
ARC
  5
243
  8
_________2
 62
     7
 10
76.076526999999999
 20
50.828847000000003
 30
0.0
 40
1.267363
 50
92.121785999999986
 51
177.878185
  0
ARC
  5
244
  8
_________2
 62
     7
 10
76.076526999999999
 20
50.922691999999998
 30
0.0
 40
1.267363
 50
182.121815
 51
267.87821400000001
  0
ARC
  5
245
  8
_________2
 62
     7
 10
75.982714000000001
 20
50.923374000000003
 30
0.0
 40
1.2680439999999991
 50
272.11916400000001
 51
357.84848499999998
  0
ARC
  5
246
  8
_________2
 62
     7
 10
76.029604000000006
 20
50.875768999999998
 30
0.0
 40
2.0849849999999992
 50
0.00001
 51
89.999980000000008
  0
ARC
  5
247
  8
_________2
 62
     7
 10
76.109640999999996
 20
50.796447000000001
 30
0.0
 40
2.1657860000000002
 50
92.117855000000034
 51
177.90105299999999
  0
ARC
  5
248
  8
_________2
 62
     7
 10
76.109607999999994
 20
50.955773000000001
 30
0.0
 40
2.1657779999999991
 50
182.11700400000001
 51
267.88302499999998
  0
ARC
  5
249
  8
_________2
 62
     7
 10
75.949632999999992
 20
50.956456000000003
 30
0.0
 40
2.1664590000000001
 50
272.11546800000002
 51
357.86560400000002
  0
TEXT
  5
24A
  8
_________2
 62
     7
 10
109.30500000000001
 20
22.750499999999999
 30
0.0
 40
3.0923400000000001
  1
図番
 41
0.5
  0
LINE
  5
24B
  8
_________2
 62
     7
 10
108.25
 20
26.979700000000001
 30
0.0
 11
188.251
 21
26.979700000000001
 31
0.0
  0
TEXT
  5
24C
  8
_________2
 62
     7
 10
109.30500000000001
 20
32.750300000000003
 30
0.0
 40
3.0923400000000001
  1
品番
 41
0.5
  0
TEXT
  5
24D
  8
_________2
 62
     7
 10
109.30500000000001
 20
52.889099999999999
 30
0.0
 40
3.0923400000000001
  1
名称
 41
0.5
  0
TEXT
  5
24E
  8
_________2
 62
     7
 10
96.545258333333337
 20
47.892999999999986
 30
0.0
 40
3.6545800000000002
  1
mm
 41
0.5
 72
     1
 11
98.067999999999998
 21
47.892999999999986
 31
0.0
  0
TEXT
  5
24F
  8
_________2
 62
     7
 10
90.343400000000003
 20
52.889099999999999
 30
0.0
 40
3.0923400000000001
  1
単位
 41
0.5
  0
TEXT
  5
250
  8
_________2
 62
     7
 10
90.343400000000003
 20
40.481900000000003
 30
0.0
 40
3.0923400000000001
  1
尺度
 41
0.5
  0
TEXT
  5
251
  8
_________2
 62
     7
 10
94.639861999999994
 20
34.288899999999998
 30
0.0
 40
3.6545800000000002
  1
1 ： 15
 41
0.5
 72
     1
 11
98.659899999999993
 21
34.288899999999998
 31
0.0
  0
TEXT
  5
252
  8
_________2
 62
     7
 10
141.36252500000001
 20
30.178899999999999
 30
0.0
 40
3.9357000000000002
  1
VR5266S
 41
0.5
 72
     1
 11
148.25
 21
30.178899999999999
 31
0.0
  0
TEXT
  5
253
  8
_________2
 62
     7
 10
141.36252500000001
 20
20.1784
 30
0.0
 40
3.9357000000000002
  1
VR5266S
 41
0.5
 72
     1
 11
148.25
 21
20.1784
 31
0.0
  0
TEXT
  5
254
  8
_________2
 62
     7
 10
29.286899999999999
 20
21.778300000000002
 30
0.0
 40
3.9357000000000002
  1
実容量：203L、重量：21kg
 41
0.5
  0
TEXT
  5
255
  8
_________2
 62
     7
 10
113.879
 20
45.296700000000001
 30
0.0
 40
3.9357000000000002
  1
ネオン バスタブ　1600サイズ
 41
0.5
  0
TEXT
  5
256
  8
_________2
 62
     7
 10
44.125500333333328
 20
34.674100000000003
 30
0.0
 40
3.6545800000000002
  1
早川
 41
0.5
 72
     1
 11
46.0137
 21
34.674100000000003
 31
0.0
  0
TEXT
  5
257
  8
_________2
 62
     7
 10
25.49059066666667
 20
34.674100000000003
 30
0.0
 40
3.6545800000000002
  1
石原
 41
0.5
 72
     1
 11
27.439699999999998
 21
34.674100000000003
 31
0.0
  0
TEXT
  5
258
  8
_________2
 62
     7
 10
72.486000000000004
 20
34.288899999999998
 30
0.0
 40
3.6545800000000002
  1
15.10.29
 41
0.5
  0
TEXT
  5
259
  8
_________2
 62
     7
 10
71.293300000000002
 20
40.481900000000003
 30
0.0
 40
3.0923400000000001
  1
日付
 41
0.5
  0
TEXT
  5
25A
  8
_________2
 62
     7
 10
34.339599999999997
 20
40.481900000000003
 30
0.0
 40
3.0923400000000001
  1
検図
 41
0.5
  0
TEXT
  5
25B
  8
_________2
 62
     7
 10
22.7212
 20
26.282499999999999
 30
0.0
 40
3.0923400000000001
  1
備考
 41
0.5
  0
TEXT
  5
25C
  8
_________2
 62
     7
 10
22.7212
 20
40.481900000000003
 30
0.0
 40
3.0923400000000001
  1
製図
 41
0.5
  0
TEXT
  5
25D
  8
_________2
 62
     7
 10
28.488665333333341
 20
49.00780000000001
 30
0.0
 40
4.4979399999999989
  1
セラトレーディング株式会社
 41
0.5
 72
     1
 11
45.880699999999997
 21
49.00780000000001
 31
0.0
  0
LINE
  5
25E
  8
_________2
 62
     7
 10
188.251
 20
16.979900000000001
 30
0.0
 11
21.749700000000001
 21
16.979900000000001
 31
0.0
  0
LINE
  5
25F
  8
_________2
 62
     7
 10
21.749700000000001
 20
16.979900000000001
 30
0.0
 11
21.749700000000001
 21
279.98200000000003
 31
0.0
  0
LINE
  5
260
  8
_________2
 62
     7
 10
21.749700000000001
 20
279.98200000000003
 30
0.0
 11
188.251
 21
279.98200000000003
 31
0.0
  0
LINE
  5
261
  8
_________2
 62
     7
 10
188.251
 20
279.98200000000003
 30
0.0
 11
188.251
 21
16.979900000000001
 31
0.0
  0
LINE
  5
262
  8
_________2
 62
     7
 10
70.250100000000003
 20
30.48
 30
0.0
 11
70.250100000000003
 21
56.979799999999997
 31
0.0
  0
LINE
  5
263
  8
_________2
 62
     7
 10
89.249899999999997
 20
30.48
 30
0.0
 11
89.249899999999997
 21
56.979799999999997
 31
0.0
  0
LINE
  5
264
  8
_________2
 62
     7
 10
108.25
 20
16.979900000000001
 30
0.0
 11
108.25
 21
56.979799999999997
 31
0.0
  0
LINE
  5
265
  8
_________2
 62
     7
 10
33.249499999999998
 20
30.48
 30
0.0
 11
33.249499999999998
 21
44.4803
 31
0.0
  0
LINE
  5
266
  8
_________2
 62
     7
 10
21.749700000000001
 20
30.48
 30
0.0
 11
108.25
 21
30.48
 31
0.0
  0
LINE
  5
267
  8
_________2
 62
     7
 10
21.749700000000001
 20
44.4803
 30
0.0
 11
108.25
 21
44.4803
 31
0.0
  0
LINE
  5
268
  8
_________2
 62
     7
 10
108.25
 20
36.979500000000002
 30
0.0
 11
188.251
 21
36.979500000000002
 31
0.0
  0
LINE
  5
269
  8
_________2
 62
     7
 10
21.749700000000001
 20
56.979799999999997
 30
0.0
 11
188.251
 21
56.979799999999997
 31
0.0
  0
ENDSEC
  0
EOF
