  0
SECTION
  2
HEADER
  9
$ACADVER
  1
AC1009
  9
$INSBASE
 10
0.0
 20
0.0
 30
0.0
  9
$EXTMIN
 10
0.238058
 20
0.4482100000000001
 30
0.0
  9
$EXTMAX
 10
210.24000000000001
 20
297.44999999999987
 30
0.0
  9
$LIMMIN
 10
0.0
 20
0.0
  9
$LIMMAX
 10
12.0
 20
9.0
  9
$ORTHOMODE
 70
     0
  9
$REGENMODE
 70
     1
  9
$FILLMODE
 70
     1
  9
$QTEXTMODE
 70
     0
  9
$MIRRTEXT
 70
     1
  9
$DRAGMODE
 70
     2
  9
$LTSCALE
 40
1.0
  9
$OSMODE
 70
    37
  9
$ATTMODE
 70
     1
  9
$TEXTSIZE
 40
0.0
  9
$TRACEWID
 40
0.05
  9
$TEXTSTYLE
  7
STANDARD
  9
$CLAYER
  8
0
  9
$CELTYPE
  6
CONTINUOUS
  9
$CECOLOR
 62
   256
  9
$DIMSCALE
 40
1.0
  9
$DIMASZ
 40
0.18
  9
$DIMEXO
 40
0.0625
  9
$DIMDLI
 40
0.38
  9
$DIMRND
 40
0.0
  9
$DIMDLE
 40
0.0
  9
$DIMEXE
 40
0.18
  9
$DIMTP
 40
0.0
  9
$DIMTM
 40
0.0
  9
$DIMTXT
 40
0.18
  9
$DIMCEN
 40
0.09
  9
$DIMTSZ
 40
0.0
  9
$DIMTOL
 70
     0
  9
$DIMLIM
 70
     0
  9
$DIMTIH
 70
     1
  9
$DIMTOH
 70
     1
  9
$DIMSE1
 70
     0
  9
$DIMSE2
 70
     0
  9
$DIMTAD
 70
     0
  9
$DIMZIN
 70
     0
  9
$DIMBLK
  1

  9
$DIMASO
 70
     1
  9
$DIMSHO
 70
     1
  9
$DIMPOST
  1

  9
$DIMAPOST
  1

  9
$DIMALT
 70
     0
  9
$DIMALTD
 70
     2
  9
$DIMALTF
 40
25.399999999999999
  9
$DIMLFAC
 40
1.0
  9
$DIMTOFL
 70
     0
  9
$DIMTVP
 40
0.0
  9
$DIMTIX
 70
     0
  9
$DIMSOXD
 70
     0
  9
$DIMSAH
 70
     0
  9
$DIMBLK1
  1

  9
$DIMBLK2
  1

  9
$DIMSTYLE
  2
STANDARD
  9
$DIMCLRD
 70
     0
  9
$DIMCLRE
 70
     0
  9
$DIMCLRT
 70
     0
  9
$DIMTFAC
 40
1.0
  9
$DIMGAP
 40
0.09
  9
$LUNITS
 70
     2
  9
$LUPREC
 70
     4
  9
$SKETCHINC
 40
0.1
  9
$FILLETRAD
 40
0.0
  9
$AUNITS
 70
     0
  9
$AUPREC
 70
     0
  9
$MENU
  1
.
  9
$ELEVATION
 40
0.0
  9
$PELEVATION
 40
0.0
  9
$THICKNESS
 40
0.0
  9
$LIMCHECK
 70
     0
  9
$BLIPMODE
 70
     0
  9
$CHAMFERA
 40
0.0
  9
$CHAMFERB
 40
0.0
  9
$SKPOLY
 70
     0
  9
$TDCREATE
 40
2444972.375
  9
$TDUPDATE
 40
2455965.3675616658
  9
$TDINDWG
 40
0.0000081481
  9
$TDUSRTIMER
 40
0.0000081481
  9
$USRTIMER
 70
     1
  9
$ANGBASE
 50
0.0
  9
$ANGDIR
 70
     0
  9
$PDMODE
 70
     0
  9
$PDSIZE
 40
0.0
  9
$PLINEWID
 40
0.0
  9
$COORDS
 70
     1
  9
$SPLFRAME
 70
     0
  9
$SPLINETYPE
 70
     6
  9
$SPLINESEGS
 70
     8
  9
$ATTDIA
 70
     0
  9
$ATTREQ
 70
     1
  9
$HANDLING
 70
     1
  9
$HANDSEED
  5
18A
  9
$SURFTAB1
 70
     6
  9
$SURFTAB2
 70
     6
  9
$SURFTYPE
 70
     6
  9
$SURFU
 70
     6
  9
$SURFV
 70
     6
  9
$UCSNAME
  2

  9
$UCSORG
 10
0.0
 20
0.0
 30
0.0
  9
$UCSXDIR
 10
1.0
 20
0.0
 30
0.0
  9
$UCSYDIR
 10
0.0
 20
1.0
 30
0.0
  9
$PUCSNAME
  2

  9
$PUCSORG
 10
0.0
 20
0.0
 30
0.0
  9
$PUCSXDIR
 10
1.0
 20
0.0
 30
0.0
  9
$PUCSYDIR
 10
0.0
 20
1.0
 30
0.0
  9
$USERI1
 70
     0
  9
$USERI2
 70
     0
  9
$USERI3
 70
     0
  9
$USERI4
 70
     0
  9
$USERI5
 70
     0
  9
$USERR1
 40
0.0
  9
$USERR2
 40
0.0
  9
$USERR3
 40
0.0
  9
$USERR4
 40
0.0
  9
$USERR5
 40
0.0
  9
$WORLDVIEW
 70
     1
  9
$SHADEDGE
 70
     3
  9
$SHADEDIF
 70
    70
  9
$TILEMODE
 70
     1
  9
$MAXACTVP
 70
    48
  9
$PLIMCHECK
 70
     0
  9
$PEXTMIN
 10
1.0000000000000000E+020
 20
1.0000000000000000E+020
 30
1.0000000000000000E+020
  9
$PEXTMAX
 10
-1.0000000000000000E+020
 20
-1.0000000000000000E+020
 30
-1.0000000000000000E+020
  9
$PLIMMIN
 10
0.0
 20
0.0
  9
$PLIMMAX
 10
12.0
 20
9.0
  9
$UNITMODE
 70
     0
  9
$VISRETAIN
 70
     1
  9
$PLINEGEN
 70
     0
  9
$PSLTSCALE
 70
     1
  0
ENDSEC
  0
SECTION
  2
TABLES
  0
TABLE
  2
VPORT
 70
     2
  0
VPORT
  2
*ACTIVE
 70
     0
 10
0.0
 20
0.0
 11
1.0
 21
1.0
 12
210.2887023820887
 22
148.72499999999991
 13
0.0
 23
0.0
 14
1.0
 24
1.0
 15
0.0
 25
0.0
 16
0.0
 26
0.0
 36
1.0
 17
0.0
 27
0.0
 37
0.0
 40
299.69773299748101
 41
2.2894736842105261
 42
50.0
 43
0.0
 44
0.0
 50
0.0
 51
0.0
 71
     0
 72
   100
 73
     1
 74
     1
 75
     0
 76
     0
 77
     0
 78
     0
  0
ENDTAB
  0
TABLE
  2
LTYPE
 70
     3
  0
LTYPE
  2
CONTINUOUS
 70
     0
  3
Solid line
 72
    65
 73
     0
 40
0.0
  0
LTYPE
  2
AIGENLINE001
 70
     0
  3
generate AI->DXF Converter
 72
    65
 73
     2
 40
1.5522299999999991
 49
0.776115
 49
-0.776115
  0
LTYPE
  2
AIGENLINE002
 70
     0
  3
generate AI->DXF Converter
 72
    65
 73
     4
 40
5.8561449999999988
 49
3.5278
 49
-0.776115
 49
0.776115
 49
-0.776115
  0
ENDTAB
  0
TABLE
  2
LAYER
 70
     2
  0
LAYER
  2
0
 70
     0
 62
     7
  6
CONTINUOUS
  0
LAYER
  2
_________2
 70
     0
 62
     7
  6
CONTINUOUS
  0
ENDTAB
  0
TABLE
  2
STYLE
 70
     1
  0
STYLE
  2
STANDARD
 70
     0
 40
0.0
 41
0.0
 50
0.0
 71
     0
 42
0.0
  3
TXT
  4
EXTFONT.SHX
  0
ENDTAB
  0
TABLE
  2
VIEW
 70
     0
  0
ENDTAB
  0
TABLE
  2
UCS
 70
     0
  0
ENDTAB
  0
TABLE
  2
APPID
 70
     1
  0
APPID
  2
ACAD
 70
     0
  0
ENDTAB
  0
TABLE
  2
DIMSTYLE
 70
     1
  0
DIMSTYLE
  2
STANDARD
 70
     0
  3

  4

  5

  6

  7

 40
1.0
 41
0.18
 42
0.0625
 43
0.38
 44
0.18
 45
0.0
 46
0.0
 47
0.0
 48
0.0
140
0.18
141
0.09
142
0.0
143
25.399999999999999
144
1.0
145
0.0
146
1.0
147
0.09
 71
     0
 72
     0
 73
     1
 74
     1
 75
     0
 76
     0
 77
     0
 78
     0
170
     0
171
     2
172
     0
173
     0
174
     0
175
     0
176
     0
177
     0
178
     0
  0
ENDTAB
  0
ENDSEC
  0
SECTION
  2
BLOCKS
  0
BLOCK
  8
0
  2
$MODEL_SPACE
 70
     0
 10
0.0
 20
0.0
 30
0.0
  3
$MODEL_SPACE
  1

  0
ENDBLK
  5
1A
  8
0
  0
BLOCK
 67
     1
  8
0
  2
$PAPER_SPACE
 70
     0
 10
0.0
 20
0.0
 30
0.0
  3
$PAPER_SPACE
  1

  0
ENDBLK
  5
17
 67
     1
  8
0
  0
ENDSEC
  0
SECTION
  2
ENTITIES
  0
TEXT
  5
23
  8
0
 62
     7
 10
70.048866666666669
 20
187.64400000000001
 30
0.0
 40
3.0924999999999989
  1
%%c46
 41
0.5
 72
     2
 11
74.172200000000004
 21
187.64400000000001
 31
0.0
  0
TEXT
  5
24
  8
0
 62
     7
 10
59.208787499999993
 20
228.28299999999999
 30
0.0
 40
3.0923400000000001
  1
550
 41
0.5
 72
     1
 11
61.141500000000001
 21
228.28299999999999
 31
0.0
  0
TEXT
  5
25
  8
0
 62
     7
 10
135.32975999999991
 20
164.40000000000001
 30
0.0
 40
3.0923400000000001
  1
カウンター切込寸法
 41
0.5
 72
     1
 11
143.57599999999991
 21
164.40000000000001
 31
0.0
  0
TEXT
  5
26
  8
0
 62
     7
 10
153.48500000000001
 20
199.17999999999989
 30
0.0
 40
3.0923400000000001
  1
R50
 41
0.5
  0
TEXT
  5
27
  8
0
 62
     7
 10
141.77213499999991
 20
219.3659999999999
 30
0.0
 40
3.0923400000000001
  1
515
 41
0.5
 72
     1
 11
143.57599999999991
 21
219.3659999999999
 31
0.0
  0
TEXT
  5
28
  8
0
 62
     7
 10
48.494799999999991
 20
200.0981349999999
 30
0.0
 40
3.0923400000000001
  1
155
 50
90.0
 41
0.5
 72
     1
 11
48.494799999999991
 21
201.90199999999999
 31
0.0
  0
TEXT
  5
29
  8
0
 62
     7
 10
59.208787499999993
 20
219.964
 30
0.0
 40
3.0923400000000001
  1
490
 41
0.5
 72
     1
 11
61.141500000000001
 21
219.964
 31
0.0
  0
TEXT
  5
2A
  8
0
 62
     7
 10
131.40499999999989
 20
199.47698249999999
 30
0.0
 40
3.0923400000000001
  1
140
 50
90.0
 41
0.5
 72
     1
 11
131.40499999999989
 21
201.1519999999999
 31
0.0
  0
TEXT
  5
2B
  8
0
 62
     7
 10
179.03
 20
189.21928750000001
 30
0.0
 40
3.0923400000000001
  1
340
 50
90.0
 41
0.5
 72
     1
 11
179.03
 21
191.15199999999999
 31
0.0
  0
TEXT
  5
2C
  8
0
 62
     7
 10
103.98099999999999
 20
189.21928750000001
 30
0.0
 40
3.0923400000000001
  1
370
 50
90.0
 41
0.5
 72
     1
 11
103.98099999999999
 21
191.15199999999999
 31
0.0
  0
TEXT
  5
2D
  8
0
 62
     7
 10
142.15600000000001
 20
118.10798249999991
 30
0.0
 40
3.0923400000000001
  1
120
 50
90.0
 41
0.5
 72
     1
 11
142.15600000000001
 21
119.7829999999999
 31
0.0
  0
TEXT
  5
2E
  8
0
 62
     7
 10
149.5211349999999
 20
102.3989999999999
 30
0.0
 40
3.0923400000000001
  1
155
 41
0.5
 72
     1
 11
151.32499999999999
 21
102.3989999999999
 31
0.0
  0
TEXT
  5
2F
  8
0
 62
     7
 10
101.17
 20
116.003135
 30
0.0
 40
3.0923400000000001
  1
165
 50
90.0
 41
0.5
 72
     1
 11
101.17
 21
117.8069999999999
 31
0.0
  0
TEXT
  5
30
  8
0
 62
     7
 10
94.2209
 20
129.54343999999989
 30
0.0
 40
3.0923400000000001
  1
15
 50
90.0
 41
0.5
 72
     2
 11
94.2209
 21
131.6049999999999
 31
0.0
  0
TEXT
  5
31
  8
0
 62
     7
 10
96.695499999999996
 20
189.34813500000001
 30
0.0
 40
3.0923400000000001
  1
300
 50
90.0
 41
0.5
 72
     1
 11
96.695499999999996
 21
191.15199999999999
 31
0.0
  0
LINE
  5
32
  8
0
  6
AIGENLINE001
 62
     7
 10
147.32599999999991
 20
114.057
 30
0.0
 11
145.876
 21
113.057
 31
0.0
  0
LINE
  5
33
  8
0
  6
AIGENLINE001
 62
     7
 10
139.82599999999999
 20
114.057
 30
0.0
 11
141.27600000000001
 21
113.057
 31
0.0
  0
ARC
  5
34
  8
0
  6
AIGENLINE001
 62
     7
 10
156.04148599999999
 20
125.5413919999999
 30
0.0
 40
0.515998
 50
91.614346999999995
 51
172.28097199999991
  0
ARC
  5
35
  8
0
  6
AIGENLINE001
 62
     7
 10
125.0942009999999
 20
125.54046
 30
0.0
 40
0.5169600000000001
 50
6.7309390000000002
 51
88.273298999999994
  0
ARC
  5
36
  8
0
 62
     7
 10
123.18961999999991
 20
124.04288099999999
 30
0.0
 40
0.514415
 50
16.650296000000001
 51
88.788700000000006
  0
ARC
  5
37
  8
0
 62
     7
 10
138.09148999999999
 20
121.943456
 30
0.0
 40
11.889407999999991
 50
235.36187899999999
 51
268.71741500000002
  0
ARC
  5
38
  8
0
 62
     7
 10
139.956873
 20
125.082882
 30
0.0
 40
15.534670999999991
 50
214.97674599999999
 51
236.28274099999999
  0
ARC
  5
39
  8
0
 62
     7
 10
143.521072
 20
127.879852
 30
0.0
 40
20.060008
 50
194.21420800000001
 51
215.68693599999989
  0
ARC
  5
3A
  8
0
 62
     7
 10
124.18973699999999
 20
124.04288099999999
 30
0.0
 40
0.514415
 50
16.650296000000001
 51
88.788700000000006
  0
ARC
  5
3B
  8
0
 62
     7
 10
148.06677999999991
 20
111.450123
 30
0.0
 40
1.2418290000000001
 50
101.251946
 51
178.48468799999989
  0
ARC
  5
3C
  8
0
 62
     7
 10
156.94470599999991
 20
124.0445039999999
 30
0.0
 40
0.5127550000000002
 50
90.998457000000016
 51
160.60999699999991
  0
ARC
  5
3D
  8
0
  6
AIGENLINE001
 62
     7
 10
127.300619
 20
128.661123
 30
0.0
 40
28.393905
 50
343.84363300000001
 51
353.82568399999991
  0
ARC
  5
3E
  8
0
  6
AIGENLINE001
 62
     7
 10
137.975234
 20
125.794175
 30
0.0
 40
17.344470999999992
 50
332.86787900000002
 51
343.12811399999998
  0
ARC
  5
3F
  8
0
  6
AIGENLINE001
 62
     7
 10
143.95025000000001
 20
122.8403789999999
 30
0.0
 40
10.680334
 50
318.72865799999988
 51
332.352236
  0
ARC
  5
40
  8
0
  6
AIGENLINE001
 62
     7
 10
147.3025529999999
 20
120.021287
 30
0.0
 40
6.301895
 50
299.75529299999988
 51
317.888057
  0
ARC
  5
41
  8
0
  6
AIGENLINE001
 62
     7
 10
148.48828599999999
 20
118.119576
 30
0.0
 40
4.0633449999999991
 50
271.2202299999999
 51
298.548405
  0
ARC
  5
42
  8
0
 62
     7
 10
146.30772300000001
 20
121.220724
 30
0.0
 40
8.6860940000000006
 50
280.05642399999999
 51
340.82943699999998
  0
ARC
  5
43
  8
0
 62
     7
 10
140.11778299999989
 20
109.849327
 30
0.0
 40
0.207837
 50
2.078762999999999
 51
87.921227000000002
  0
ARC
  5
44
  8
0
 62
     7
 10
146.61770899999999
 20
109.76481799999991
 30
0.0
 40
0.207813
 50
272.0726029999999
 51
357.9274069999999
  0
ARC
  5
45
  8
0
 62
     7
 10
140.53318300000001
 20
109.7648409999999
 30
0.0
 40
0.207837
 50
182.07876499999989
 51
267.92126400000001
  0
ARC
  5
46
  8
0
 62
     7
 10
62.275303000000001
 20
177.777694
 30
0.0
 40
0.116292
 50
323.86509599999999
 51
359.49255399999993
  0
ARC
  5
47
  8
0
 62
     7
 10
62.126311000000001
 20
177.88833399999999
 30
0.0
 40
0.301869
 50
298.06338399999993
 51
323.58080000000001
  0
ARC
  5
48
  8
0
 62
     7
 10
61.778156000000003
 20
178.49567799999991
 30
0.0
 40
1.0018260000000001
 50
285.53142100000002
 51
299.29302000000001
  0
ARC
  5
49
  8
0
 62
     7
 10
61.359622999999999
 20
179.91562999999991
 30
0.0
 40
2.4821029999999991
 50
276.85739699999999
 51
286.06311899999992
  0
ARC
  5
4A
  8
0
 62
     7
 10
61.151157999999988
 20
181.47494299999991
 30
0.0
 40
4.0552049999999991
 50
269.86397299999999
 51
277.1512029999999
  0
ARC
  5
4B
  8
0
 62
     7
 10
61.14157500000001
 20
181.275474
 30
0.0
 40
3.8557239999999999
 50
257.40819299999998
 51
269.99933099999993
  0
ARC
  5
4C
  8
0
 62
     7
 10
60.566130999999999
 20
178.63775100000001
 30
0.0
 40
1.156072999999999
 50
241.888319
 51
256.74259899999998
  0
ARC
  5
4D
  8
0
 62
     7
 10
60.117754000000012
 20
177.8295159999999
 30
0.0
 40
0.232376
 50
193.14658199999991
 51
245.502329
  0
ARC
  5
4E
  8
0
 62
     7
 10
60.007918999999987
 20
177.775634
 30
0.0
 40
0.116454
 50
143.89122199999991
 51
179.49361999999991
  0
ARC
  5
4F
  8
0
 62
     7
 10
60.156686000000001
 20
177.66528299999999
 30
0.0
 40
0.30168
 50
118.06929100000001
 51
143.60985299999999
  0
ARC
  5
50
  8
0
 62
     7
 10
60.504934999999989
 20
177.05813399999991
 30
0.0
 40
1.001512999999999
 50
105.53826699999991
 51
119.305137
  0
ARC
  5
51
  8
0
 62
     7
 10
60.923134999999988
 20
175.63966600000001
 30
0.0
 40
2.4802729999999991
 50
96.855466000000021
 51
106.0680449999999
  0
ARC
  5
52
  8
0
 62
     7
 10
61.131818000000003
 20
174.0812939999999
 30
0.0
 40
4.052467
 50
89.862678000000002
 51
97.154847000000004
  0
ARC
  5
53
  8
0
 62
     7
 10
61.141484999999989
 20
174.27891399999999
 30
0.0
 40
3.8548360000000002
 50
77.405249999999995
 51
89.99933399999999
  0
ARC
  5
54
  8
0
 62
     7
 10
61.717278
 20
176.917067
 30
0.0
 40
1.154687999999999
 50
61.871238000000012
 51
76.744193999999993
  0
ARC
  5
55
  8
0
 62
     7
 10
62.16525
 20
177.72390999999999
 30
0.0
 40
0.232406
 50
13.1198
 51
65.490956000000011
  0
LINE
  5
56
  8
0
 62
     7
 10
148.28200000000001
 20
112.75700000000001
 30
0.0
 11
138.5739999999999
 21
112.75700000000001
 31
0.0
  0
LINE
  5
57
  8
0
 62
     7
 10
140.125
 20
110.057
 30
0.0
 11
137.8249999999999
 21
110.057
 31
0.0
  0
LINE
  5
58
  8
0
  6
AIGENLINE001
 62
     7
 10
141.27600000000001
 20
112.057
 30
0.0
 11
140.52600000000001
 21
112.057
 31
0.0
  0
LINE
  5
59
  8
0
  6
AIGENLINE001
 62
     7
 10
141.27600000000001
 20
110.5569999999999
 30
0.0
 11
140.52600000000001
 21
110.5569999999999
 31
0.0
  0
LINE
  5
5A
  8
0
 62
     7
 10
146.625
 20
109.557
 30
0.0
 11
140.52600000000001
 21
109.557
 31
0.0
  0
ARC
  5
5B
  8
0
 62
     7
 10
158.03643700000001
 20
125.0184469999999
 30
0.0
 40
1.0394699999999999
 50
2.1292810000000002
 51
87.850968999999992
  0
LINE
  5
5C
  8
0
 62
     7
 10
159.0749999999999
 20
124.557
 30
0.0
 11
159.0749999999999
 21
125.0569999999999
 31
0.0
  0
ARC
  5
5D
  8
0
  6
AIGENLINE001
 62
     7
 10
139.56826399999991
 20
134.36337399999999
 30
0.0
 40
20.306222000000002
 50
254.91582500000001
 51
270.01745599999992
  0
ARC
  5
5E
  8
0
  6
AIGENLINE001
 62
     7
 10
138.0472509999999
 20
127.81752899999999
 30
0.0
 40
13.592121999999989
 50
234.98932199999999
 51
253.92570299999991
  0
ARC
  5
5F
  8
0
  6
AIGENLINE001
 62
     7
 10
136.71046499999991
 20
125.533947
 30
0.0
 40
10.956925999999999
 50
195.52520399999989
 51
233.863562
  0
ARC
  5
60
  8
0
  6
AIGENLINE001
 62
     7
 10
140.2029039999999
 20
126.70676
 30
0.0
 40
14.637155999999999
 50
184.33369200000001
 51
196.28943000000001
  0
ARC
  5
61
  8
0
 62
     7
 10
138.91280800000001
 20
132.45831599999991
 30
0.0
 40
19.704257999999999
 50
257.17366900000002
 51
269.01573899999988
  0
ARC
  5
62
  8
0
 62
     7
 10
137.48658499999999
 20
125.132065
 30
0.0
 40
12.246468999999991
 50
212.41442499999999
 51
256.07054099999999
  0
ARC
  5
63
  8
0
 62
     7
 10
142.28320999999991
 20
128.24482399999991
 30
0.0
 40
17.964397000000002
 50
201.97947699999989
 51
212.594919
  0
ARC
  5
64
  8
0
 62
     7
 10
150.52562900000001
 20
131.8095999999999
 30
0.0
 40
26.942848999999988
 50
196.42715499999991
 51
202.448936
  0
LINE
  5
65
  8
0
 62
     7
 10
123.075
 20
126.0569999999999
 30
0.0
 11
158.0749999999999
 21
126.0569999999999
 31
0.0
  0
ARC
  5
66
  8
0
 62
     7
 10
123.113726
 20
125.0184469999999
 30
0.0
 40
1.0394699999999999
 50
92.149011000000002
 51
177.870699
  0
LINE
  5
67
  8
0
 62
     7
 10
154.512
 20
118.36799999999999
 30
0.0
 11
156.46100000000001
 21
124.215
 31
0.0
  0
LINE
  5
68
  8
0
  6
AIGENLINE001
 62
     7
 10
141.27600000000001
 20
109.557
 30
0.0
 11
141.27600000000001
 21
110.5569999999999
 31
0.0
  0
LINE
  5
69
  8
0
  6
AIGENLINE001
 62
     7
 10
141.27600000000001
 20
112.057
 30
0.0
 11
141.27600000000001
 21
113.057
 31
0.0
  0
LINE
  5
6A
  8
0
  6
AIGENLINE001
 62
     7
 10
145.876
 20
109.557
 30
0.0
 11
145.876
 21
113.057
 31
0.0
  0
LINE
  5
6B
  8
0
  6
AIGENLINE002
 62
     7
 10
143.57599999999991
 20
107.824
 30
0.0
 11
143.57599999999991
 21
115.0449999999999
 31
0.0
  0
LINE
  5
6C
  8
0
  6
AIGENLINE002
 62
     7
 10
143.57599999999991
 20
107.824
 30
0.0
 11
143.57599999999991
 21
115.0449999999999
 31
0.0
  0
LINE
  5
6D
  8
0
 62
     7
 10
140.3249999999999
 20
109.75700000000001
 30
0.0
 11
140.3249999999999
 21
109.857
 31
0.0
  0
LINE
  5
6E
  8
0
 62
     7
 10
146.8249999999999
 20
109.75700000000001
 30
0.0
 11
146.8249999999999
 21
111.4829999999999
 31
0.0
  0
LINE
  5
6F
  8
0
 62
     7
 10
122.075
 20
124.557
 30
0.0
 11
122.075
 21
125.0569999999999
 31
0.0
  0
LINE
  5
70
  8
0
 62
     7
 10
123.682
 20
124.19
 30
0.0
 11
124.075
 21
122.95399999999989
 31
0.0
  0
LINE
  5
71
  8
0
 62
     7
 10
122.075
 20
124.557
 30
0.0
 11
159.0749999999999
 21
124.557
 31
0.0
  0
LINE
  5
72
  8
0
 62
     7
 10
143.57599999999991
 20
100.77200000000001
 30
0.0
 11
143.57599999999991
 21
107.22499999999989
 31
0.0
  0
LINE
  5
73
  8
0
 62
     7
 10
159.07599999999991
 20
100.77200000000001
 30
0.0
 11
159.07599999999991
 21
123.5589999999999
 31
0.0
  0
LINE
  5
74
  8
0
 62
     7
 10
143.4679999999999
 20
123.846
 30
0.0
 11
142.876
 21
126.0569999999999
 31
0.0
  0
LINE
  5
75
  8
0
 62
     7
 10
142.876
 20
126.0569999999999
 30
0.0
 11
142.2829999999999
 21
123.846
 31
0.0
  0
LINE
  5
76
  8
0
 62
     7
 10
142.2829999999999
 20
123.846
 30
0.0
 11
143.4679999999999
 21
123.846
 31
0.0
  0
LINE
  5
77
  8
0
 62
     7
 10
142.28999999999999
 20
116.26900000000001
 30
0.0
 11
142.8829999999999
 21
114.057
 31
0.0
  0
LINE
  5
78
  8
0
 62
     7
 10
142.8829999999999
 20
114.057
 30
0.0
 11
143.47499999999999
 21
116.26900000000001
 31
0.0
  0
LINE
  5
79
  8
0
 62
     7
 10
143.47499999999999
 20
116.26900000000001
 30
0.0
 11
142.28999999999999
 21
116.26900000000001
 31
0.0
  0
LINE
  5
7A
  8
0
 62
     7
 10
142.8829999999999
 20
126.0559999999999
 30
0.0
 11
142.8829999999999
 21
114.057
 31
0.0
  0
LINE
  5
7B
  8
0
 62
     7
 10
156.86500000000001
 20
100.8869999999999
 30
0.0
 11
159.07599999999991
 21
101.479
 31
0.0
  0
LINE
  5
7C
  8
0
 62
     7
 10
159.07599999999991
 20
101.479
 30
0.0
 11
156.86500000000001
 21
102.072
 31
0.0
  0
LINE
  5
7D
  8
0
 62
     7
 10
156.86500000000001
 20
102.072
 30
0.0
 11
156.86500000000001
 21
100.8869999999999
 31
0.0
  0
LINE
  5
7E
  8
0
 62
     7
 10
145.78699999999989
 20
102.0569999999999
 30
0.0
 11
143.5749999999999
 21
101.465
 31
0.0
  0
LINE
  5
7F
  8
0
 62
     7
 10
143.5749999999999
 20
101.465
 30
0.0
 11
145.78699999999989
 21
100.872
 31
0.0
  0
LINE
  5
80
  8
0
 62
     7
 10
145.78699999999989
 20
100.872
 30
0.0
 11
145.78699999999989
 21
102.0569999999999
 31
0.0
  0
LINE
  5
81
  8
0
 62
     7
 10
159.0749999999999
 20
101.47199999999999
 30
0.0
 11
143.57599999999991
 21
101.47199999999999
 31
0.0
  0
ARC
  5
82
  8
0
  6
AIGENLINE001
 62
     7
 10
61.141615999999999
 20
122.057146
 30
0.0
 40
1.2499750000000001
 50
269.99607200000003
 51
359.99604199999987
  0
ARC
  5
83
  8
0
  6
AIGENLINE001
 62
     7
 10
61.141443000000002
 20
122.05714500000001
 30
0.0
 40
1.249973999999999
 50
180.00395800000001
 51
270.00396799999999
  0
ARC
  5
84
  8
0
  6
AIGENLINE001
 62
     7
 10
61.141443999999993
 20
122.056973
 30
0.0
 40
1.2499750000000001
 50
89.996052000000006
 51
179.99602200000001
  0
ARC
  5
85
  8
0
  6
AIGENLINE001
 62
     7
 10
61.141615999999999
 20
122.056973
 30
0.0
 40
1.2499750000000001
 50
0.003958
 51
90.003928000000016
  0
ARC
  5
86
  8
0
 62
     7
 10
65.637476000000007
 20
111.62724299999989
 30
0.0
 40
1.2466680000000001
 50
92.109478999999993
 51
177.890491
  0
ARC
  5
87
  8
0
 62
     7
 10
64.597695999999999
 20
169.28563
 30
0.0
 40
56.421315
 50
271.00918200000001
 51
276.19533699999999
  0
ARC
  5
88
  8
0
 62
     7
 10
66.479794999999996
 20
150.420682
 30
0.0
 40
37.463793000000003
 50
276.44732499999992
 51
283.57654500000001
  0
ARC
  5
89
  8
0
 62
     7
 10
69.613127000000006
 20
136.87568999999991
 30
0.0
 40
23.562135000000001
 50
283.90197499999988
 51
295.56718699999988
  0
ARC
  5
8A
  8
0
 62
     7
 10
73.454575000000006
 20
128.36376100000001
 30
0.0
 40
14.227368
 50
296.40563700000001
 51
311.56664499999988
  0
ARC
  5
8B
  8
0
 62
     7
 10
76.025492
 20
125.1706949999999
 30
0.0
 40
10.13446199999999
 50
312.66943599999991
 51
356.52934199999987
  0
ARC
  5
8C
  8
0
 62
     7
 10
63.399731000000003
 20
110.574026
 30
0.0
 40
0.5176210000000001
 50
271.87700699999999
 51
355.20203800000002
  0
LINE
  5
8D
  8
0
 62
     7
 10
61.141500000000001
 20
110.057
 30
0.0
 11
63.416699999999999
 21
110.057
 31
0.0
  0
ARC
  5
8E
  8
0
 62
     7
 10
64.183858999999998
 20
109.764961
 30
0.0
 40
0.207949
 50
272.0086609999999
 51
357.79411800000003
  0
LINE
  5
8F
  8
0
 62
     7
 10
64.191100000000006
 20
109.557
 30
0.0
 11
61.141500000000001
 21
109.557
 31
0.0
  0
LINE
  5
90
  8
0
  6
AIGENLINE002
 62
     7
 10
63.799399999999999
 20
122.057
 30
0.0
 11
58.4726
 21
122.057
 31
0.0
  0
LINE
  5
91
  8
0
 62
     7
 10
87.641499999999979
 20
126.0569999999999
 30
0.0
 11
61.141500000000001
 21
126.0569999999999
 31
0.0
  0
ARC
  5
92
  8
0
 62
     7
 10
87.602957999999987
 20
125.0188389999999
 30
0.0
 40
1.039062999999999
 50
2.1084629999999991
 51
87.871786999999998
  0
LINE
  5
93
  8
0
 62
     7
 10
64.3917
 20
109.75700000000001
 30
0.0
 11
64.3917
 21
111.673
 31
0.0
  0
LINE
  5
94
  8
0
 62
     7
 10
63.915500000000002
 20
110.53100000000001
 30
0.0
 11
64.641099999999994
 21
124.557
 31
0.0
  0
LINE
  5
95
  8
0
 62
     7
 10
88.641300000000015
 20
124.557
 30
0.0
 11
88.641300000000015
 21
125.0569999999999
 31
0.0
  0
LINE
  5
96
  8
0
 62
     7
 10
88.641300000000015
 20
124.557
 30
0.0
 11
61.141500000000001
 21
124.557
 31
0.0
  0
ARC
  5
97
  8
0
 62
     7
 10
56.645581999999997
 20
111.627242
 30
0.0
 40
1.2466680000000001
 50
2.1095060000000001
 51
87.890484000000001
  0
ARC
  5
98
  8
0
 62
     7
 10
57.685363000000002
 20
169.28563
 30
0.0
 40
56.421315
 50
263.8046829999999
 51
268.99083699999989
  0
ARC
  5
99
  8
0
 62
     7
 10
55.803265000000003
 20
150.420682
 30
0.0
 40
37.463793000000003
 50
256.423475
 51
263.55269500000003
  0
ARC
  5
9A
  8
0
 62
     7
 10
52.669932999999993
 20
136.87568999999991
 30
0.0
 40
23.562135000000001
 50
244.43283299999999
 51
256.09804400000002
  0
ARC
  5
9B
  8
0
 62
     7
 10
48.828484000000003
 20
128.36376100000001
 30
0.0
 40
14.227368
 50
228.43337500000001
 51
243.59438299999999
  0
ARC
  5
9C
  8
0
 62
     7
 10
46.257567000000002
 20
125.1706949999999
 30
0.0
 40
10.13446199999999
 50
183.47067699999999
 51
227.33058299999999
  0
ARC
  5
9D
  8
0
 62
     7
 10
58.883618999999989
 20
110.574331
 30
0.0
 40
0.517936
 50
184.828992
 51
268.09200299999992
  0
LINE
  5
9E
  8
0
 62
     7
 10
61.141500000000001
 20
110.057
 30
0.0
 11
58.866399999999992
 21
110.057
 31
0.0
  0
ARC
  5
9F
  8
0
 62
     7
 10
58.099381000000001
 20
109.7651429999999
 30
0.0
 40
0.208136
 50
182.25392099999999
 51
267.94333999999992
  0
LINE
  5
A0
  8
0
 62
     7
 10
58.091900000000003
 20
109.557
 30
0.0
 11
61.141500000000001
 21
109.557
 31
0.0
  0
LINE
  5
A1
  8
0
 62
     7
 10
34.641500000000001
 20
126.0569999999999
 30
0.0
 11
61.141500000000001
 21
126.0569999999999
 31
0.0
  0
ARC
  5
A2
  8
0
 62
     7
 10
34.680101000000001
 20
125.01884
 30
0.0
 40
1.0390619999999999
 50
92.128176000000011
 51
177.89153400000001
  0
LINE
  5
A3
  8
0
 62
     7
 10
57.89139999999999
 20
109.75700000000001
 30
0.0
 11
57.89139999999999
 21
111.673
 31
0.0
  0
LINE
  5
A4
  8
0
 62
     7
 10
58.3675
 20
110.53100000000001
 30
0.0
 11
57.641999999999989
 21
124.557
 31
0.0
  0
LINE
  5
A5
  8
0
  6
AIGENLINE002
 62
     7
 10
61.141500000000001
 20
105.751
 30
0.0
 11
61.141500000000001
 21
129.93299999999991
 31
0.0
  0
LINE
  5
A6
  8
0
 62
     7
 10
33.6417
 20
124.557
 30
0.0
 11
33.6417
 21
125.0569999999999
 31
0.0
  0
LINE
  5
A7
  8
0
 62
     7
 10
33.6417
 20
124.557
 30
0.0
 11
61.141500000000001
 21
124.557
 31
0.0
  0
ARC
  5
A8
  8
0
  6
AIGENLINE001
 62
     7
 10
143.57560599999991
 20
194.15182200000001
 30
0.0
 40
3.9997820000000002
 50
0.00001
 51
89.999980000000008
  0
ARC
  5
A9
  8
0
  6
AIGENLINE001
 62
     7
 10
143.57560699999999
 20
194.15182200000001
 30
0.0
 40
3.9997820000000002
 50
90.0
 51
179.99996999999991
  0
ARC
  5
AA
  8
0
  6
AIGENLINE001
 62
     7
 10
143.57577800000001
 20
194.1516499999999
 30
0.0
 40
3.9999530000000001
 50
179.99750299999991
 51
269.99755199999993
  0
ARC
  5
AB
  8
0
  6
AIGENLINE001
 62
     7
 10
143.575434
 20
194.1516509999999
 30
0.0
 40
3.9999539999999998
 50
270.00248699999997
 51
0.002457
  0
ARC
  5
AC
  8
0
  6
AIGENLINE001
 62
     7
 10
143.487855
 20
194.0640709999999
 30
0.0
 40
2.3893239999999998
 50
2.1047569999999989
 51
87.89523299999999
  0
ARC
  5
AD
  8
0
  6
AIGENLINE001
 62
     7
 10
143.66414199999991
 20
194.063287
 30
0.0
 40
2.390136
 50
92.122834999999995
 51
177.87713600000001
  0
ARC
  5
AE
  8
0
  6
AIGENLINE001
 62
     7
 10
143.66370599999999
 20
194.239565
 30
0.0
 40
2.389670999999999
 50
182.10423499999999
 51
267.88721299999992
  0
ARC
  5
AF
  8
0
  6
AIGENLINE001
 62
     7
 10
143.48704599999991
 20
194.240025
 30
0.0
 40
2.3901479999999991
 50
272.12342799999999
 51
357.88516399999997
  0
LINE
  5
B0
  8
0
  6
AIGENLINE002
 62
     7
 10
137.55600000000001
 20
194.15199999999999
 30
0.0
 11
149.65100000000001
 21
194.15199999999999
 31
0.0
  0
ARC
  5
B1
  8
0
 62
     7
 10
164.325805
 20
179.1516969999999
 30
0.0
 40
4.9999859999999989
 50
270.0010069999999
 51
0.000977
  0
ARC
  5
B2
  8
0
 62
     7
 10
164.325805
 20
203.15193199999999
 30
0.0
 40
4.9999859999999989
 50
359.99902300000002
 51
89.998992999999999
  0
ARC
  5
B3
  8
0
 62
     7
 10
122.825406
 20
179.1516949999999
 30
0.0
 40
4.9999839999999987
 50
179.99898300000001
 51
269.99903299999988
  0
ARC
  5
B4
  8
0
 62
     7
 10
122.825408
 20
203.15193199999999
 30
0.0
 40
4.9999859999999989
 50
90.000986999999981
 51
180.0009969999999
  0
LINE
  5
B5
  8
0
 62
     7
 10
160.108
 20
198.38499999999991
 30
0.0
 11
153.184
 21
198.38499999999991
 31
0.0
  0
LINE
  5
B6
  8
0
 62
     7
 10
166.9799999999999
 20
204.4189999999999
 30
0.0
 11
168.124
 21
206.4009999999999
 31
0.0
  0
LINE
  5
B7
  8
0
 62
     7
 10
168.124
 20
206.4009999999999
 30
0.0
 11
166.14099999999999
 21
205.25700000000001
 31
0.0
  0
LINE
  5
B8
  8
0
 62
     7
 10
166.14099999999999
 20
205.25700000000001
 30
0.0
 11
166.9799999999999
 21
204.4189999999999
 31
0.0
  0
LINE
  5
B9
  8
0
 62
     7
 10
160.108
 20
198.38499999999991
 30
0.0
 11
168.124
 21
206.4009999999999
 31
0.0
  0
LINE
  5
BA
  8
0
 62
     7
 10
131.858
 20
196.363
 30
0.0
 11
132.44999999999999
 21
194.1509999999999
 31
0.0
  0
LINE
  5
BB
  8
0
 62
     7
 10
132.44999999999999
 20
194.1509999999999
 30
0.0
 11
133.04300000000001
 21
196.363
 31
0.0
  0
LINE
  5
BC
  8
0
 62
     7
 10
133.04300000000001
 20
196.363
 30
0.0
 11
131.858
 21
196.363
 31
0.0
  0
LINE
  5
BD
  8
0
 62
     7
 10
133.02799999999991
 20
205.94099999999989
 30
0.0
 11
132.43600000000001
 21
208.15299999999991
 31
0.0
  0
LINE
  5
BE
  8
0
 62
     7
 10
132.43600000000001
 20
208.15299999999991
 30
0.0
 11
131.8429999999999
 21
205.94099999999989
 31
0.0
  0
LINE
  5
BF
  8
0
 62
     7
 10
131.8429999999999
 20
205.94099999999989
 30
0.0
 11
133.02799999999991
 21
205.94099999999989
 31
0.0
  0
LINE
  5
C0
  8
0
 62
     7
 10
132.4429999999999
 20
194.15199999999999
 30
0.0
 11
132.4429999999999
 21
208.15199999999999
 31
0.0
  0
LINE
  5
C1
  8
0
 62
     7
 10
136.85599999999991
 20
194.15199999999999
 30
0.0
 11
131.75
 21
194.15199999999999
 31
0.0
  0
LINE
  5
C2
  8
0
 62
     7
 10
179.483
 20
176.36199999999991
 30
0.0
 11
180.07599999999999
 21
174.1509999999999
 31
0.0
  0
LINE
  5
C3
  8
0
 62
     7
 10
180.07599999999999
 20
174.1509999999999
 30
0.0
 11
180.66800000000001
 21
176.36199999999991
 31
0.0
  0
LINE
  5
C4
  8
0
 62
     7
 10
180.66800000000001
 20
176.36199999999991
 30
0.0
 11
179.483
 21
176.36199999999991
 31
0.0
  0
LINE
  5
C5
  8
0
 62
     7
 10
180.654
 20
205.94099999999989
 30
0.0
 11
180.06099999999989
 21
208.15299999999991
 31
0.0
  0
LINE
  5
C6
  8
0
 62
     7
 10
180.06099999999989
 20
208.15299999999991
 30
0.0
 11
179.46899999999999
 21
205.94099999999989
 31
0.0
  0
LINE
  5
C7
  8
0
 62
     7
 10
179.46899999999999
 20
205.94099999999989
 30
0.0
 11
180.654
 21
205.94099999999989
 31
0.0
  0
LINE
  5
C8
  8
0
 62
     7
 10
180.0679999999999
 20
174.15199999999999
 30
0.0
 11
180.0679999999999
 21
208.15199999999999
 31
0.0
  0
LINE
  5
C9
  8
0
 62
     7
 10
180.76799999999989
 20
174.15199999999999
 30
0.0
 11
167.82099999999991
 21
174.15199999999999
 31
0.0
  0
LINE
  5
CA
  8
0
 62
     7
 10
167.82099999999991
 20
208.15199999999999
 30
0.0
 11
180.76799999999989
 21
208.15199999999999
 31
0.0
  0
LINE
  5
CB
  8
0
  6
AIGENLINE001
 62
     7
 10
139.5739999999999
 20
114.057
 30
0.0
 11
148.5749999999999
 21
114.057
 31
0.0
  0
LINE
  5
CC
  8
0
 62
     7
 10
167.11500000000001
 20
217.87200000000001
 30
0.0
 11
169.32599999999991
 21
218.46499999999989
 31
0.0
  0
LINE
  5
CD
  8
0
 62
     7
 10
169.32599999999991
 20
218.46499999999989
 30
0.0
 11
167.11500000000001
 21
219.05699999999999
 31
0.0
  0
LINE
  5
CE
  8
0
 62
     7
 10
167.11500000000001
 20
219.05699999999999
 30
0.0
 11
167.11500000000001
 21
217.87200000000001
 31
0.0
  0
LINE
  5
CF
  8
0
 62
     7
 10
120.036
 20
219.04300000000001
 30
0.0
 11
117.825
 21
218.4499999999999
 31
0.0
  0
LINE
  5
D0
  8
0
 62
     7
 10
117.825
 20
218.4499999999999
 30
0.0
 11
120.036
 21
217.858
 31
0.0
  0
LINE
  5
D1
  8
0
 62
     7
 10
120.036
 20
217.858
 30
0.0
 11
120.036
 21
219.04300000000001
 31
0.0
  0
LINE
  5
D2
  8
0
 62
     7
 10
169.32599999999991
 20
218.45699999999991
 30
0.0
 11
117.825
 21
218.45699999999991
 31
0.0
  0
LINE
  5
D3
  8
0
 62
     7
 10
117.825
 20
206.89500000000001
 30
0.0
 11
117.825
 21
219.15700000000001
 31
0.0
  0
LINE
  5
D4
  8
0
 62
     7
 10
169.32599999999991
 20
219.15700000000001
 30
0.0
 11
169.32599999999991
 21
206.89500000000001
 31
0.0
  0
LINE
  5
D5
  8
0
  6
AIGENLINE002
 62
     7
 10
143.57599999999991
 20
170.43899999999999
 30
0.0
 11
143.57599999999991
 21
211.75599999999989
 31
0.0
  0
LINE
  5
D6
  8
0
  6
AIGENLINE002
 62
     7
 10
114.792
 20
191.15199999999999
 30
0.0
 11
172.02799999999991
 21
191.15199999999999
 31
0.0
  0
LINE
  5
D7
  8
0
 62
     7
 10
169.32599999999991
 20
179.15199999999999
 30
0.0
 11
169.32599999999991
 21
203.1519999999999
 31
0.0
  0
LINE
  5
D8
  8
0
 62
     7
 10
117.825
 20
179.15199999999999
 30
0.0
 11
117.825
 21
203.1519999999999
 31
0.0
  0
LINE
  5
D9
  8
0
 62
     7
 10
122.825
 20
174.15199999999999
 30
0.0
 11
164.32599999999991
 21
174.15199999999999
 31
0.0
  0
LINE
  5
DA
  8
0
 62
     7
 10
122.825
 20
208.15199999999999
 30
0.0
 11
164.32599999999991
 21
208.15199999999999
 31
0.0
  0
LINE
  5
DB
  8
0
 62
     7
 10
102.797
 20
109.557
 30
0.0
 11
65.267399999999995
 21
109.557
 31
0.0
  0
LINE
  5
DC
  8
0
 62
     7
 10
95.790599999999998
 20
124.557
 30
0.0
 11
89.496700000000004
 21
124.557
 31
0.0
  0
LINE
  5
DD
  8
0
 62
     7
 10
102.797
 20
126.0569999999999
 30
0.0
 11
89.058899999999994
 21
126.0569999999999
 31
0.0
  0
LINE
  5
DE
  8
0
 62
     7
 10
102.68299999999989
 20
123.846
 30
0.0
 11
102.09
 21
126.05800000000001
 31
0.0
  0
LINE
  5
DF
  8
0
 62
     7
 10
102.09
 20
126.05800000000001
 30
0.0
 11
101.49799999999991
 21
123.846
 31
0.0
  0
LINE
  5
E0
  8
0
 62
     7
 10
101.49799999999991
 20
123.846
 30
0.0
 11
102.68299999999989
 21
123.846
 31
0.0
  0
LINE
  5
E1
  8
0
 62
     7
 10
101.512
 20
111.7679999999999
 30
0.0
 11
102.105
 21
109.556
 31
0.0
  0
LINE
  5
E2
  8
0
 62
     7
 10
102.105
 20
109.556
 30
0.0
 11
102.6969999999999
 21
111.7679999999999
 31
0.0
  0
LINE
  5
E3
  8
0
 62
     7
 10
102.6969999999999
 20
111.7679999999999
 30
0.0
 11
101.512
 21
111.7679999999999
 31
0.0
  0
LINE
  5
E4
  8
0
 62
     7
 10
102.09699999999999
 20
126.0569999999999
 30
0.0
 11
102.09699999999999
 21
109.557
 31
0.0
  0
LINE
  5
E5
  8
0
 62
     7
 10
95.683099999999996
 20
122.3459999999999
 30
0.0
 11
95.090599999999995
 21
124.557
 31
0.0
  0
LINE
  5
E6
  8
0
 62
     7
 10
95.090599999999995
 20
124.557
 30
0.0
 11
94.49799999999999
 21
122.3459999999999
 31
0.0
  0
LINE
  5
E7
  8
0
 62
     7
 10
94.49799999999999
 20
122.3459999999999
 30
0.0
 11
95.683099999999996
 21
122.3459999999999
 31
0.0
  0
LINE
  5
E8
  8
0
 62
     7
 10
94.49799999999999
 20
128.26900000000001
 30
0.0
 11
95.090599999999995
 21
126.0569999999999
 31
0.0
  0
LINE
  5
E9
  8
0
 62
     7
 10
95.090599999999995
 20
126.0569999999999
 30
0.0
 11
95.683099999999996
 21
128.26900000000001
 31
0.0
  0
LINE
  5
EA
  8
0
 62
     7
 10
95.683099999999996
 20
128.26900000000001
 30
0.0
 11
94.49799999999999
 21
128.26900000000001
 31
0.0
  0
LINE
  5
EB
  8
0
 62
     7
 10
95.090599999999995
 20
131.64400000000001
 30
0.0
 11
95.090599999999995
 21
121.133
 31
0.0
  0
LINE
  5
EC
  8
0
 62
     7
 10
86.553700000000006
 20
206.15199999999999
 30
0.0
 11
98.363600000000005
 21
206.15199999999999
 31
0.0
  0
LINE
  5
ED
  8
0
 62
     7
 10
86.553700000000006
 20
176.1509999999999
 30
0.0
 11
98.363600000000005
 21
176.1509999999999
 31
0.0
  0
LINE
  5
EE
  8
0
 62
     7
 10
105.6489999999999
 20
172.65199999999999
 30
0.0
 11
87.978999999999999
 21
172.65199999999999
 31
0.0
  0
LINE
  5
EF
  8
0
 62
     7
 10
105.6489999999999
 20
209.65199999999999
 30
0.0
 11
87.978999999999999
 21
209.65199999999999
 31
0.0
  0
LINE
  5
F0
  8
0
 62
     7
 10
105.535
 20
207.44099999999989
 30
0.0
 11
104.94199999999999
 21
209.65299999999999
 31
0.0
  0
LINE
  5
F1
  8
0
 62
     7
 10
104.94199999999999
 20
209.65299999999999
 30
0.0
 11
104.34999999999989
 21
207.44099999999989
 31
0.0
  0
LINE
  5
F2
  8
0
 62
     7
 10
104.34999999999989
 20
207.44099999999989
 30
0.0
 11
105.535
 21
207.44099999999989
 31
0.0
  0
LINE
  5
F3
  8
0
 62
     7
 10
104.3639999999999
 20
174.86199999999999
 30
0.0
 11
104.95699999999999
 21
172.6509999999999
 31
0.0
  0
LINE
  5
F4
  8
0
 62
     7
 10
104.95699999999999
 20
172.6509999999999
 30
0.0
 11
105.54900000000001
 21
174.86199999999999
 31
0.0
  0
LINE
  5
F5
  8
0
 62
     7
 10
105.54900000000001
 20
174.86199999999999
 30
0.0
 11
104.3639999999999
 21
174.86199999999999
 31
0.0
  0
LINE
  5
F6
  8
0
 62
     7
 10
104.949
 20
209.65199999999999
 30
0.0
 11
104.949
 21
172.65199999999999
 31
0.0
  0
LINE
  5
F7
  8
0
 62
     7
 10
98.248500000000007
 20
203.94099999999989
 30
0.0
 11
97.656000000000006
 21
206.15299999999991
 31
0.0
  0
LINE
  5
F8
  8
0
 62
     7
 10
97.656000000000006
 20
206.15299999999991
 30
0.0
 11
97.063400000000001
 21
203.94099999999989
 31
0.0
  0
LINE
  5
F9
  8
0
 62
     7
 10
97.063400000000001
 20
203.94099999999989
 30
0.0
 11
98.248500000000007
 21
203.94099999999989
 31
0.0
  0
LINE
  5
FA
  8
0
 62
     7
 10
97.077900000000014
 20
178.36199999999991
 30
0.0
 11
97.670500000000004
 21
176.1509999999999
 31
0.0
  0
LINE
  5
FB
  8
0
 62
     7
 10
97.670500000000004
 20
176.1509999999999
 30
0.0
 11
98.262999999999991
 21
178.36199999999991
 31
0.0
  0
LINE
  5
FC
  8
0
 62
     7
 10
98.262999999999991
 20
178.36199999999991
 30
0.0
 11
97.077900000000014
 21
178.36199999999991
 31
0.0
  0
LINE
  5
FD
  8
0
 62
     7
 10
97.663600000000002
 20
206.15199999999999
 30
0.0
 11
97.663600000000002
 21
176.1509999999999
 31
0.0
  0
LINE
  5
FE
  8
0
 62
     7
 10
48.838500000000003
 20
194.15199999999999
 30
0.0
 11
54.0715
 21
194.15199999999999
 31
0.0
  0
LINE
  5
FF
  8
0
 62
     7
 10
48.953200000000002
 20
196.36199999999991
 30
0.0
 11
49.545799999999993
 21
194.1509999999999
 31
0.0
  0
LINE
  5
100
  8
0
 62
     7
 10
49.545799999999993
 20
194.1509999999999
 30
0.0
 11
50.138300000000001
 21
196.36199999999991
 31
0.0
  0
LINE
  5
101
  8
0
 62
     7
 10
50.138300000000001
 20
196.36199999999991
 30
0.0
 11
48.953200000000002
 21
196.36199999999991
 31
0.0
  0
LINE
  5
102
  8
0
 62
     7
 10
50.123899999999992
 20
207.44099999999989
 30
0.0
 11
49.531300000000002
 21
209.65199999999999
 31
0.0
  0
LINE
  5
103
  8
0
 62
     7
 10
49.531300000000002
 20
209.65199999999999
 30
0.0
 11
48.938800000000001
 21
207.44099999999989
 31
0.0
  0
LINE
  5
104
  8
0
 62
     7
 10
48.938800000000001
 20
207.44099999999989
 30
0.0
 11
50.123899999999992
 21
207.44099999999989
 31
0.0
  0
LINE
  5
105
  8
0
 62
     7
 10
49.538499999999999
 20
194.15199999999999
 30
0.0
 11
49.538499999999999
 21
209.65199999999999
 31
0.0
  0
LINE
  5
106
  8
0
 62
     7
 10
85.642200000000003
 20
219.62
 30
0.0
 11
85.642200000000003
 21
206.68599999999989
 31
0.0
  0
LINE
  5
107
  8
0
 62
     7
 10
36.64159999999999
 20
219.62
 30
0.0
 11
36.64159999999999
 21
206.68599999999989
 31
0.0
  0
LINE
  5
108
  8
0
 62
     7
 10
38.85199999999999
 20
219.50599999999989
 30
0.0
 11
36.640500000000003
 21
218.91300000000001
 31
0.0
  0
LINE
  5
109
  8
0
 62
     7
 10
36.640500000000003
 20
218.91300000000001
 30
0.0
 11
38.85199999999999
 21
218.32099999999991
 31
0.0
  0
LINE
  5
10A
  8
0
 62
     7
 10
38.85199999999999
 20
218.32099999999991
 30
0.0
 11
38.85199999999999
 21
219.50599999999989
 31
0.0
  0
LINE
  5
10B
  8
0
 62
     7
 10
83.431100000000015
 20
218.33500000000001
 30
0.0
 11
85.642899999999983
 21
218.928
 31
0.0
  0
LINE
  5
10C
  8
0
 62
     7
 10
85.642899999999983
 20
218.928
 30
0.0
 11
83.431100000000015
 21
219.52000000000001
 31
0.0
  0
LINE
  5
10D
  8
0
 62
     7
 10
83.431100000000015
 20
219.52000000000001
 30
0.0
 11
83.431100000000015
 21
218.33500000000001
 31
0.0
  0
LINE
  5
10E
  8
0
 62
     7
 10
36.64159999999999
 20
218.91999999999999
 30
0.0
 11
85.642200000000003
 21
218.91999999999999
 31
0.0
  0
LINE
  5
10F
  8
0
 62
     7
 10
88.641699999999986
 20
227.983
 30
0.0
 11
88.641699999999986
 21
209.47
 31
0.0
  0
LINE
  5
110
  8
0
 62
     7
 10
33.64139999999999
 20
227.983
 30
0.0
 11
33.64139999999999
 21
209.47
 31
0.0
  0
LINE
  5
111
  8
0
 62
     7
 10
35.8521
 20
227.86799999999999
 30
0.0
 11
33.640700000000002
 21
227.2759999999999
 31
0.0
  0
LINE
  5
112
  8
0
 62
     7
 10
33.640700000000002
 20
227.2759999999999
 30
0.0
 11
35.8521
 21
226.68299999999999
 31
0.0
  0
LINE
  5
113
  8
0
 62
     7
 10
35.8521
 20
226.68299999999999
 30
0.0
 11
35.8521
 21
227.86799999999999
 31
0.0
  0
LINE
  5
114
  8
0
 62
     7
 10
86.431299999999993
 20
226.69799999999989
 30
0.0
 11
88.642700000000005
 21
227.28999999999991
 31
0.0
  0
LINE
  5
115
  8
0
 62
     7
 10
88.642700000000005
 20
227.28999999999991
 30
0.0
 11
86.431299999999993
 21
227.8829999999999
 31
0.0
  0
LINE
  5
116
  8
0
 62
     7
 10
86.431299999999993
 20
227.8829999999999
 30
0.0
 11
86.431299999999993
 21
226.69799999999989
 31
0.0
  0
LINE
  5
117
  8
0
 62
     7
 10
33.64139999999999
 20
227.2829999999999
 30
0.0
 11
88.641699999999986
 21
227.2829999999999
 31
0.0
  0
LINE
  5
118
  8
0
 62
     7
 10
74.278499999999994
 20
186.93000000000001
 30
0.0
 11
68.363200000000006
 21
186.93000000000001
 31
0.0
  0
LINE
  5
119
  8
0
 62
     7
 10
64.750600000000006
 20
191.37999999999991
 30
0.0
 11
62.768300000000004
 21
192.52500000000001
 31
0.0
  0
LINE
  5
11A
  8
0
 62
     7
 10
62.768300000000004
 20
192.52500000000001
 30
0.0
 11
63.912799999999997
 21
190.542
 31
0.0
  0
LINE
  5
11B
  8
0
 62
     7
 10
63.912799999999997
 20
190.542
 30
0.0
 11
64.750600000000006
 21
191.37999999999991
 31
0.0
  0
LINE
  5
11C
  8
0
 62
     7
 10
57.5379
 20
196.92799999999991
 30
0.0
 11
59.520299999999999
 21
195.7829999999999
 31
0.0
  0
LINE
  5
11D
  8
0
 62
     7
 10
59.520299999999999
 20
195.7829999999999
 30
0.0
 11
58.375799999999991
 21
197.76599999999999
 31
0.0
  0
LINE
  5
11E
  8
0
 62
     7
 10
58.375799999999991
 20
197.76599999999999
 30
0.0
 11
57.5379
 21
196.92799999999991
 31
0.0
  0
LINE
  5
11F
  8
0
 62
     7
 10
55.423999999999999
 20
199.87
 30
0.0
 11
68.363200000000006
 21
186.93000000000001
 31
0.0
  0
LINE
  5
120
  8
0
 62
     7
 10
84.142200000000003
 20
176.1509999999999
 30
0.0
 11
38.14159999999999
 21
176.1509999999999
 31
0.0
  0
LINE
  5
121
  8
0
 62
     7
 10
36.64159999999999
 20
177.6509999999999
 30
0.0
 11
36.64159999999999
 21
204.65199999999999
 31
0.0
  0
ARC
  5
122
  8
0
 62
     7
 10
38.141581999999993
 20
177.65143299999991
 30
0.0
 40
1.5000039999999999
 50
179.99996999999991
 51
270.00002000000001
  0
LINE
  5
123
  8
0
 62
     7
 10
85.642200000000003
 20
204.65199999999999
 30
0.0
 11
85.642200000000003
 21
177.6509999999999
 31
0.0
  0
ARC
  5
124
  8
0
 62
     7
 10
84.084994999999992
 20
177.70860400000001
 30
0.0
 40
1.5582240000000001
 50
272.102643
 51
357.89736699999992
  0
LINE
  5
125
  8
0
 62
     7
 10
84.142200000000003
 20
206.15199999999999
 30
0.0
 11
38.14159999999999
 21
206.15199999999999
 31
0.0
  0
ARC
  5
126
  8
0
 62
     7
 10
84.084598000000014
 20
204.59428299999999
 30
0.0
 40
1.5586349999999991
 50
2.1166839999999998
 51
87.883306000000005
  0
ARC
  5
127
  8
0
 62
     7
 10
38.141582999999997
 20
204.65185099999991
 30
0.0
 40
1.5000039999999999
 50
90.0
 51
179.99996999999991
  0
LINE
  5
128
  8
0
  6
AIGENLINE002
 62
     7
 10
61.141500000000001
 20
168.839
 30
0.0
 11
61.141500000000001
 21
213.3709999999999
 31
0.0
  0
ARC
  5
129
  8
0
 62
     7
 10
61.141700999999991
 20
194.151478
 30
0.0
 40
3.9999539999999998
 50
0.002477
 51
90.002447999999987
  0
ARC
  5
12A
  8
0
 62
     7
 10
61.141530000000003
 20
194.1516499999999
 30
0.0
 40
3.9997820000000002
 50
90.0
 51
179.99996999999991
  0
ARC
  5
12B
  8
0
 62
     7
 10
61.141700999999991
 20
194.151478
 30
0.0
 40
3.9999530000000001
 50
179.99750299999991
 51
269.99755199999993
  0
ARC
  5
12C
  8
0
 62
     7
 10
61.141528999999998
 20
194.1516509999999
 30
0.0
 40
4.000125999999999
 50
270.00002000000001
 51
359.99998999999991
  0
ARC
  5
12D
  8
0
 62
     7
 10
61.053385999999989
 20
194.06350699999999
 30
0.0
 40
2.3897300000000001
 50
2.113801
 51
87.886189000000016
  0
ARC
  5
12E
  8
0
 62
     7
 10
61.141530000000003
 20
194.1516499999999
 30
0.0
 40
2.2999610000000001
 50
90.0
 51
179.99996999999991
  0
ARC
  5
12F
  8
0
 62
     7
 10
61.141700999999991
 20
194.151478
 30
0.0
 40
2.3001320000000001
 50
179.99567899999991
 51
269.99572899999993
  0
ARC
  5
130
  8
0
 62
     7
 10
61.05296899999999
 20
194.23985300000001
 30
0.0
 40
2.3901479999999991
 50
272.12342799999999
 51
357.88516399999997
  0
LINE
  5
131
  8
0
  6
AIGENLINE002
 62
     7
 10
55.121499999999997
 20
194.15199999999999
 30
0.0
 11
67.216999999999999
 21
194.15199999999999
 31
0.0
  0
ARC
  5
132
  8
0
 62
     7
 10
86.141711999999984
 20
207.15180000000001
 30
0.0
 40
2.4999500000000001
 50
0.00001
 51
89.999980000000008
  0
ARC
  5
133
  8
0
 62
     7
 10
86.141711999999984
 20
175.15148500000001
 30
0.0
 40
2.4999500000000001
 50
270.00002000000001
 51
359.99998999999991
  0
ARC
  5
134
  8
0
 62
     7
 10
36.141346999999989
 20
175.15148400000001
 30
0.0
 40
2.4999489999999991
 50
179.99996999999991
 51
270.00002000000001
  0
ARC
  5
135
  8
0
 62
     7
 10
36.141348000000001
 20
207.15180000000001
 30
0.0
 40
2.4999500000000001
 50
90.0
 51
179.99996999999991
  0
LINE
  5
136
  8
0
 62
     7
 10
33.64139999999999
 20
175.1509999999999
 30
0.0
 11
33.64139999999999
 21
207.15199999999999
 31
0.0
  0
LINE
  5
137
  8
0
 62
     7
 10
86.141699999999986
 20
172.65199999999999
 30
0.0
 11
36.141300000000001
 21
172.65199999999999
 31
0.0
  0
LINE
  5
138
  8
0
 62
     7
 10
88.641699999999986
 20
207.15199999999999
 30
0.0
 11
88.641699999999986
 21
175.1509999999999
 31
0.0
  0
LINE
  5
139
  8
0
 62
     7
 10
36.141300000000001
 20
209.65199999999999
 30
0.0
 11
86.141699999999986
 21
209.65199999999999
 31
0.0
  0
TEXT
  5
13A
  8
_________2
 62
     7
 10
29.525700000000001
 20
22.226900000000001
 30
0.0
 40
3.9357000000000002
  1
実容量：10L、重量：9kg、オーバーフロー付
 41
0.5
  0
LINE
  5
13B
  8
_________2
 62
     7
 10
210.24000000000001
 20
148.93100000000001
 30
0.0
 11
188.49000000000001
 21
148.93100000000001
 31
0.0
  0
LINE
  5
13C
  8
_________2
 62
     7
 10
105.2389999999999
 20
17.428499999999989
 30
0.0
 11
105.2389999999999
 21
0.4482100000000001
 31
0.0
  0
LINE
  5
13D
  8
_________2
 62
     7
 10
105.2389999999999
 20
297.44999999999987
 30
0.0
 11
105.2389999999999
 21
280.42999999999989
 31
0.0
  0
LINE
  5
13E
  8
_________2
 62
     7
 10
21.988499999999991
 20
148.93100000000001
 30
0.0
 11
0.238058
 21
148.93100000000001
 31
0.0
  0
LINE
  5
13F
  8
_________2
 62
     7
 10
81.679900000000004
 20
51.324300000000001
 30
0.0
 11
79.493700000000004
 21
51.324300000000001
 31
0.0
  0
LINE
  5
140
  8
_________2
 62
     7
 10
82.172600000000017
 20
51.324300000000001
 30
0.0
 11
81.920400000000001
 21
51.324300000000001
 31
0.0
  0
LINE
  5
141
  8
_________2
 62
     7
 10
82.665199999999984
 20
51.324300000000001
 30
0.0
 11
85.590100000000007
 21
51.324300000000001
 31
0.0
  0
LINE
  5
142
  8
_________2
 62
     7
 10
82.172600000000017
 20
51.324300000000001
 30
0.0
 11
82.424800000000005
 21
51.324300000000001
 31
0.0
  0
LINE
  5
143
  8
_________2
 62
     7
 10
75.776399999999995
 20
51.324300000000001
 30
0.0
 11
73.589399999999998
 21
51.324300000000001
 31
0.0
  0
LINE
  5
144
  8
_________2
 62
     7
 10
76.2684
 20
51.324300000000001
 30
0.0
 11
76.016900000000007
 21
51.324300000000001
 31
0.0
  0
LINE
  5
145
  8
_________2
 62
     7
 10
76.2684
 20
51.817
 30
0.0
 11
76.2684
 21
54.003900000000002
 31
0.0
  0
LINE
  5
146
  8
_________2
 62
     7
 10
76.2684
 20
51.324300000000001
 30
0.0
 11
76.2684
 21
51.576500000000003
 31
0.0
  0
LINE
  5
147
  8
_________2
 62
     7
 10
76.76100000000001
 20
51.324300000000001
 30
0.0
 11
78.947999999999993
 21
51.324300000000001
 31
0.0
  0
LINE
  5
148
  8
_________2
 62
     7
 10
76.2684
 20
51.324300000000001
 30
0.0
 11
76.520499999999998
 21
51.324300000000001
 31
0.0
  0
LINE
  5
149
  8
_________2
 62
     7
 10
76.2684
 20
50.832399999999993
 30
0.0
 11
76.2684
 21
48.645400000000002
 31
0.0
  0
LINE
  5
14A
  8
_________2
 62
     7
 10
76.2684
 20
51.324300000000001
 30
0.0
 11
76.2684
 21
51.072800000000001
 31
0.0
  0
LINE
  5
14B
  8
_________2
 62
     7
 10
79.979399999999984
 20
50.104799999999997
 30
0.0
 11
85.157399999999996
 21
49.240000000000002
 31
0.0
  0
LINE
  5
14C
  8
_________2
 62
     7
 10
79.979399999999984
 20
52.543900000000001
 30
0.0
 11
85.157399999999996
 21
53.409300000000002
 31
0.0
  0
LINE
  5
14D
  8
_________2
 62
     7
 10
85.157399999999996
 20
49.240000000000002
 30
0.0
 11
85.157399999999996
 21
53.409300000000002
 31
0.0
  0
LINE
  5
14E
  8
_________2
 62
     7
 10
79.979399999999984
 20
50.104799999999997
 30
0.0
 11
79.979399999999984
 21
52.543900000000001
 31
0.0
  0
ARC
  5
14F
  8
_________2
 62
     7
 10
76.222110000000001
 20
51.277366999999991
 30
0.0
 40
1.2673709999999989
 50
2.1232950000000002
 51
87.909056000000007
  0
ARC
  5
150
  8
_________2
 62
     7
 10
76.315273000000005
 20
51.277400999999998
 30
0.0
 40
1.267363
 50
92.121785999999986
 51
177.878185
  0
ARC
  5
151
  8
_________2
 62
     7
 10
76.315273000000005
 20
51.371245999999992
 30
0.0
 40
1.267363
 50
182.12181499999991
 51
267.87821400000001
  0
ARC
  5
152
  8
_________2
 62
     7
 10
76.221461000000005
 20
51.371928999999987
 30
0.0
 40
1.2680439999999991
 50
272.11916400000001
 51
357.84848499999993
  0
ARC
  5
153
  8
_________2
 62
     7
 10
76.268349999999984
 20
51.324323
 30
0.0
 40
2.0849849999999992
 50
0.00001
 51
89.999980000000008
  0
ARC
  5
154
  8
_________2
 62
     7
 10
76.348388
 20
51.245001999999992
 30
0.0
 40
2.1657860000000002
 50
92.117855000000034
 51
177.90105299999991
  0
ARC
  5
155
  8
_________2
 62
     7
 10
76.348354
 20
51.404327000000002
 30
0.0
 40
2.1657779999999991
 50
182.11700400000001
 51
267.88302499999992
  0
ARC
  5
156
  8
_________2
 62
     7
 10
76.188378999999983
 20
51.405009999999997
 30
0.0
 40
2.1664590000000001
 50
272.11546800000002
 51
357.86560400000002
  0
TEXT
  5
157
  8
_________2
 62
     7
 10
109.5439999999999
 20
23.199100000000001
 30
0.0
 40
3.0923400000000001
  1
図番
 41
0.5
  0
LINE
  5
158
  8
_________2
 62
     7
 10
108.4889999999999
 20
27.4283
 30
0.0
 11
188.49000000000001
 21
27.4283
 31
0.0
  0
TEXT
  5
159
  8
_________2
 62
     7
 10
109.5439999999999
 20
33.198900000000002
 30
0.0
 40
3.0923400000000001
  1
品番
 41
0.5
  0
TEXT
  5
15A
  8
_________2
 62
     7
 10
109.5439999999999
 20
53.337699999999998
 30
0.0
 40
3.0923400000000001
  1
名称
 41
0.5
  0
TEXT
  5
15B
  8
_________2
 62
     7
 10
96.784058333333334
 20
48.341500000000011
 30
0.0
 40
3.6545800000000002
  1
mm
 41
0.5
 72
     1
 11
98.306799999999996
 21
48.341500000000011
 31
0.0
  0
TEXT
  5
15C
  8
_________2
 62
     7
 10
90.582099999999997
 20
53.337699999999998
 30
0.0
 40
3.0923400000000001
  1
単位
 41
0.5
  0
TEXT
  5
15D
  8
_________2
 62
     7
 10
90.582099999999997
 20
40.930399999999999
 30
0.0
 40
3.0923400000000001
  1
尺度
 41
0.5
  0
TEXT
  5
15E
  8
_________2
 62
     7
 10
95.030836166666674
 20
34.73749999999999
 30
0.0
 40
3.6545800000000002
  1
1 ： 10
 41
0.5
 72
     1
 11
98.898600000000002
 21
34.73749999999999
 31
0.0
  0
TEXT
  5
15F
  8
_________2
 62
     7
 10
142.58544999999989
 20
30.627400000000002
 30
0.0
 40
3.9357000000000002
  1
VR5475
 41
0.5
 72
     1
 11
148.489
 21
30.627400000000002
 31
0.0
  0
TEXT
  5
160
  8
_________2
 62
     7
 10
142.58544999999989
 20
20.626999999999988
 30
0.0
 40
3.9357000000000002
  1
VR5475
 41
0.5
 72
     1
 11
148.489
 21
20.626999999999988
 31
0.0
  0
TEXT
  5
161
  8
_________2
 62
     7
 10
114.11799999999999
 20
45.7453
 30
0.0
 40
3.9357000000000002
  1
S20 洗面器
 41
0.5
  0
TEXT
  5
162
  8
_________2
 62
     7
 10
44.242381000000002
 20
35.122599999999991
 30
0.0
 40
3.6545800000000002
  1
田尻
 41
0.5
 72
     1
 11
46.252400000000002
 21
35.122599999999991
 31
0.0
  0
TEXT
  5
163
  8
_________2
 62
     7
 10
25.72929066666666
 20
35.122599999999991
 30
0.0
 40
3.6545800000000002
  1
石原
 41
0.5
 72
     1
 11
27.6784
 21
35.122599999999991
 31
0.0
  0
TEXT
  5
164
  8
_________2
 62
     7
 10
72.724699999999999
 20
34.73749999999999
 30
0.0
 40
3.6545800000000002
  1
11.12.12
 41
0.5
  0
TEXT
  5
165
  8
_________2
 62
     7
 10
71.531999999999996
 20
40.930399999999999
 30
0.0
 40
3.0923400000000001
  1
日付
 41
0.5
  0
TEXT
  5
166
  8
_________2
 62
     7
 10
34.578299999999992
 20
40.930399999999999
 30
0.0
 40
3.0923400000000001
  1
検図
 41
0.5
  0
TEXT
  5
167
  8
_________2
 62
     7
 10
22.960000000000001
 20
26.730999999999991
 30
0.0
 40
3.0923400000000001
  1
備考
 41
0.5
  0
TEXT
  5
168
  8
_________2
 62
     7
 10
22.960000000000001
 20
40.930399999999999
 30
0.0
 40
3.0923400000000001
  1
製図
 41
0.5
  0
TEXT
  5
169
  8
_________2
 62
     7
 10
28.727365333333339
 20
49.456400000000002
 30
0.0
 40
4.4979399999999989
  1
セラトレーディング株式会社
 41
0.5
 72
     1
 11
46.119399999999992
 21
49.456400000000002
 31
0.0
  0
LINE
  5
16A
  8
_________2
 62
     7
 10
188.49000000000001
 20
17.428499999999989
 30
0.0
 11
21.988499999999991
 21
17.428499999999989
 31
0.0
  0
LINE
  5
16B
  8
_________2
 62
     7
 10
21.988499999999991
 20
17.428499999999989
 30
0.0
 11
21.988499999999991
 21
280.42999999999989
 31
0.0
  0
LINE
  5
16C
  8
_________2
 62
     7
 10
21.988499999999991
 20
280.42999999999989
 30
0.0
 11
188.49000000000001
 21
280.42999999999989
 31
0.0
  0
LINE
  5
16D
  8
_________2
 62
     7
 10
188.49000000000001
 20
280.42999999999989
 30
0.0
 11
188.49000000000001
 21
17.428499999999989
 31
0.0
  0
LINE
  5
16E
  8
_________2
 62
     7
 10
70.488799999999998
 20
30.9285
 30
0.0
 11
70.488799999999998
 21
57.428400000000011
 31
0.0
  0
LINE
  5
16F
  8
_________2
 62
     7
 10
89.488600000000005
 20
30.9285
 30
0.0
 11
89.488600000000005
 21
57.428400000000011
 31
0.0
  0
LINE
  5
170
  8
_________2
 62
     7
 10
108.4889999999999
 20
17.428499999999989
 30
0.0
 11
108.4889999999999
 21
57.428400000000011
 31
0.0
  0
LINE
  5
171
  8
_________2
 62
     7
 10
33.488300000000002
 20
30.9285
 30
0.0
 11
33.488300000000002
 21
44.928800000000003
 31
0.0
  0
LINE
  5
172
  8
_________2
 62
     7
 10
21.988499999999991
 20
30.9285
 30
0.0
 11
108.4889999999999
 21
30.9285
 31
0.0
  0
LINE
  5
173
  8
_________2
 62
     7
 10
21.988499999999991
 20
44.928800000000003
 30
0.0
 11
108.4889999999999
 21
44.928800000000003
 31
0.0
  0
LINE
  5
174
  8
_________2
 62
     7
 10
108.4889999999999
 20
37.428100000000001
 30
0.0
 11
188.49000000000001
 21
37.428100000000001
 31
0.0
  0
LINE
  5
175
  8
_________2
 62
     7
 10
21.988499999999991
 20
57.428400000000011
 30
0.0
 11
188.49000000000001
 21
57.428400000000011
 31
0.0
  0
ENDSEC
  0
EOF
