  0
SECTION
  2
HEADER
  9
$ACADVER
  1
AC1009
  9
$LUNITS
 70
2
  9
$LUPREC
 70
4
  9
$LTSCALE
 40
1.0
  9
$EXTMIN
 10
-4.701
 20
-21.0709
 30
0
  9
$EXTMAX
 10
205.2998
 20
275.9292
 30
0
  0
ENDSEC
  0
SECTION
  2
TABLES
  0
TABLE
  2
LTYPE
 70
256
  0
LTYPE
  2
AIGENLINE001
 70
64
  3
generate AI->DXF Converter
 72
65
 73
4
 40
5.8561
 49
3.5278
 49
-0.7761
 49
0.7761
 49
-0.7761
  0
LTYPE
  2
AIGENLINE002
 70
64
  3
generate AI->DXF Converter
 72
65
 73
2
 40
1.5522
 49
0.7761
 49
-0.7761
  0
LTYPE
  2
AIGENLINE003
 70
64
  3
generate AI->DXF Converter
 72
65
 73
6
 40
7.4083
 49
3.5278
 49
-0.7761
 49
0.7761
 49
-0.7761
 49
0.7761
 49
-0.7761
  0
ENDTAB
  0
TABLE
  2
LAYER
 70
3
  0
LAYER
  2
LAYER_1
 70
64
 62
7
  6
CONTINUOUS
  0
LAYER
  2
LAYER_2
 70
64
 62
7
  6
CONTINUOUS
  0
LAYER
  2
LAYER_3
 70
64
 62
7
  6
CONTINUOUS
  0
ENDTAB
  0
TABLE
  2
STYLE
 70
6
  0
STYLE
  2
STANDARD
 70
0
 40
0
 50
0
 71
0
 41
0
 42
0
  3
TXT
  4
BIGFONT
  0
ENDTAB
  0
ENDSEC
  0
SECTION
  2
BLOCKS
  0
BLOCK
  8
LAYER_2
  2
AIGNBL02010002
 70
64
 10
0
 20
0
 30
0
  3
AIGNBL02010002
  0
LINE
  8
LAYER_2
 10
139.2904
 20
91.4373
 11
139.2904
 21
106.0638
  0
LINE
  8
LAYER_2
 10
139.8754
 20
99.2246
 11
139.2828
 21
101.4357
  0
LINE
  8
LAYER_2
 10
139.2828
 20
101.4357
 11
138.6902
 21
99.2246
  0
LINE
  8
LAYER_2
 10
138.6902
 20
99.2246
 11
139.8754
 21
99.2246
  0
LINE
  8
LAYER_2
 10
138.7047
 20
93.6477
 11
139.2973
 21
91.4366
  0
LINE
  8
LAYER_2
 10
139.2973
 20
91.4366
 11
139.8898
 21
93.6477
  0
LINE
  8
LAYER_2
 10
139.8898
 20
93.6477
 11
138.7047
 21
93.6477
  0
ENDBLK
  0
BLOCK
  8
LAYER_2
  2
AIGNBL02010003
 70
64
 10
0
 20
0
 30
0
  3
AIGNBL02010003
  0
LINE
  8
LAYER_2
 10
111.1494
 20
101.4357
 11
111.1494
 21
86.9353
  0
LINE
  8
LAYER_2
 10
110.5638
 20
89.1456
 11
111.1564
 21
86.9346
  0
LINE
  8
LAYER_2
 10
111.1564
 20
86.9346
 11
111.7489
 21
89.1456
  0
LINE
  8
LAYER_2
 10
111.7489
 20
89.1456
 11
110.5638
 21
89.1456
  0
LINE
  8
LAYER_2
 10
111.7344
 20
99.2246
 11
111.1419
 21
101.4363
  0
LINE
  8
LAYER_2
 10
111.1419
 20
101.4363
 11
110.5493
 21
99.2246
  0
LINE
  8
LAYER_2
 10
110.5493
 20
99.2246
 11
111.7344
 21
99.2246
  0
ENDBLK
  0
BLOCK
  8
LAYER_2
  2
AIGNBL02010004
 70
64
 10
0
 20
0
 30
0
  3
AIGNBL02010004
  0
LINE
  8
LAYER_2
 10
98.61
 20
106.8899
 11
98.61
 21
90.8868
  0
LINE
  8
LAYER_2
 10
98.0174
 20
103.6467
 11
98.61
 21
101.4357
  0
LINE
  8
LAYER_2
 10
98.61
 20
101.4357
 11
99.2026
 21
103.6467
  0
LINE
  8
LAYER_2
 10
99.2026
 20
103.6467
 11
98.0174
 21
103.6467
  0
LINE
  8
LAYER_2
 10
99.2026
 20
94.2237
 11
98.61
 21
96.4355
  0
LINE
  8
LAYER_2
 10
98.61
 20
96.4355
 11
98.0174
 21
94.2237
  0
LINE
  8
LAYER_2
 10
98.0174
 20
94.2237
 11
99.2026
 21
94.2237
  0
ENDBLK
  0
BLOCK
  8
LAYER_2
  2
AIGNBL02010005
 70
64
 10
0
 20
0
 30
0
  3
AIGNBL02010005
  0
LINE
  8
LAYER_2
 10
104.8518
 20
101.4357
 11
104.8518
 21
96.4355
  0
LINE
  8
LAYER_2
 10
104.2662
 20
98.6458
 11
104.8587
 21
96.4348
  0
LINE
  8
LAYER_2
 10
104.8587
 20
96.4348
 11
105.4513
 21
98.6458
  0
LINE
  8
LAYER_2
 10
105.4513
 20
98.6458
 11
104.2662
 21
98.6458
  0
LINE
  8
LAYER_2
 10
105.4368
 20
99.2246
 11
104.8442
 21
101.4363
  0
LINE
  8
LAYER_2
 10
104.8442
 20
101.4363
 11
104.2517
 21
99.2246
  0
LINE
  8
LAYER_2
 10
104.2517
 20
99.2246
 11
105.4368
 21
99.2246
  0
ENDBLK
  0
BLOCK
  8
LAYER_2
  2
AIGNBL02010006
 70
64
 10
0
 20
0
 30
0
  3
AIGNBL02010006
  0
LINE
  8
LAYER_2
 10
141.3654
 20
79.6055
 11
164.8654
 21
79.6055
  0
LINE
  8
LAYER_2
 10
162.655
 20
79.0205
 11
164.8668
 21
79.6131
  0
LINE
  8
LAYER_2
 10
164.8668
 20
79.6131
 11
162.655
 21
80.2056
  0
LINE
  8
LAYER_2
 10
162.655
 20
80.2056
 11
162.655
 21
79.0205
  0
LINE
  8
LAYER_2
 10
143.5764
 20
80.1911
 11
141.3647
 21
79.5986
  0
LINE
  8
LAYER_2
 10
141.3647
 20
79.5986
 11
143.5764
 21
79.006
  0
LINE
  8
LAYER_2
 10
143.5764
 20
79.006
 11
143.5764
 21
80.1911
  0
ENDBLK
  0
BLOCK
  8
LAYER_2
  2
AIGNBL02010007
 70
64
 10
0
 20
0
 30
0
  3
AIGNBL02010007
  0
LINE
  8
LAYER_2
 10
116.8649
 20
149.0195
 11
165.8648
 21
149.0195
  0
LINE
  8
LAYER_2
 10
163.6544
 20
148.4342
 11
165.8662
 21
149.0267
  0
LINE
  8
LAYER_2
 10
165.8662
 20
149.0267
 11
163.6544
 21
149.6193
  0
LINE
  8
LAYER_2
 10
163.6544
 20
149.6193
 11
163.6544
 21
148.4342
  0
LINE
  8
LAYER_2
 10
119.0759
 20
149.6048
 11
116.8642
 21
149.0123
  0
LINE
  8
LAYER_2
 10
116.8642
 20
149.0123
 11
119.0759
 21
148.4197
  0
LINE
  8
LAYER_2
 10
119.0759
 20
148.4197
 11
119.0759
 21
149.6048
  0
ENDBLK
  0
BLOCK
  8
LAYER_3
  2
AIGNBL03010002
 70
64
 10
0
 20
0
 30
0
  3
AIGNBL03010002
  0
ARC
  8
LAYER_3
 10
71.3286
 20
29.8047
 40
2.0852
 50
359.9961664
 51
89.99559015
  0
ARC
  8
LAYER_3
 10
71.3293
 20
29.8051
 40
2.0848
 50
90.01423192
 51
180.0132507
  0
ARC
  8
LAYER_3
 10
71.3288
 20
29.8046
 40
2.0843
 50
179.9997118
 51
270.0002882
  0
ARC
  8
LAYER_3
 10
71.3292
 20
29.8049
 40
2.0846
 50
269.9898899
 51
359.9908709
  0
ARC
  8
LAYER_3
 10
71.329
 20
29.8044
 40
1.2201
 50
0.009884204573
 51
90.00889975
  0
ARC
  8
LAYER_3
 10
71.329
 20
29.8048
 40
1.2197
 50
90.0102336
 51
180.0085565
  0
ARC
  8
LAYER_3
 10
71.3288
 20
29.8045
 40
1.2195
 50
179.9971583
 51
269.9981436
  0
ARC
  8
LAYER_3
 10
71.3292
 20
29.8049
 40
1.2199
 50
269.9827239
 51
359.9844002
  0
LINE
  8
LAYER_3
 10
75.0399
 20
28.585
 11
75.0399
 21
31.0245
  0
LINE
  8
LAYER_3
 10
80.2179
 20
27.7203
 11
80.2179
 21
31.8899
  0
LINE
  8
LAYER_3
 10
75.0399
 20
31.0245
 11
80.2179
 21
31.8899
  0
LINE
  8
LAYER_3
 10
75.0399
 20
28.585
 11
80.2179
 21
27.7203
  0
LINE
  8
LAYER_3
 10
71.3288
 20
29.8046
 11
71.3288
 21
29.5531
  0
LINE
  8
LAYER_3
 10
71.3288
 20
29.3126
 11
71.3288
 21
27.126
  0
LINE
  8
LAYER_3
 10
71.3288
 20
29.8046
 11
71.581
 21
29.8046
  0
LINE
  8
LAYER_3
 10
71.8215
 20
29.8046
 11
74.0084
 21
29.8046
  0
LINE
  8
LAYER_3
 10
71.3288
 20
29.8046
 11
71.3288
 21
30.0571
  0
LINE
  8
LAYER_3
 10
71.3288
 20
30.2972
 11
71.3288
 21
32.4842
  0
LINE
  8
LAYER_3
 10
71.3288
 20
29.8046
 11
71.0773
 21
29.8046
  0
LINE
  8
LAYER_3
 10
70.8369
 20
29.8046
 11
68.6499
 21
29.8046
  0
LINE
  8
LAYER_3
 10
77.233
 20
29.8046
 11
77.4852
 21
29.8046
  0
LINE
  8
LAYER_3
 10
77.7257
 20
29.8046
 11
80.6505
 21
29.8046
  0
LINE
  8
LAYER_3
 10
77.233
 20
29.8046
 11
76.9808
 21
29.8046
  0
LINE
  8
LAYER_3
 10
76.7403
 20
29.8046
 11
74.5541
 21
29.8046
  0
ENDBLK
  0
ENDSEC
  0
SECTION
  2
ENTITIES
  0
TEXT
  8
LAYER_1
 10
81.6953
 20
195.1865
 11
81.6953
 21
195.1865
 40
3.0923
 41
0.5
 50
89.99999999
 72
1
  1
70
  0
TEXT
  8
LAYER_1
 10
98.0772
 20
148.4517
 11
98.0772
 21
148.4517
 40
3.0923
 41
0.5
 50
89.99999999
  1
35
  0
TEXT
  8
LAYER_1
 10
81.6953
 20
188.9368
 11
81.6953
 21
188.9368
 40
3.0923
 41
0.5
 50
89.99999999
 72
1
  1
55
  0
TEXT
  8
LAYER_1
 10
104.0109
 20
210.0664
 11
104.0109
 21
210.0664
 40
3.0923
 41
0.5
 50
89.99999999
 72
2
  1
min20
  0
TEXT
  8
LAYER_1
 10
175.9341
 20
210.0664
 11
175.9341
 21
210.0664
 40
3.0923
 41
0.5
 50
89.99999999
 72
2
  1
min20
  0
TEXT
  8
LAYER_1
 10
98.0772
 20
171.9366
 11
98.0772
 21
171.9366
 40
3.0923
 41
0.5
 50
89.99999999
 72
1
  1
285
  0
TEXT
  8
LAYER_1
 10
104.0102
 20
176.4366
 11
104.0102
 21
176.4366
 40
3.0923
 41
0.5
 50
89.99999999
 72
1
  1
445
  0
TEXT
  8
LAYER_1
 10
98.0767
 20
192.4367
 11
98.0767
 21
192.4367
 40
3.0923
 41
0.5
 50
89.99999999
 72
1
  1
125
  0
TEXT
  8
LAYER_1
 10
175.9341
 20
176.6867
 11
175.9341
 21
176.6867
 40
3.0923
 41
0.5
 50
89.99999999
 72
1
  1
350
  0
TEXT
  8
LAYER_1
 10
175.9341
 20
196.4368
 11
175.9341
 21
196.4368
 40
3.0923
 41
0.5
 50
89.99999999
 72
1
  1
45
  0
TEXT
  8
LAYER_1
 10
25.7989
 20
186.9367
 11
25.7989
 21
186.9367
 40
3.0923
 41
0.5
 50
89.99999999
 72
1
  1
235
  0
TEXT
  8
LAYER_1
 10
126.1439
 20
185.0678
 11
126.1439
 21
185.0678
 40
3.0923
 41
0.5
 50
89.99999999
 72
1
  1
190
  0
TEXT
  8
LAYER_1
 10
147.5803
 20
185.3132
 11
147.5803
 21
185.3132
 40
3.0923
 41
0.5
 50
89.99999999
  1
25
  0
TEXT
  8
LAYER_1
 10
126.1439
 20
204.7613
 11
126.1439
 21
204.7613
 40
3.0923
 41
0.5
 50
89.99999999
 72
2
  1
12
  0
TEXT
  8
LAYER_1
 10
160.0233
 20
202.2831
 11
160.0233
 21
202.2831
 40
3.0923
 41
0.5
 72
1
  1
洗面器後端
  0
TEXT
  8
LAYER_1
 10
86.3484
 20
204.283
 11
86.3484
 21
204.283
 40
3.0923
 41
0.5
 72
1
  1
壁
  0
TEXT
  8
LAYER_1
 10
147.056
 20
204.283
 11
147.056
 21
204.283
 40
3.0923
 41
0.5
 72
1
  1
壁
  0
TEXT
  8
LAYER_1
 10
26.6433
 20
99.3286
 11
26.6433
 21
99.3286
 40
3.0923
 41
0.5
 50
89.99999999
  1
カウンター上面
  0
TEXT
  8
LAYER_1
 10
138.5903
 20
106.0638
 11
138.5903
 21
106.0638
 40
3.0923
 41
0.5
 50
89.99999999
 72
2
  1
100
  0
TEXT
  8
LAYER_1
 10
110.4494
 20
94.1851
 11
110.4494
 21
94.1851
 40
3.0923
 41
0.5
 50
89.99999999
 72
1
  1
145
  0
TEXT
  8
LAYER_1
 10
97.91
 20
106.8899
 11
97.91
 21
106.8899
 40
3.0923
 41
0.5
 50
89.99999999
 72
2
  1
30
  0
TEXT
  8
LAYER_1
 10
97.91
 20
90.8868
 11
97.91
 21
90.8868
 40
3.0923
 41
0.5
 50
89.99999999
  1
20
  0
TEXT
  8
LAYER_1
 10
104.1518
 20
98.9352
 11
104.1518
 21
98.9352
 40
3.0923
 41
0.5
 50
89.99999999
 72
1
  1
50
  0
TEXT
  8
LAYER_1
 10
153.1152
 20
80.3055
 11
153.1152
 21
80.3055
 40
3.0923
 41
0.5
 72
1
  1
235
  0
TEXT
  8
LAYER_1
 10
141.365
 20
149.7195
 11
141.365
 21
149.7195
 40
3.0923
 41
0.5
 72
1
  1
490
  0
TEXT
  8
LAYER_1
 10
71.8174
 20
170.7239
 11
71.8174
 21
170.7239
 40
3.0923
 41
0.5
 72
2
  1
%%c46
  0
TEXT
  8
LAYER_1
 10
44.9004
 20
204.2392
 11
44.9004
 21
204.2392
 40
3.0923
 41
0.5
  1
%%c35
  0
TEXT
  8
LAYER_1
 10
61.9099
 20
135.3669
 11
61.9099
 21
135.3669
 40
3.0923
 41
0.5
 72
1
  1
595
  0
TEXT
  8
LAYER_1
 10
61.9099
 20
142.4232
 11
61.9099
 21
142.4232
 40
3.0923
 41
0.5
 72
1
  1
495
  0
TEXT
  8
LAYER_1
 10
56.9095
 20
208.5793
 11
56.9095
 21
208.5793
 40
3.0923
 41
0.5
 72
1
  1
100
  0
TEXT
  8
LAYER_1
 10
66.9096
 20
208.5793
 11
66.9096
 21
208.5793
 40
3.0923
 41
0.5
 72
1
  1
100
  0
TEXT
  8
LAYER_1
 10
174.2619
 20
155.2196
 11
174.2619
 21
155.2196
 40
3.0923
 41
0.5
 72
2
  1
R5
  0
TEXT
  8
LAYER_1
 10
131.746
 20
203.4112
 11
131.746
 21
203.4112
 40
3.0923
 41
0.5
  1
R37
  0
TEXT
  8
LAYER_1
 10
125.1607
 20
169.2863
 11
125.1607
 21
169.2863
 40
3.0923
 41
0.5
  1
排水口
  0
TEXT
  8
LAYER_1
 10
142.2404
 20
140.831
 11
142.2404
 21
140.831
 40
3.0923
 41
0.5
 72
1
  1
カウンター切込寸法
  0
LINE
  8
LAYER_2
 10
89.2009
 20
198.6866
 11
105.4109
 21
198.6866
  0
LINE
  8
LAYER_2
 10
89.1057
 20
154.1865
 11
105.4109
 21
154.1865
  0
LINE
  8
LAYER_2
 10
90.7063
 20
157.6863
 11
99.4773
 21
157.6863
  0
LINE
  8
LAYER_2
 10
72.3957
 20
186.1869
 11
99.4771
 21
186.1869
  0
LINE
  8
LAYER_2
 10
25.799
 20
175.1867
 11
55.6405
 21
175.1867
  0
LINE
  8
LAYER_2
 10
25.799
 20
198.6866
 11
35.2132
 21
198.6866
  0
LINE
  8
LAYER_2
 10
75.9258
 20
191.6868
 11
83.0954
 21
191.6868
  0
LINE
  8
LAYER_2
 10
82.3953
 20
198.6866
 11
82.3953
 21
186.1869
  0
LINE
  8
LAYER_2
 10
98.7772
 20
198.6866
 11
98.7772
 21
148.4517
  0
LINE
  8
LAYER_2
 10
104.7109
 20
210.0664
 11
104.7109
 21
154.1865
  0
LINE
  8
LAYER_2
 10
104.1184
 20
156.3982
 11
104.7109
 21
154.1865
  0
LINE
  8
LAYER_2
 10
104.7109
 20
154.1865
 11
105.3035
 21
156.3982
  0
LINE
  8
LAYER_2
 10
105.3035
 20
156.3982
 11
104.1184
 21
156.3982
  0
LINE
  8
LAYER_2
 10
81.8027
 20
193.8984
 11
82.3953
 21
191.6868
  0
LINE
  8
LAYER_2
 10
82.3953
 20
191.6868
 11
82.9879
 21
193.8984
  0
LINE
  8
LAYER_2
 10
82.9879
 20
193.8984
 11
81.8027
 21
193.8984
  0
LINE
  8
LAYER_2
 10
81.8027
 20
188.3987
 11
82.3953
 21
186.1869
  0
LINE
  8
LAYER_2
 10
82.3953
 20
186.1869
 11
82.9879
 21
188.3987
  0
LINE
  8
LAYER_2
 10
82.9879
 20
188.3987
 11
81.8027
 21
188.3987
  0
LINE
  8
LAYER_2
 10
98.1847
 20
159.8981
 11
98.7772
 21
157.6863
  0
LINE
  8
LAYER_2
 10
98.7772
 20
157.6863
 11
99.3698
 21
159.8981
  0
LINE
  8
LAYER_2
 10
99.3698
 20
159.8981
 11
98.1847
 21
159.8981
  0
LINE
  8
LAYER_2
 10
105.3035
 20
196.475
 11
104.7109
 21
198.6866
  0
LINE
  8
LAYER_2
 10
104.7109
 20
198.6866
 11
104.1184
 21
196.475
  0
LINE
  8
LAYER_2
 10
104.1184
 20
196.475
 11
105.3035
 21
196.475
  0
LINE
  8
LAYER_2
 10
98.7771
 20
198.6866
 11
98.7771
 21
186.1869
  0
LINE
  8
LAYER_2
 10
98.1845
 20
188.3987
 11
98.7771
 21
186.1869
  0
LINE
  8
LAYER_2
 10
98.7771
 20
186.1869
 11
99.3696
 21
188.3987
  0
LINE
  8
LAYER_2
 10
99.3696
 20
188.3987
 11
98.1845
 21
188.3987
  0
LINE
  8
LAYER_2
 10
99.3696
 20
196.475
 11
98.7771
 21
198.6866
  0
LINE
  8
LAYER_2
 10
98.7771
 20
198.6866
 11
98.1845
 21
196.475
  0
LINE
  8
LAYER_2
 10
98.1845
 20
196.475
 11
99.3696
 21
196.475
  0
LINE
  8
LAYER_2
 10
166.5707
 20
159.1867
 11
177.3342
 21
159.1867
  0
LINE
  8
LAYER_2
 10
176.6342
 20
210.0664
 11
176.6342
 21
159.1867
  0
LINE
  8
LAYER_2
 10
126.8439
 20
204.7613
 11
126.8439
 21
175.1867
  0
LINE
  8
LAYER_2
 10
176.0416
 20
161.3984
 11
176.6342
 21
159.1867
  0
LINE
  8
LAYER_2
 10
176.6342
 20
159.1867
 11
177.2267
 21
161.3984
  0
LINE
  8
LAYER_2
 10
177.2267
 20
161.3984
 11
176.0416
 21
161.3984
  0
LINE
  8
LAYER_2
 10
82.9879
 20
196.475
 11
82.3953
 21
198.6866
  0
LINE
  8
LAYER_2
 10
82.3953
 20
198.6866
 11
81.8027
 21
196.475
  0
LINE
  8
LAYER_2
 10
81.8027
 20
196.475
 11
82.9879
 21
196.475
  0
LINE
  8
LAYER_2
 10
82.9879
 20
189.4751
 11
82.3953
 21
191.6868
  0
LINE
  8
LAYER_2
 10
82.3953
 20
191.6868
 11
81.8027
 21
189.4751
  0
LINE
  8
LAYER_2
 10
81.8027
 20
189.4751
 11
82.9879
 21
189.4751
  0
LINE
  8
LAYER_2
 10
104.1184
 20
202.8982
 11
104.7109
 21
200.6866
  0
LINE
  8
LAYER_2
 10
104.7109
 20
200.6866
 11
105.3035
 21
202.8982
  0
LINE
  8
LAYER_2
 10
105.3035
 20
202.8982
 11
104.1184
 21
202.8982
  0
LINE
  8
LAYER_2
 10
176.0416
 20
202.8982
 11
176.6342
 21
200.6866
  0
LINE
  8
LAYER_2
 10
176.6342
 20
200.6866
 11
177.2267
 21
202.8982
  0
LINE
  8
LAYER_2
 10
177.2267
 20
202.8982
 11
176.0416
 21
202.8982
  0
LINE
  8
LAYER_2
 10
99.3698
 20
151.9747
 11
98.7772
 21
154.1865
  0
LINE
  8
LAYER_2
 10
98.7772
 20
154.1865
 11
98.1847
 21
151.9747
  0
LINE
  8
LAYER_2
 10
98.1847
 20
151.9747
 11
99.3698
 21
151.9747
  0
LINE
  8
LAYER_2
 10
99.3698
 20
183.9752
 11
98.7772
 21
186.1869
  0
LINE
  8
LAYER_2
 10
98.7772
 20
186.1869
 11
98.1847
 21
183.9752
  0
LINE
  8
LAYER_2
 10
98.1847
 20
183.9752
 11
99.3698
 21
183.9752
  0
LINE
  8
LAYER_2
 10
166.6482
 20
194.1868
 11
177.3342
 21
194.1868
  0
LINE
  8
LAYER_2
 10
168.08
 20
198.6867
 11
177.3342
 21
198.6867
  0
LINE
  8
LAYER_2
 10
126.1439
 20
195.3867
 11
139.0523
 21
195.3867
  0
LINE
  8
LAYER_2
 10
126.1439
 20
175.1867
 11
136.526
 21
175.1867
  0
LINE
  8
LAYER_2
 10
177.2267
 20
191.975
 11
176.6342
 21
194.1868
  0
LINE
  8
LAYER_2
 10
176.6342
 20
194.1868
 11
176.0416
 21
191.975
  0
LINE
  8
LAYER_2
 10
176.0416
 20
191.975
 11
177.2267
 21
191.975
  0
LINE
  8
LAYER_2
 10
26.499
 20
198.6866
 11
26.499
 21
175.1867
  0
LINE
  8
LAYER_2
 10
25.9064
 20
177.3985
 11
26.499
 21
175.1867
  0
LINE
  8
LAYER_2
 10
26.499
 20
175.1867
 11
27.0915
 21
177.3985
  0
LINE
  8
LAYER_2
 10
27.0915
 20
177.3985
 11
25.9064
 21
177.3985
  0
LINE
  8
LAYER_2
 10
27.0915
 20
196.4748
 11
26.499
 21
198.6866
  0
LINE
  8
LAYER_2
 10
26.499
 20
198.6866
 11
25.9064
 21
196.4748
  0
LINE
  8
LAYER_2
 10
25.9064
 20
196.4748
 11
27.0915
 21
196.4748
  0
LINE
  8
LAYER_2
 10
126.2514
 20
177.3985
 11
126.8439
 21
175.1867
  0
LINE
  8
LAYER_2
 10
126.8439
 20
175.1867
 11
127.4365
 21
177.3985
  0
LINE
  8
LAYER_2
 10
127.4365
 20
177.3985
 11
126.2514
 21
177.3985
  0
LINE
  8
LAYER_2
 10
126.2514
 20
197.5984
 11
126.8439
 21
195.3867
  0
LINE
  8
LAYER_2
 10
126.8439
 20
195.3867
 11
127.4365
 21
197.5984
  0
LINE
  8
LAYER_2
 10
127.4365
 20
197.5984
 11
126.2514
 21
197.5984
  0
LINE
  8
LAYER_2
 10
127.4365
 20
191.975
 11
126.8439
 21
194.1868
  0
LINE
  8
LAYER_2
 10
126.8439
 20
194.1868
 11
126.2514
 21
191.975
  0
LINE
  8
LAYER_2
 10
126.2514
 20
191.975
 11
127.4365
 21
191.975
  0
LINE
  8
LAYER_2
 10
148.2804
 20
197.7052
 11
148.2804
 21
185.3132
  0
LINE
  8
LAYER_2
 10
147.6878
 20
196.3985
 11
148.2804
 21
194.1868
  0
LINE
  8
LAYER_2
 10
148.2804
 20
194.1868
 11
148.8729
 21
196.3985
  0
LINE
  8
LAYER_2
 10
148.8729
 20
196.3985
 11
147.6878
 21
196.3985
  0
LINE
  8
LAYER_2
 10
148.8729
 20
189.4751
 11
148.2804
 21
191.6868
  0
LINE
  8
LAYER_2
 10
148.2804
 20
191.6868
 11
147.6878
 21
189.4751
  0
LINE
  8
LAYER_2
 10
147.6878
 20
189.4751
 11
148.8729
 21
189.4751
  0
INSERT
  8
LAYER_2
  2
AIGNBL02010002
 10
0
 20
0
 30
0
  0
LINE
  8
LAYER_2
 10
111.8419
 20
101.4357
 11
92.8267
 21
101.4357
  0
LINE
  8
LAYER_2
 10
111.8564
 20
86.9353
 11
66.1181
 21
86.9353
  0
INSERT
  8
LAYER_2
  2
AIGNBL02010003
 10
0
 20
0
 30
0
  0
LINE
  8
LAYER_2
 10
99.3025
 20
98.4357
 11
92.7203
 21
98.4357
  0
INSERT
  8
LAYER_2
  2
AIGNBL02010004
 10
0
 20
0
 30
0
  0
LINE
  8
LAYER_2
 10
105.5588
 20
96.4355
 11
89.364
 21
96.4355
  0
INSERT
  8
LAYER_2
  2
AIGNBL02010005
 10
0
 20
0
 30
0
  0
INSERT
  8
LAYER_2
  2
AIGNBL02010006
 10
0
 20
0
 30
0
  0
LINE
  8
LAYER_2
 10
141.3654
 20
78.9054
 11
141.3654
 21
83.9635
  0
LINE
  8
LAYER_2
 10
164.8654
 20
78.9054
 11
164.8654
 21
97.9961
  0
INSERT
  8
LAYER_2
  2
AIGNBL02010007
 10
0
 20
0
 30
0
  0
LINE
  8
LAYER_2
 10
116.8649
 20
148.3195
 11
116.8649
 21
158.4577
  0
LINE
  8
LAYER_2
 10
165.8648
 20
148.3195
 11
165.8648
 21
158.4866
  0
LINE
  8
LAYER_2
  6
AIGENLINE001
 10
157.8653
 20
99.0834
 11
157.8653
 21
104.2875
  0
LINE
  8
LAYER_2
  6
AIGENLINE001
 10
51.9095
 20
195.0463
 11
51.9095
 21
188.0662
  0
CIRCLE
  8
LAYER_2
  6
AIGENLINE002
 10
51.9095
 20
191.6868
 40
1.75
  0
LINE
  8
LAYER_2
  6
AIGENLINE001
 10
71.91
 20
195.0463
 11
71.91
 21
188.0662
  0
CIRCLE
  8
LAYER_2
  6
AIGENLINE002
 10
71.91
 20
191.6868
 40
1.75
  0
LINE
  8
LAYER_2
  6
AIGENLINE001
 10
137.2261
 20
175.1867
 11
145.6045
 21
175.1867
  0
CIRCLE
  8
LAYER_2
  6
AIGENLINE002
 10
141.365
 20
175.1867
 40
2.3
  0
LINE
  8
LAYER_2
 10
161.454
 20
201.1646
 11
160.0233
 21
198.6867
  0
LINE
  8
LAYER_2
 10
160.0233
 20
198.6867
 11
158.5929
 21
201.1646
  0
LINE
  8
LAYER_2
 10
158.5929
 20
201.1646
 11
161.454
 21
201.1646
  0
LINE
  8
LAYER_2
 10
87.7793
 20
203.1645
 11
86.3484
 21
200.6866
  0
LINE
  8
LAYER_2
 10
86.3484
 20
200.6866
 11
84.918
 21
203.1645
  0
LINE
  8
LAYER_2
 10
84.918
 20
203.1645
 11
87.7793
 21
203.1645
  0
LINE
  8
LAYER_2
 10
148.4871
 20
203.1645
 11
147.056
 21
200.6866
  0
LINE
  8
LAYER_2
 10
147.056
 20
200.6866
 11
145.6256
 21
203.1645
  0
LINE
  8
LAYER_2
 10
145.6256
 20
203.1645
 11
148.4871
 21
203.1645
  0
LINE
  8
LAYER_2
 10
26.6287
 20
98.8973
 11
25.1979
 21
96.4196
  0
LINE
  8
LAYER_2
 10
25.1979
 20
96.4196
 11
23.7676
 21
98.8973
  0
LINE
  8
LAYER_2
 10
23.7676
 20
98.8973
 11
26.6287
 21
98.8973
  0
LINE
  8
LAYER_2
 10
67.4348
 20
169.7242
 11
57.5243
 21
179.634
  0
LINE
  8
LAYER_2
 10
64.7108
 20
171.6107
 11
63.5663
 21
173.5923
  0
LINE
  8
LAYER_2
 10
63.5663
 20
173.5923
 11
65.5486
 21
172.4482
  0
LINE
  8
LAYER_2
 10
65.5486
 20
172.4482
 11
64.7108
 21
171.6107
  0
LINE
  8
LAYER_2
 10
59.1693
 20
178.8265
 11
60.3138
 21
176.8448
  0
LINE
  8
LAYER_2
 10
60.3138
 20
176.8448
 11
58.3322
 21
177.9889
  0
LINE
  8
LAYER_2
 10
58.3322
 20
177.9889
 11
59.1693
 21
178.8265
  0
LINE
  8
LAYER_2
 10
67.4348
 20
169.7242
 11
72.8891
 21
169.7242
  0
LINE
  8
LAYER_2
 10
65.9906
 20
187.6059
 11
50.3547
 21
203.2394
  0
LINE
  8
LAYER_2
 10
64.2915
 20
188.4676
 11
63.147
 21
190.4492
  0
LINE
  8
LAYER_2
 10
63.147
 20
190.4492
 11
65.1294
 21
189.3051
  0
LINE
  8
LAYER_2
 10
65.1294
 20
189.3051
 11
64.2915
 21
188.4676
  0
LINE
  8
LAYER_2
 10
59.5276
 20
194.9059
 11
60.6721
 21
192.9241
  0
LINE
  8
LAYER_2
 10
60.6721
 20
192.9241
 11
58.6905
 21
194.0682
  0
LINE
  8
LAYER_2
 10
58.6905
 20
194.0682
 11
59.5276
 21
194.9059
  0
LINE
  8
LAYER_2
 10
44.9005
 20
203.2394
 11
50.3547
 21
203.2394
  0
LINE
  8
LAYER_2
 10
32.1598
 20
134.6669
 11
91.6597
 21
134.6669
  0
LINE
  8
LAYER_2
 10
89.4483
 20
134.0743
 11
91.6597
 21
134.6669
  0
LINE
  8
LAYER_2
 10
91.6597
 20
134.6669
 11
89.4483
 21
135.2594
  0
LINE
  8
LAYER_2
 10
89.4483
 20
135.2594
 11
89.4483
 21
134.0743
  0
LINE
  8
LAYER_2
 10
34.3709
 20
135.2594
 11
32.1598
 21
134.6669
  0
LINE
  8
LAYER_2
 10
32.1598
 20
134.6669
 11
34.3709
 21
134.0743
  0
LINE
  8
LAYER_2
 10
34.3709
 20
134.0743
 11
34.3709
 21
135.2594
  0
LINE
  8
LAYER_2
 10
32.1598
 20
156.3062
 11
32.1598
 21
133.9668
  0
LINE
  8
LAYER_2
 10
91.6597
 20
156.3062
 11
91.6597
 21
133.9668
  0
LINE
  8
LAYER_2
 10
37.1598
 20
141.7231
 11
86.6596
 21
141.7231
  0
LINE
  8
LAYER_2
 10
84.4483
 20
141.1306
 11
86.6596
 21
141.7231
  0
LINE
  8
LAYER_2
 10
86.6596
 20
141.7231
 11
84.4483
 21
142.3157
  0
LINE
  8
LAYER_2
 10
84.4483
 20
142.3157
 11
84.4483
 21
141.1306
  0
LINE
  8
LAYER_2
 10
39.3709
 20
142.3157
 11
37.1598
 21
141.7231
  0
LINE
  8
LAYER_2
 10
37.1598
 20
141.7231
 11
39.3709
 21
141.1306
  0
LINE
  8
LAYER_2
 10
39.3709
 20
141.1306
 11
39.3709
 21
142.3157
  0
LINE
  8
LAYER_2
 10
37.1598
 20
166.8902
 11
37.1598
 21
141.0231
  0
LINE
  8
LAYER_2
 10
86.6596
 20
166.8902
 11
86.6596
 21
141.0231
  0
LINE
  8
LAYER_2
 10
51.9095
 20
207.8793
 11
71.9097
 21
207.8793
  0
LINE
  8
LAYER_2
 10
69.6982
 20
207.2867
 11
71.9097
 21
207.8793
  0
LINE
  8
LAYER_2
 10
71.9097
 20
207.8793
 11
69.6982
 21
208.4718
  0
LINE
  8
LAYER_2
 10
69.6982
 20
208.4718
 11
69.6982
 21
207.2867
  0
LINE
  8
LAYER_2
 10
59.6981
 20
207.2867
 11
61.9096
 21
207.8793
  0
LINE
  8
LAYER_2
 10
61.9096
 20
207.8793
 11
59.6981
 21
208.4718
  0
LINE
  8
LAYER_2
 10
59.6981
 20
208.4718
 11
59.6981
 21
207.2867
  0
LINE
  8
LAYER_2
 10
54.1206
 20
208.4718
 11
51.9095
 21
207.8793
  0
LINE
  8
LAYER_2
 10
51.9095
 20
207.8793
 11
54.1206
 21
207.2867
  0
LINE
  8
LAYER_2
 10
54.1206
 20
207.2867
 11
54.1206
 21
208.4718
  0
LINE
  8
LAYER_2
 10
64.1206
 20
208.4718
 11
61.9096
 21
207.8793
  0
LINE
  8
LAYER_2
 10
61.9096
 20
207.8793
 11
64.1206
 21
207.2867
  0
LINE
  8
LAYER_2
 10
64.1206
 20
207.2867
 11
64.1206
 21
208.4718
  0
LINE
  8
LAYER_2
 10
51.9095
 20
208.5793
 11
51.9095
 21
195.7464
  0
LINE
  8
LAYER_2
 10
71.9097
 20
208.5793
 11
71.9097
 21
195.7464
  0
LINE
  8
LAYER_2
 10
61.9096
 20
208.5793
 11
61.9096
 21
202.3358
  0
LINE
  8
LAYER_2
 10
61.9096
 20
198.6866
 11
37.6633
 21
198.6866
  0
ARC
  8
LAYER_2
 10
37.6742
 20
193.1726
 40
5.5141
 50
90.11334561
 51
134.9850172
  0
ARC
  8
LAYER_2
 10
37.6748
 20
193.1718
 40
5.5151
 50
134.9839316
 51
179.8584163
  0
LINE
  8
LAYER_2
 10
32.1598
 20
193.1854
 11
32.1598
 21
159.6903
  0
ARC
  8
LAYER_2
  6
AIGENLINE003
 10
117.1297
 20
193.1726
 40
5.514
 50
90.1132453
 51
134.9851175
  0
ARC
  8
LAYER_2
  6
AIGENLINE003
 10
117.1303
 20
193.1716
 40
5.5152
 50
134.9829092
 51
179.8569254
  0
LINE
  8
LAYER_2
  6
AIGENLINE003
 10
111.6152
 20
193.1854
 11
111.6152
 21
184.2692
  0
ARC
  8
LAYER_2
 10
37.6704
 20
159.6974
 40
5.5106
 50
180.0733193
 51
224.9999993
  0
ARC
  8
LAYER_2
 10
37.6702
 20
159.6959
 40
5.5094
 50
224.9904925
 51
269.928649
  0
LINE
  8
LAYER_2
 10
37.6633
 20
154.1865
 11
61.9096
 21
154.1865
  0
LINE
  8
LAYER_2
 10
61.9096
 20
198.6866
 11
86.1562
 21
198.6866
  0
ARC
  8
LAYER_2
 10
86.1436
 20
193.1716
 40
5.5161
 50
0.1429830739
 51
45.00712877
  0
ARC
  8
LAYER_2
 10
86.1454
 20
193.172
 40
5.5146
 50
45.01725548
 51
89.88751363
  0
LINE
  8
LAYER_2
 10
91.6597
 20
193.1854
 11
91.6597
 21
159.6903
  0
ARC
  8
LAYER_2
  6
AIGENLINE003
 10
165.5992
 20
193.1717
 40
5.516
 50
0.1423390706
 51
45.00777278
  0
ARC
  8
LAYER_2
  6
AIGENLINE003
 10
165.6008
 20
193.172
 40
5.5146
 50
45.01720779
 51
89.88756132
  0
LINE
  8
LAYER_2
  6
AIGENLINE003
 10
171.1151
 20
193.1854
 11
171.1151
 21
184.2692
  0
LINE
  8
LAYER_2
  6
AIGENLINE001
 10
61.9096
 20
201.6357
 11
61.9096
 21
150.9935
  0
LINE
  8
LAYER_2
  6
AIGENLINE001
 10
61.9096
 20
104.0815
 11
61.9096
 21
84.6636
  0
LINE
  8
LAYER_2
  6
AIGENLINE002
 10
150.8938
 20
99.1068
 11
146.9461
 21
92.8553
  0
LINE
  8
LAYER_2
  6
AIGENLINE001
 10
148.4702
 20
98.9993
 11
151.7437
 21
96.9315
  0
LINE
  8
LAYER_2
  6
AIGENLINE002
 10
145.331
 20
91.602
 11
144.8153
 21
91.4359
  0
LINE
  8
LAYER_2
  6
AIGENLINE001
 10
141.3654
 20
104.0815
 11
141.3654
 21
84.6636
  0
LINE
  8
LAYER_2
  6
AIGENLINE002
 10
59.3096
 20
90.4355
 11
59.3096
 21
86.9359
  0
LINE
  8
LAYER_2
  6
AIGENLINE002
 10
63.9094
 20
90.4355
 11
63.9094
 21
86.9359
  0
LINE
  8
LAYER_2
  6
AIGENLINE002
 10
57.8595
 20
91.4359
 11
59.3096
 21
90.4355
  0
LINE
  8
LAYER_2
  6
AIGENLINE002
 10
59.3096
 20
90.4355
 11
63.9094
 21
90.4355
  0
LINE
  8
LAYER_2
  6
AIGENLINE002
 10
57.8595
 20
91.4359
 11
65.3595
 21
91.4359
  0
LINE
  8
LAYER_2
  6
AIGENLINE002
 10
65.3595
 20
91.4359
 11
63.9094
 21
90.4355
  0
LINE
  8
LAYER_2
  6
AIGENLINE002
 10
138.7653
 20
90.4355
 11
138.7653
 21
86.9359
  0
LINE
  8
LAYER_2
  6
AIGENLINE002
 10
143.3652
 20
90.4355
 11
143.3652
 21
86.9359
  0
LINE
  8
LAYER_2
  6
AIGENLINE002
 10
137.3153
 20
91.4359
 11
138.7653
 21
90.4355
  0
LINE
  8
LAYER_2
  6
AIGENLINE002
 10
138.7653
 20
90.4355
 11
143.3652
 21
90.4355
  0
LINE
  8
LAYER_2
  6
AIGENLINE002
 10
137.3153
 20
91.4359
 11
144.8153
 21
91.4359
  0
LINE
  8
LAYER_2
  6
AIGENLINE002
 10
144.8153
 20
91.4359
 11
143.3652
 21
90.4355
  0
ARC
  8
LAYER_2
 10
86.1493
 20
159.696
 40
5.5095
 50
270.0718632
 51
315.0089953
  0
ARC
  8
LAYER_2
 10
86.148
 20
159.6978
 40
5.5117
 50
315.0049199
 51
359.9217616
  0
LINE
  8
LAYER_2
 10
86.1562
 20
154.1865
 11
61.9099
 21
154.1865
  0
LINE
  8
LAYER_2
 10
61.9096
 20
101.4357
 11
32.7613
 21
101.4357
  0
ARC
  8
LAYER_2
 10
32.7617
 20
100.8341
 40
0.6016
 50
90.03376887
 51
137.0376384
  0
ARC
  8
LAYER_2
 10
32.7596
 20
100.8353
 40
0.5993
 50
136.9901939
 51
184.1363671
  0
LINE
  8
LAYER_2
 10
32.1615
 20
100.7921
 11
32.2938
 21
98.8932
  0
ARC
  8
LAYER_2
 10
32.7987
 20
98.9346
 40
0.5062
 50
184.6919931
 51
227.0799884
  0
ARC
  8
LAYER_2
 10
32.8036
 20
98.9404
 40
0.5138
 50
227.1223064
 51
268.9266437
  0
LINE
  8
LAYER_2
 10
32.7944
 20
98.4267
 11
61.9099
 21
98.4267
  0
LINE
  8
LAYER_2
 10
35.3344
 20
98.4267
 11
35.4047
 21
96.4196
  0
LINE
  8
LAYER_2
 10
35.4047
 20
96.4196
 11
61.9096
 21
96.4196
  0
LINE
  8
LAYER_2
 10
61.9096
 20
96.4196
 11
88.4144
 21
96.4196
  0
LINE
  8
LAYER_2
 10
88.4151
 20
96.4196
 11
88.4847
 21
98.4267
  0
ARC
  8
LAYER_2
 10
50.9898
 20
108.6874
 40
16.7548
 50
227.1538261
 51
234.9603394
  0
ARC
  8
LAYER_2
 10
53.0523
 20
111.6717
 40
20.3824
 50
235.0298231
 51
242.0266824
  0
ARC
  8
LAYER_2
 10
57.6352
 20
120.3702
 40
30.2143
 50
242.0886863
 51
247.2057977
  0
ARC
  8
LAYER_2
 10
52.4541
 20
108.9705
 40
17.7011
 50
248.3719251
 51
255.9534919
  0
ARC
  8
LAYER_2
 10
54.9598
 20
119.2625
 40
28.2937
 50
256.0895919
 51
262.2190093
  0
ARC
  8
LAYER_2
 10
57.5176
 20
134.6304
 40
43.8686
 50
261.6265237
 51
263.5142209
  0
ARC
  8
LAYER_2
 10
59.999
 20
133.341
 40
42.9473
 50
260.0285384
 51
266.7763919
  0
LINE
  8
LAYER_2
 10
57.5843
 20
90.4617
 11
61.9096
 21
90.4527
  0
LINE
  8
LAYER_2
 10
57.4461
 20
90.4631
 11
58.1062
 21
89.8787
  0
LINE
  8
LAYER_2
 10
61.9096
 20
86.9359
 11
58.4014
 21
86.9359
  0
LINE
  8
LAYER_2
 10
58.4014
 20
86.9359
 11
58.275
 21
89.526
  0
ARC
  8
LAYER_2
 10
57.7756
 20
89.5027
 40
0.5
 50
2.669615154
 51
48.66317139
  0
LINE
  8
LAYER_2
 10
61.9096
 20
101.4357
 11
91.0582
 21
101.4357
  0
ARC
  8
LAYER_2
 10
91.0531
 20
100.8323
 40
0.6066
 50
356.1977875
 51
42.84505976
  0
ARC
  8
LAYER_2
 10
91.0576
 20
100.8328
 40
0.6029
 50
43.10586401
 51
89.94753252
  0
LINE
  8
LAYER_2
 10
91.6583
 20
100.7921
 11
91.5253
 21
98.8932
  0
ARC
  8
LAYER_2
 10
91.017
 20
98.9376
 40
0.5109
 50
270.9029906
 51
313.0013234
  0
ARC
  8
LAYER_2
 10
91.0189
 20
98.9354
 40
0.5081
 50
313.0096507
 51
355.3138799
  0
LINE
  8
LAYER_2
 10
91.0251
 20
98.4267
 11
61.9092
 21
98.4267
  0
ARC
  8
LAYER_2
 10
66.6486
 20
119.3633
 40
29.106
 50
292.7189802
 51
298.6026343
  0
ARC
  8
LAYER_2
 10
71.1062
 20
111.1295
 40
19.743
 50
298.6844464
 51
305.9071168
  0
ARC
  8
LAYER_2
 10
72.9408
 20
108.5546
 40
16.5816
 50
305.9904387
 51
312.8756933
  0
ARC
  8
LAYER_2
 10
68.1295
 20
116.928
 40
26.2913
 50
276.8322819
 51
291.7923827
  0
ARC
  8
LAYER_2
 10
64.1972
 20
153.8032
 40
63.3742
 50
271.8428666
 51
276.3961461
  0
LINE
  8
LAYER_2
 10
66.2352
 20
90.4617
 11
61.9096
 21
90.4527
  0
LINE
  8
LAYER_2
 10
66.3737
 20
90.4631
 11
65.7133
 21
89.8787
  0
LINE
  8
LAYER_2
 10
61.9096
 20
86.9359
 11
65.4181
 21
86.9359
  0
LINE
  8
LAYER_2
 10
65.4181
 20
86.9359
 11
65.5445
 21
89.526
  0
ARC
  8
LAYER_2
 10
66.0516
 20
89.4985
 40
0.5082
 50
131.6850522
 51
176.9028687
  0
LINE
  8
LAYER_2
 10
164.2694
 20
101.4363
 11
120.9656
 21
101.4357
  0
ARC
  8
LAYER_2
 10
120.9663
 20
100.834
 40
0.6017
 50
137.0324192
 51
184.0597083
  0
ARC
  8
LAYER_2
 10
120.9661
 20
100.8345
 40
0.6012
 50
90.04558935
 51
137.0544445
  0
LINE
  8
LAYER_2
 10
120.3661
 20
100.7914
 11
120.4977
 21
98.8932
  0
ARC
  8
LAYER_2
 10
164.264
 20
100.8305
 40
0.6045
 50
43.07990526
 51
89.82006082
  0
ARC
  8
LAYER_2
 10
164.273
 20
100.8361
 40
0.5941
 50
355.6853836
 51
43.27820948
  0
LINE
  8
LAYER_2
 10
164.8661
 20
100.7914
 11
164.7331
 21
98.8932
  0
ARC
  8
LAYER_2
 10
121.0072
 20
98.9425
 40
0.5159
 50
227.3474186
 51
269.0497625
  0
ARC
  8
LAYER_2
 10
121.0071
 20
98.9351
 40
0.5104
 50
184.7069027
 51
226.7870878
  0
LINE
  8
LAYER_2
 10
120.9986
 20
98.4267
 11
164.2335
 21
98.4267
  0
ARC
  8
LAYER_2
 10
164.2204
 20
98.9384
 40
0.5147
 50
313.1820143
 51
354.9584334
  0
ARC
  8
LAYER_2
 10
164.2249
 20
98.9379
 40
0.5113
 50
270.9689993
 51
312.8550499
  0
LINE
  8
LAYER_2
 10
123.589
 20
98.4267
 11
123.6586
 21
96.4203
  0
LINE
  8
LAYER_2
 10
123.6586
 20
96.4203
 11
162.7852
 21
96.4203
  0
LINE
  8
LAYER_2
 10
162.7852
 20
96.4203
 11
162.8555
 21
98.4274
  0
ARC
  8
LAYER_2
 10
139.8937
 20
109.111
 40
19.2414
 50
232.089969
 51
239.4709669
  0
ARC
  8
LAYER_2
 10
135.7408
 20
103.7565
 40
12.4652
 50
216.052999
 51
232.028279
  0
ARC
  8
LAYER_2
 10
137.8834
 20
105.8741
 40
15.4503
 50
239.7928568
 51
266.3310825
  0
LINE
  8
LAYER_2
 10
136.8947
 20
90.4555
 11
145.2208
 21
90.4678
  0
ARC
  8
LAYER_2
 10
145.3763
 20
94.385
 40
3.9193
 50
298.6843983
 51
329.6627116
  0
ARC
  8
LAYER_2
 10
145.3751
 20
94.382
 40
3.9172
 50
267.7425908
 51
298.7212004
  0
LINE
  8
LAYER_2
 10
148.7589
 20
92.4054
 11
150.9637
 21
96.4203
  0
LINE
  8
LAYER_2
 10
136.8947
 20
90.4555
 11
137.5355
 21
89.8905
  0
ARC
  8
LAYER_2
 10
137.2034
 20
89.5146
 40
0.5015
 50
2.943188797
 51
48.53870215
  0
LINE
  8
LAYER_2
 10
137.7043
 20
89.5398
 11
137.8331
 21
86.9359
  0
LINE
  8
LAYER_2
 10
137.8338
 20
86.9359
 11
144.8494
 21
86.9359
  0
LINE
  8
LAYER_2
 10
144.8494
 20
86.9359
 11
144.8838
 21
87.645
  0
LINE
  8
LAYER_2
 10
143.0442
 20
89.5267
 11
143.0228
 21
87.6181
  0
LINE
  8
LAYER_2
 10
143.0235
 20
87.6188
 11
149.5209
 21
87.7111
  0
ARC
  8
LAYER_2
 10
149.5001
 20
88.7195
 40
1.0089
 50
315.4343827
 51
359.7061536
  0
ARC
  8
LAYER_2
 10
149.5002
 20
88.7204
 40
1.0095
 50
271.1759722
 51
315.3954563
  0
LINE
  8
LAYER_2
 10
150.509
 20
88.7143
 11
150.509
 21
91.4098
  0
ARC
  8
LAYER_2
 10
151.5179
 20
91.4088
 40
1.0089
 50
153.8453502
 51
179.9429452
  0
LINE
  8
LAYER_2
 10
150.6123
 20
91.8535
 11
152.9709
 21
96.4203
  0
ARC
  8
LAYER_2
 10
142.982
 20
91.9115
 40
2.385
 50
271.4949061
 51
290.5529308
  0
ARC
  8
LAYER_2
 10
137.4533
 20
102.604
 40
14.4083
 50
296.2205975
 51
302.6156872
  0
ARC
  8
LAYER_2
 10
62.8336
 20
184.0114
 40
0.3279
 50
297.7636463
 51
353.709607
  0
ARC
  8
LAYER_2
 10
62.1547
 20
185.13
 40
1.6358
 50
275.4646289
 51
300.5544573
  0
ARC
  8
LAYER_2
 10
61.94
 20
186.0827
 40
2.6076
 50
269.3314716
 51
278.1683363
  0
ARC
  8
LAYER_2
 10
61.8692
 20
185.991
 40
2.5161
 50
251.1943687
 51
270.9201642
  0
ARC
  8
LAYER_2
 10
61.2371
 20
184.258
 40
0.6729
 50
215.3546292
 51
254.572758
  0
ARC
  8
LAYER_2
 10
60.9609
 20
183.9988
 40
0.3021
 50
184.4231921
 51
205.53263
  0
ARC
  8
LAYER_2
 10
60.9856
 20
183.9396
 40
0.3279
 50
117.7636463
 51
173.709607
  0
ARC
  8
LAYER_2
 10
61.6645
 20
182.821
 40
1.6358
 50
95.46462891
 51
120.5544573
  0
ARC
  8
LAYER_2
 10
61.8792
 20
181.8683
 40
2.6076
 50
89.3314716
 51
98.16833625
  0
ARC
  8
LAYER_2
 10
61.95
 20
181.96
 40
2.5161
 50
71.19436869
 51
90.92016416
  0
ARC
  8
LAYER_2
 10
62.5821
 20
183.693
 40
0.6729
 50
35.35462913
 51
74.57275801
  0
ARC
  8
LAYER_2
 10
62.8583
 20
183.9522
 40
0.3021
 50
4.42319204
 51
25.53262999
  0
CIRCLE
  8
LAYER_2
 10
61.9096
 20
191.6867
 40
1.75
  0
CIRCLE
  8
LAYER_2
 10
61.9096
 20
175.1867
 40
2.2999
  0
CIRCLE
  8
LAYER_2
 10
61.9096
 20
175.1867
 40
3.75
  0
LINE
  8
LAYER_2
  6
AIGENLINE001
 10
48.6651
 20
191.6867
 11
75.1399
 21
191.6867
  0
CIRCLE
  8
LAYER_2
  6
AIGENLINE002
 10
61.9096
 20
97.9354
 40
1.2499
  0
LINE
  8
LAYER_2
  6
AIGENLINE001
 10
58.1461
 20
97.9354
 11
65.6589
 21
97.9354
  0
LINE
  8
LAYER_2
  6
AIGENLINE001
 10
56.3406
 20
175.1867
 11
67.3866
 21
175.1867
  0
ARC
  8
LAYER_2
 10
52.2315
 20
171.94
 40
15.0718
 50
163.8621696
 51
180.0141832
  0
ARC
  8
LAYER_2
 10
52.0916
 20
171.9589
 40
14.9322
 50
148.513479
 51
163.7826707
  0
ARC
  8
LAYER_2
 10
49.1848
 20
173.1784
 40
11.8261
 50
127.7317116
 51
146.1952736
  0
ARC
  8
LAYER_2
 10
49.4243
 20
172.7781
 40
12.2893
 50
118.709771
 51
127.4727777
  0
ARC
  8
LAYER_2
 10
50.5137
 20
170.7684
 40
14.5754
 50
111.0376597
 51
118.6706227
  0
ARC
  8
LAYER_2
 10
52.1496
 20
166.4553
 40
19.1883
 50
103.7952635
 51
110.9736801
  0
ARC
  8
LAYER_2
 10
54.2541
 20
157.8899
 40
28.0084
 50
98.07827252
 51
103.7980762
  0
ARC
  8
LAYER_2
 10
56.8742
 20
139.2927
 40
46.7892
 50
93.51248157
 51
98.05465841
  0
ARC
  8
LAYER_2
 10
60.0852
 20
85.6508
 40
100.5271
 50
90.27240357
 51
93.4660397
  0
ARC
  8
LAYER_2
 10
61.4893
 20
16.5756
 40
169.6116
 50
89.85803421
 51
90.63579274
  0
ARC
  8
LAYER_2
 10
52.2321
 20
171.9326
 40
15.0724
 50
179.9857612
 51
196.1375518
  0
ARC
  8
LAYER_2
 10
52.0915
 20
171.9135
 40
14.9321
 50
196.2171793
 51
211.4865317
  0
ARC
  8
LAYER_2
 10
49.1845
 20
170.6941
 40
11.8259
 50
213.8051847
 51
232.2689758
  0
ARC
  8
LAYER_2
 10
49.4241
 20
171.0944
 40
12.2892
 50
232.5278897
 51
241.2909196
  0
ARC
  8
LAYER_2
 10
50.5135
 20
173.1043
 40
14.5753
 50
241.3300667
 51
248.9629947
  0
ARC
  8
LAYER_2
 10
52.1495
 20
177.4176
 40
19.1884
 50
249.0269734
 51
256.2052994
  0
ARC
  8
LAYER_2
 10
54.254
 20
185.9833
 40
28.0089
 50
256.2024844
 51
261.9221632
  0
ARC
  8
LAYER_2
 10
56.8741
 20
204.5816
 40
46.7908
 50
261.9457756
 51
266.4877938
  0
ARC
  8
LAYER_2
 10
60.0851
 20
258.2283
 40
100.5336
 50
266.5342339
 51
269.7276658
  0
ARC
  8
LAYER_2
 10
61.4893
 20
327.3138
 40
169.6283
 50
269.3642816
 51
270.1419636
  0
ARC
  8
LAYER_2
 10
71.5884
 20
171.94
 40
15.0711
 50
359.9859458
 51
16.13872161
  0
ARC
  8
LAYER_2
 10
71.7256
 20
171.9582
 40
14.9343
 50
16.21791988
 51
31.48492455
  0
ARC
  8
LAYER_2
 10
74.6344
 20
173.1784
 40
11.8261
 50
33.80472642
 51
52.26828833
  0
ARC
  8
LAYER_2
 10
74.3949
 20
172.7781
 40
12.2893
 50
52.52722231
 51
61.29022894
  0
ARC
  8
LAYER_2
 10
73.3055
 20
170.7684
 40
14.5754
 50
61.32937725
 51
68.96234027
  0
ARC
  8
LAYER_2
 10
71.6696
 20
166.4553
 40
19.1883
 50
69.02631988
 51
76.2047365
  0
ARC
  8
LAYER_2
 10
69.5651
 20
157.8899
 40
28.0084
 50
76.20192379
 51
81.92172745
  0
ARC
  8
LAYER_2
 10
66.945
 20
139.2927
 40
46.7892
 50
81.94534156
 51
86.48751841
  0
ARC
  8
LAYER_2
 10
63.734
 20
85.6508
 40
100.5271
 50
86.53396028
 51
89.72759641
  0
ARC
  8
LAYER_2
 10
62.3299
 20
16.5756
 40
169.6116
 50
89.36420723
 51
90.14196577
  0
ARC
  8
LAYER_2
 10
71.5878
 20
171.9326
 40
15.0717
 50
343.861557
 51
0.01410984064
  0
ARC
  8
LAYER_2
 10
71.7257
 20
171.9142
 40
14.9341
 50
328.5150647
 51
343.7822301
  0
ARC
  8
LAYER_2
 10
74.6347
 20
170.6941
 40
11.8259
 50
307.7310242
 51
326.1948153
  0
ARC
  8
LAYER_2
 10
74.3951
 20
171.0944
 40
12.2892
 50
298.7090805
 51
307.4721104
  0
ARC
  8
LAYER_2
 10
73.3057
 20
173.1043
 40
14.5753
 50
291.0370053
 51
298.6699333
  0
ARC
  8
LAYER_2
 10
71.6697
 20
177.4176
 40
19.1884
 50
283.7947007
 51
290.9730266
  0
ARC
  8
LAYER_2
 10
69.5652
 20
185.9833
 40
28.0089
 50
278.0778368
 51
283.7975156
  0
ARC
  8
LAYER_2
 10
66.9451
 20
204.5816
 40
46.7908
 50
273.5122062
 51
278.0542245
  0
ARC
  8
LAYER_2
 10
63.7341
 20
258.2283
 40
100.5336
 50
270.2723342
 51
273.4657661
  0
ARC
  8
LAYER_2
 10
62.3299
 20
327.3138
 40
169.6283
 50
269.8580364
 51
270.6357185
  0
ARC
  8
LAYER_2
  6
AIGENLINE002
 10
35.5038
 20
91.4038
 40
10.0325
 50
70.3093229
 51
90.01097733
  0
ARC
  8
LAYER_2
  6
AIGENLINE002
 10
35.4681
 20
91.3965
 40
10.0515
 50
40.61414602
 51
70.13171473
  0
ARC
  8
LAYER_2
  6
AIGENLINE002
 10
57.8548
 20
111.5637
 40
20.1278
 50
256.3049655
 51
270.0134307
  0
ARC
  8
LAYER_2
  6
AIGENLINE002
 10
57.8347
 20
111.3647
 40
19.9298
 50
236.2155393
 51
256.2256079
  0
ARC
  8
LAYER_2
  6
AIGENLINE002
 10
57.9422
 20
111.5218
 40
20.1201
 50
222.4586599
 51
236.2099162
  0
ARC
  8
LAYER_2
  6
AIGENLINE002
 10
87.7152
 20
91.4038
 40
10.0325
 50
89.98902265
 51
109.6906771
  0
ARC
  8
LAYER_2
  6
AIGENLINE002
 10
87.7509
 20
91.3965
 40
10.0515
 50
109.8682852
 51
139.385854
  0
ARC
  8
LAYER_2
  6
AIGENLINE002
 10
65.3642
 20
111.564
 40
20.1281
 50
269.9865421
 51
283.6949379
  0
ARC
  8
LAYER_2
  6
AIGENLINE002
 10
65.3844
 20
111.3644
 40
19.9295
 50
283.7743565
 51
303.7846632
  0
ARC
  8
LAYER_2
  6
AIGENLINE002
 10
65.2767
 20
111.5219
 40
20.1202
 50
303.7902964
 51
317.5414157
  0
ARC
  8
LAYER_2
  6
AIGENLINE002
 10
137.312
 20
104.4965
 40
13.0606
 50
253.6915608
 51
270.0144543
  0
ARC
  8
LAYER_2
  6
AIGENLINE002
 10
137.3288
 20
104.4449
 40
13.0159
 50
226.9917285
 51
253.556965
  0
ARC
  8
LAYER_2
  6
AIGENLINE002
 10
137.3817
 20
104.4956
 40
13.089
 50
206.5500491
 51
226.97375
  0
ARC
  8
LAYER_2
  6
AIGENLINE002
 10
121.1183
 20
96.3241
 40
5.112
 50
27.00270041
 51
89.27877705
  0
ARC
  8
LAYER_2
  6
AIGENLINE002
 10
155.177
 20
96.3345
 40
5.1021
 50
90.61738817
 51
147.087188
  0
ARC
  8
LAYER_2
  6
AIGENLINE002
 10
144.3853
 20
94.488
 40
3.037
 50
288.1427495
 51
327.4793968
  0
LINE
  8
LAYER_2
 10
116.8649
 20
193.6867
 11
116.8649
 21
159.6869
  0
LINE
  8
LAYER_2
 10
165.8648
 20
193.6867
 11
165.8648
 21
159.6869
  0
LINE
  8
LAYER_2
  6
AIGENLINE001
 10
141.365
 20
199.0147
 11
141.365
 21
156.1522
  0
LINE
  8
LAYER_2
 10
144.0918
 20
194.1868
 11
165.3649
 21
194.1868
  0
LINE
  8
LAYER_2
 10
117.3648
 20
194.1868
 11
138.6389
 21
194.1868
  0
LINE
  8
LAYER_2
 10
141.365
 20
191.6868
 11
148.9804
 21
191.6868
  0
ARC
  8
LAYER_2
 10
117.3649
 20
193.6868
 40
0.5
 50
90.00840278
 51
180.0145155
  0
ARC
  8
LAYER_2
 10
165.3648
 20
193.6868
 40
0.5
 50
359.9860522
 51
89.9910295
  0
LINE
  8
LAYER_2
 10
117.3648
 20
159.1867
 11
165.3649
 21
159.1867
  0
LINE
  8
LAYER_2
  6
AIGENLINE003
 10
117.1188
 20
198.6867
 11
165.6116
 21
198.6867
  0
LINE
  8
LAYER_2
  6
AIGENLINE003
 10
109.3401
 20
200.6866
 11
178.5024
 21
200.6866
  0
LINE
  8
LAYER_2
  6
AIGENLINE003
 10
24.4354
 20
200.6866
 11
106.0214
 21
200.6866
  0
LINE
  8
LAYER_2
  6
AIGENLINE003
 10
20.7174
 20
96.4196
 11
35.4047
 21
96.4196
  0
ARC
  8
LAYER_2
 10
117.3649
 20
159.6867
 40
0.5
 50
179.98036
 51
269.985266
  0
ARC
  8
LAYER_2
 10
165.3648
 20
159.6867
 40
0.5
 50
270.0153016
 51
0.01907245702
  0
LINE
  8
LAYER_2
 10
170.5319
 20
154.5196
 11
165.7184
 21
159.3331
  0
LINE
  8
LAYER_2
 10
166.8629
 20
157.3508
 11
165.7184
 21
159.3331
  0
LINE
  8
LAYER_2
 10
165.7184
 20
159.3331
 11
167.7007
 21
158.1886
  0
LINE
  8
LAYER_2
 10
167.7007
 20
158.1886
 11
166.8629
 21
157.3508
  0
LINE
  8
LAYER_2
 10
170.5319
 20
154.5196
 11
174.2619
 21
154.5196
  0
LINE
  8
LAYER_2
 10
141.365
 20
191.6868
 11
137.2522
 21
202.7112
  0
LINE
  8
LAYER_2
 10
139.855
 20
197.4296
 11
140.0727
 21
195.1511
  0
LINE
  8
LAYER_2
 10
140.0727
 20
195.1511
 11
138.745
 21
197.0154
  0
LINE
  8
LAYER_2
 10
138.745
 20
197.0154
 11
139.855
 21
197.4296
  0
LINE
  8
LAYER_2
 10
131.746
 20
202.7112
 11
137.2522
 21
202.7112
  0
LINE
  8
LAYER_2
 10
138.5941
 20
171.5301
 11
139.7389
 21
173.5131
  0
LINE
  8
LAYER_2
 10
139.7389
 20
173.5131
 11
137.7559
 21
172.3686
  0
LINE
  8
LAYER_2
 10
137.7559
 20
172.3686
 11
138.5941
 21
171.5301
  0
LINE
  8
LAYER_2
 10
139.7389
 20
173.5131
 11
134.8114
 21
168.5863
  0
LINE
  8
LAYER_2
 10
125.1606
 20
168.5863
 11
134.8114
 21
168.5863
  0
ARC
  8
LAYER_2
 10
141.3869
 20
191.6385
 40
3.7483
 50
90.33404876
 51
137.1478941
  0
ARC
  8
LAYER_2
 10
141.3472
 20
191.6475
 40
3.7393
 50
42.77774739
 51
89.72650277
  0
ARC
  8
LAYER_2
 10
98.6225
 20
98.4479
 40
0.339
 50
182.0646891
 51
267.8826574
  0
ARC
  8
LAYER_2
 10
98.5976
 20
98.4477
 40
0.3388
 50
272.1008755
 51
357.9693399
  0
ARC
  8
LAYER_2
 10
98.5978
 20
98.4232
 40
0.3387
 50
2.122098311
 51
87.93061977
  0
ARC
  8
LAYER_2
 10
98.6223
 20
98.423
 40
0.3389
 50
92.08437436
 51
177.8453456
  0
CIRCLE
  8
LAYER_2
 10
141.365
 20
191.6868
 40
0.3096
  0
CIRCLE
  8
LAYER_2
 10
176.6342
 20
198.6867
 40
0.2656
  0
LINE
  8
LAYER_3
 10
17.0493
 20
35.9089
 11
183.5495
 21
35.9089
  0
LINE
  8
LAYER_3
 10
103.5496
 20
15.9084
 11
183.5495
 21
15.9084
  0
LINE
  8
LAYER_3
 10
17.0493
 20
23.4091
 11
103.5496
 21
23.4091
  0
LINE
  8
LAYER_3
 10
17.0493
 20
9.4093
 11
103.5496
 21
9.4093
  0
LINE
  8
LAYER_3
 10
28.549
 20
9.4093
 11
28.549
 21
23.4091
  0
LINE
  8
LAYER_3
 10
103.5496
 20
-4.0911
 11
103.5496
 21
35.9089
  0
LINE
  8
LAYER_3
 10
84.549
 20
9.4093
 11
84.549
 21
35.9089
  0
LINE
  8
LAYER_3
 10
65.5493
 20
9.4093
 11
65.5493
 21
35.9089
  0
LINE
  8
LAYER_3
 10
183.5495
 20
-4.0911
 11
17.0493
 21
-4.0911
  0
LINE
  8
LAYER_3
 10
17.0493
 20
-4.0911
 11
17.0493
 21
258.9091
  0
LINE
  8
LAYER_3
 10
17.0493
 20
258.9091
 11
183.5495
 21
258.9091
  0
LINE
  8
LAYER_3
 10
183.5495
 20
258.9091
 11
183.5495
 21
-4.0911
  0
TEXT
  8
LAYER_3
 10
43.5481
 20
27.9366
 11
43.5481
 21
27.9366
 40
4.4979
 41
0.5
 72
1
  1
セラトレーディング株式会社
  0
TEXT
  8
LAYER_3
 10
18.0208
 20
19.4107
 11
18.0208
 21
19.4107
 40
3.0923
 41
0.5
  1
製図
  0
TEXT
  8
LAYER_3
 10
18.0208
 20
5.2114
 11
18.0208
 21
5.2114
 40
3.0923
 41
0.5
  1
備考
  0
TEXT
  8
LAYER_3
 10
29.639
 20
19.4107
 11
29.639
 21
19.4107
 40
3.0923
 41
0.5
  1
検図
  0
TEXT
  8
LAYER_3
 10
66.5925
 20
19.4107
 11
66.5925
 21
19.4107
 40
3.0923
 41
0.5
  1
日付
  0
TEXT
  8
LAYER_3
 10
67.7852
 20
13.2181
 11
67.7852
 21
13.2181
 40
3.6546
 41
0.5
  1
22.07.19
  0
TEXT
  8
LAYER_3
 10
22.7392
 20
13.6033
 11
22.7392
 21
13.6033
 40
3.6546
 41
0.5
 72
1
  1
木場
  0
TEXT
  8
LAYER_3
 10
41.3131
 20
13.6033
 11
41.3131
 21
13.6033
 40
3.6546
 41
0.5
 72
1
  1
井田
  0
TEXT
  8
LAYER_3
 10
109.1782
 20
24.2259
 11
109.1782
 21
24.2259
 40
3.9357
 41
0.5
  1
ネストトレンディ　洗面器
  0
TEXT
  8
LAYER_3
 10
143.5489
 20
-0.8926
 11
143.5489
 21
-0.8926
 40
3.9357
 41
0.5
 72
1
  1
VR5685R
  0
TEXT
  8
LAYER_3
 10
143.5489
 20
9.1081
 11
143.5489
 21
9.1081
 40
3.9357
 41
0.5
 72
1
  1
VR5685R
  0
TEXT
  8
LAYER_3
 10
93.9589
 20
13.2181
 11
93.9589
 21
13.2181
 40
3.6546
 41
0.5
 72
1
  1
1 ： 10
  0
TEXT
  8
LAYER_3
 10
85.6425
 20
19.4107
 11
85.6425
 21
19.4107
 40
3.0923
 41
0.5
  1
尺度
  0
TEXT
  8
LAYER_3
 10
85.6425
 20
31.8182
 11
85.6425
 21
31.8182
 40
3.0923
 41
0.5
  1
単位
  0
TEXT
  8
LAYER_3
 10
93.3671
 20
26.8221
 11
93.3671
 21
26.8221
 40
3.6546
 41
0.5
 72
1
  1
mm
  0
TEXT
  8
LAYER_3
 10
104.6041
 20
31.8182
 11
104.6041
 21
31.8182
 40
3.0923
 41
0.5
  1
名称
  0
TEXT
  8
LAYER_3
 10
104.6041
 20
11.6792
 11
104.6041
 21
11.6792
 40
3.0923
 41
0.5
  1
品番
  0
LINE
  8
LAYER_3
 10
103.5496
 20
5.9087
 11
183.5495
 21
5.9087
  0
TEXT
  8
LAYER_3
 10
104.6041
 20
1.6795
 11
104.6041
 21
1.6795
 40
3.0923
 41
0.5
  1
図番
  0
INSERT
  8
LAYER_3
  2
AIGNBL03010002
 10
0
 20
0
 30
0
  0
LINE
  8
LAYER_3
 10
17.0493
 20
127.4105
 11
-4.701
 21
127.4105
  0
LINE
  8
LAYER_3
 10
100.2993
 20
275.9292
 11
100.2993
 21
258.9091
  0
LINE
  8
LAYER_3
 10
100.2993
 20
-4.0911
 11
100.2993
 21
-21.0709
  0
LINE
  8
LAYER_3
 10
205.2998
 20
127.4105
 11
183.5495
 21
127.4105
  0
TEXT
  8
LAYER_3
 10
24.5864
 20
0.7076
 11
24.5864
 21
0.7076
 40
3.9357
 41
0.5
  1
実容量：5.0L、重量11.7kg、オーバーフロー付
  0
ENDSEC
  0
EOF
